999
Outputted By AR_CAD Ver.1.6.0
  0
SECTION
  2
HEADER
  9
$ACADVER
  1
AC1009
  9
$DWGCODEPAGE
  3
DOS932
  9
$EXTMIN
 10
0
 20
0
  9
$EXTMAX
 10
297
 20
210
  9
$INSBASE
 10
0.0
 20
0.0
 30
0.0
  9
$HANDLING
 70
     1
  9
$LTSCALE
 40
1
  0
ENDSEC
  0
SECTION
  2
TABLES
  0
TABLE
  2
LTYPE
 70
     12
  0
LTYPE
  2
BYBLOCK
 70
    64
 3

 72
    65
 73
    0
 40
    0
  0
LTYPE
  2
BYLAYER
 70
    64
 3

 72
    65
 73
    0
 40
    0
  0
LTYPE
  2
CONTINUOUS
 70
    64
 3
CONTINUOUS
 72
    65
 73
    0
 40
    0
  0
LTYPE
  2
DASHED
 70
    64
 3

 72
    65
 73
    2
 40
    3.5
 49
    2.91666666666667
 49
    -0.583333333333333
  0
LTYPE
  2
DOT
 70
    64
 3

 72
    65
 73
    2
 40
    0.5
 49
    0.25
 49
    -0.25
  0
LTYPE
  2
DASHDOT
 70
    64
 3

 72
    65
 73
    4
 40
    3.5
 49
    1.84210526315789
 49
    -0.552631578947368
 49
    0.552631578947368
 49
    -0.552631578947368
  0
LTYPE
  2
DIVIDE
 70
    64
 3

 72
    65
 73
    6
 40
    3.5
 49
    1.4
 49
    -0.42
 49
    0.42
 49
    -0.42
 49
    0.42
 49
    -0.42
  0
LTYPE
  2
HIDDEN
 70
    64
 3

 72
    65
 73
    2
 40
    1.905
 49
    1.27
 49
    -0.635
  0
LTYPE
  2
PHANTOM
 70
    64
 3

 72
    65
 73
    6
 40
    12.7
 49
    6.35
 49
    -1.27
 49
    1.27
 49
    -1.27
 49
    1.27
 49
    -1.27
  0
LTYPE
  2
CENTER
 70
    64
 3

 72
    65
 73
    4
 40
    10.16
 49
    6.35
 49
    -1.27
 49
    1.27
 49
    -1.27
  0
LTYPE
  2
CENTERX2
 70
    64
 3

 72
    65
 73
    4
 40
    20.32
 49
    12.7
 49
    -2.54
 49
    2.54
 49
    -2.54
  0
LTYPE
  2
DOT2
 70
    64
 3

 72
    65
 73
    2
 40
    0.635
 49
    0
 49
    -0.635
  0
ENDTAB
  0
TABLE
  2
LAYER
 70
   257
  0
LAYER
  2
0
 70
    0
 62
7
  6
CONTINUOUS
  0
LAYER
  2
SLD-0
 70
    0
 62
179
  6
CONTINUOUS
  0
LAYER
  2
KCAD_DIMS
 70
    0
 62
134
  6
CONTINUOUS
  0
LAYER
  2
SLD-DEFPOINTS
 70
    0
 62
179
  6
CONTINUOUS
  0
LAYER
  2
KCAD_ASST
 70
    0
 62
134
  6
CONTINUOUS
  0
LAYER
  2
KCAD_RASTER
 70
    0
 62
179
  6
CONTINUOUS
  0
LAYER
  2
SYBCENTER
 70
    0
 62
134
  6
CONTINUOUS
  0
LAYER
  2
SYBHIDE
 70
    0
 62
134
  6
CONTINUOUS
  0
LAYER
  2
SYBOUTLINE
 70
    0
 62
179
  6
CONTINUOUS
  0
LAYER
  2
SYBTHREAD
 70
    0
 62
134
  6
CONTINUOUS
  0
LAYER
  2
SYBTHRHID
 70
    0
 62
134
  6
CONTINUOUS
  0
LAYER
  2
KCAD_UIR_TMP_LAYER_
 70
    0
 62
179
  6
CONTINUOUS
  0
LAYER
  2
KCAD_CPM_MAX_LAYER
 70
    0
 62
-179
  6
CONTINUOUS
  0
LAYER
  2
1
 70
    0
 62
179
  6
CONTINUOUS
  0
LAYER
  2
99
 70
    0
 62
179
  6
CONTINUOUS
  0
LAYER
  2
2
 70
    0
 62
179
  6
CONTINUOUS
  0
LAYER
  2
6-図面枠
 70
    0
 62
5
  6
CONTINUOUS
  0
LAYER
  2
4-寸法線
 70
    0
 62
5
  6
CONTINUOUS
  0
LAYER
  2
補助線
 70
    0
 62
254
  6
CONTINUOUS
  0
LAYER
  2
2-中心線
 70
    0
 62
5
  6
CONTINUOUS
  0
LAYER
  2
$DDT_AUDIT_GENERATED__179_
 70
    0
 62
179
  6
CONTINUOUS
  0
LAYER
  2
12-中線
 70
    0
 62
179
  6
CONTINUOUS
  0
LAYER
  2
13-細線
 70
    0
 62
179
  6
CONTINUOUS
  0
LAYER
  2
5-文字
 70
    0
 62
5
  6
CONTINUOUS
  0
LAYER
  2
3-かくれ線
 70
    0
 62
5
  6
CONTINUOUS
  0
LAYER
  2
AAA
 70
    0
 62
179
  6
CONTINUOUS
  0
LAYER
  2
基準線層
 70
    0
 62
179
  6
CONTINUOUS
  0
LAYER
  2
注記層
 70
    0
 62
179
  6
CONTINUOUS
  0
LAYER
  2
寸法線層
 70
    0
 62
179
  6
CONTINUOUS
  0
LAYER
  2
画層29
 70
    0
 62
7
  6
CONTINUOUS
  0
LAYER
  2
画層30
 70
    0
 62
7
  6
CONTINUOUS
  0
LAYER
  2
画層31
 70
    0
 62
7
  6
CONTINUOUS
  0
LAYER
  2
画層32
 70
    0
 62
7
  6
CONTINUOUS
  0
LAYER
  2
画層33
 70
    0
 62
7
  6
CONTINUOUS
  0
LAYER
  2
画層34
 70
    0
 62
7
  6
CONTINUOUS
  0
LAYER
  2
画層35
 70
    0
 62
7
  6
CONTINUOUS
  0
LAYER
  2
画層36
 70
    0
 62
7
  6
CONTINUOUS
  0
LAYER
  2
画層37
 70
    0
 62
7
  6
CONTINUOUS
  0
LAYER
  2
画層38
 70
    0
 62
7
  6
CONTINUOUS
  0
LAYER
  2
画層39
 70
    0
 62
7
  6
CONTINUOUS
  0
LAYER
  2
画層40
 70
    0
 62
7
  6
CONTINUOUS
  0
LAYER
  2
画層41
 70
    0
 62
7
  6
CONTINUOUS
  0
LAYER
  2
画層42
 70
    0
 62
7
  6
CONTINUOUS
  0
LAYER
  2
画層43
 70
    0
 62
7
  6
CONTINUOUS
  0
LAYER
  2
画層44
 70
    0
 62
7
  6
CONTINUOUS
  0
LAYER
  2
画層45
 70
    0
 62
7
  6
CONTINUOUS
  0
LAYER
  2
画層46
 70
    0
 62
7
  6
CONTINUOUS
  0
LAYER
  2
画層47
 70
    0
 62
7
  6
CONTINUOUS
  0
LAYER
  2
画層48
 70
    0
 62
7
  6
CONTINUOUS
  0
LAYER
  2
画層49
 70
    0
 62
7
  6
CONTINUOUS
  0
LAYER
  2
画層50
 70
    0
 62
7
  6
CONTINUOUS
  0
LAYER
  2
画層51
 70
    0
 62
7
  6
CONTINUOUS
  0
LAYER
  2
画層52
 70
    0
 62
7
  6
CONTINUOUS
  0
LAYER
  2
画層53
 70
    0
 62
7
  6
CONTINUOUS
  0
LAYER
  2
画層54
 70
    0
 62
7
  6
CONTINUOUS
  0
LAYER
  2
画層55
 70
    0
 62
7
  6
CONTINUOUS
  0
LAYER
  2
画層56
 70
    0
 62
7
  6
CONTINUOUS
  0
LAYER
  2
画層57
 70
    0
 62
7
  6
CONTINUOUS
  0
LAYER
  2
画層58
 70
    0
 62
7
  6
CONTINUOUS
  0
LAYER
  2
画層59
 70
    0
 62
7
  6
CONTINUOUS
  0
LAYER
  2
画層60
 70
    0
 62
7
  6
CONTINUOUS
  0
LAYER
  2
画層61
 70
    0
 62
7
  6
CONTINUOUS
  0
LAYER
  2
画層62
 70
    0
 62
7
  6
CONTINUOUS
  0
LAYER
  2
画層63
 70
    0
 62
7
  6
CONTINUOUS
  0
LAYER
  2
画層64
 70
    0
 62
7
  6
CONTINUOUS
  0
LAYER
  2
画層65
 70
    0
 62
7
  6
CONTINUOUS
  0
LAYER
  2
画層66
 70
    0
 62
7
  6
CONTINUOUS
  0
LAYER
  2
画層67
 70
    0
 62
7
  6
CONTINUOUS
  0
LAYER
  2
画層68
 70
    0
 62
7
  6
CONTINUOUS
  0
LAYER
  2
画層69
 70
    0
 62
7
  6
CONTINUOUS
  0
LAYER
  2
画層70
 70
    0
 62
7
  6
CONTINUOUS
  0
LAYER
  2
画層71
 70
    0
 62
7
  6
CONTINUOUS
  0
LAYER
  2
画層72
 70
    0
 62
7
  6
CONTINUOUS
  0
LAYER
  2
画層73
 70
    0
 62
7
  6
CONTINUOUS
  0
LAYER
  2
画層74
 70
    0
 62
7
  6
CONTINUOUS
  0
LAYER
  2
画層75
 70
    0
 62
7
  6
CONTINUOUS
  0
LAYER
  2
画層76
 70
    0
 62
7
  6
CONTINUOUS
  0
LAYER
  2
画層77
 70
    0
 62
7
  6
CONTINUOUS
  0
LAYER
  2
画層78
 70
    0
 62
7
  6
CONTINUOUS
  0
LAYER
  2
画層79
 70
    0
 62
7
  6
CONTINUOUS
  0
LAYER
  2
画層80
 70
    0
 62
7
  6
CONTINUOUS
  0
LAYER
  2
画層81
 70
    0
 62
7
  6
CONTINUOUS
  0
LAYER
  2
画層82
 70
    0
 62
7
  6
CONTINUOUS
  0
LAYER
  2
画層83
 70
    0
 62
7
  6
CONTINUOUS
  0
LAYER
  2
画層84
 70
    0
 62
7
  6
CONTINUOUS
  0
LAYER
  2
画層85
 70
    0
 62
7
  6
CONTINUOUS
  0
LAYER
  2
画層86
 70
    0
 62
7
  6
CONTINUOUS
  0
LAYER
  2
画層87
 70
    0
 62
7
  6
CONTINUOUS
  0
LAYER
  2
画層88
 70
    0
 62
7
  6
CONTINUOUS
  0
LAYER
  2
画層89
 70
    0
 62
7
  6
CONTINUOUS
  0
LAYER
  2
画層90
 70
    0
 62
7
  6
CONTINUOUS
  0
LAYER
  2
画層91
 70
    0
 62
7
  6
CONTINUOUS
  0
LAYER
  2
画層92
 70
    0
 62
7
  6
CONTINUOUS
  0
LAYER
  2
画層93
 70
    0
 62
7
  6
CONTINUOUS
  0
LAYER
  2
画層94
 70
    0
 62
7
  6
CONTINUOUS
  0
LAYER
  2
画層95
 70
    0
 62
7
  6
CONTINUOUS
  0
LAYER
  2
画層96
 70
    0
 62
7
  6
CONTINUOUS
  0
LAYER
  2
画層97
 70
    0
 62
7
  6
CONTINUOUS
  0
LAYER
  2
画層98
 70
    0
 62
7
  6
CONTINUOUS
  0
LAYER
  2
画層99
 70
    0
 62
7
  6
CONTINUOUS
  0
LAYER
  2
画層100
 70
    0
 62
7
  6
CONTINUOUS
  0
LAYER
  2
画層101
 70
    0
 62
7
  6
CONTINUOUS
  0
LAYER
  2
画層102
 70
    0
 62
7
  6
CONTINUOUS
  0
LAYER
  2
画層103
 70
    0
 62
7
  6
CONTINUOUS
  0
LAYER
  2
画層104
 70
    0
 62
7
  6
CONTINUOUS
  0
LAYER
  2
画層105
 70
    0
 62
7
  6
CONTINUOUS
  0
LAYER
  2
画層106
 70
    0
 62
7
  6
CONTINUOUS
  0
LAYER
  2
画層107
 70
    0
 62
7
  6
CONTINUOUS
  0
LAYER
  2
画層108
 70
    0
 62
7
  6
CONTINUOUS
  0
LAYER
  2
画層109
 70
    0
 62
7
  6
CONTINUOUS
  0
LAYER
  2
画層110
 70
    0
 62
7
  6
CONTINUOUS
  0
LAYER
  2
画層111
 70
    0
 62
7
  6
CONTINUOUS
  0
LAYER
  2
画層112
 70
    0
 62
7
  6
CONTINUOUS
  0
LAYER
  2
画層113
 70
    0
 62
7
  6
CONTINUOUS
  0
LAYER
  2
画層114
 70
    0
 62
7
  6
CONTINUOUS
  0
LAYER
  2
画層115
 70
    0
 62
7
  6
CONTINUOUS
  0
LAYER
  2
画層116
 70
    0
 62
7
  6
CONTINUOUS
  0
LAYER
  2
画層117
 70
    0
 62
7
  6
CONTINUOUS
  0
LAYER
  2
画層118
 70
    0
 62
7
  6
CONTINUOUS
  0
LAYER
  2
画層119
 70
    0
 62
7
  6
CONTINUOUS
  0
LAYER
  2
画層120
 70
    0
 62
7
  6
CONTINUOUS
  0
LAYER
  2
画層121
 70
    0
 62
7
  6
CONTINUOUS
  0
LAYER
  2
画層122
 70
    0
 62
7
  6
CONTINUOUS
  0
LAYER
  2
画層123
 70
    0
 62
7
  6
CONTINUOUS
  0
LAYER
  2
画層124
 70
    0
 62
7
  6
CONTINUOUS
  0
LAYER
  2
画層125
 70
    0
 62
7
  6
CONTINUOUS
  0
LAYER
  2
画層126
 70
    0
 62
7
  6
CONTINUOUS
  0
LAYER
  2
画層127
 70
    0
 62
7
  6
CONTINUOUS
  0
LAYER
  2
画層128
 70
    0
 62
7
  6
CONTINUOUS
  0
LAYER
  2
画層129
 70
    0
 62
7
  6
CONTINUOUS
  0
LAYER
  2
画層130
 70
    0
 62
7
  6
CONTINUOUS
  0
LAYER
  2
画層131
 70
    0
 62
7
  6
CONTINUOUS
  0
LAYER
  2
画層132
 70
    0
 62
7
  6
CONTINUOUS
  0
LAYER
  2
画層133
 70
    0
 62
7
  6
CONTINUOUS
  0
LAYER
  2
画層134
 70
    0
 62
7
  6
CONTINUOUS
  0
LAYER
  2
画層135
 70
    0
 62
7
  6
CONTINUOUS
  0
LAYER
  2
画層136
 70
    0
 62
7
  6
CONTINUOUS
  0
LAYER
  2
画層137
 70
    0
 62
7
  6
CONTINUOUS
  0
LAYER
  2
画層138
 70
    0
 62
7
  6
CONTINUOUS
  0
LAYER
  2
画層139
 70
    0
 62
7
  6
CONTINUOUS
  0
LAYER
  2
画層140
 70
    0
 62
7
  6
CONTINUOUS
  0
LAYER
  2
画層141
 70
    0
 62
7
  6
CONTINUOUS
  0
LAYER
  2
画層142
 70
    0
 62
7
  6
CONTINUOUS
  0
LAYER
  2
画層143
 70
    0
 62
7
  6
CONTINUOUS
  0
LAYER
  2
画層144
 70
    0
 62
7
  6
CONTINUOUS
  0
LAYER
  2
画層145
 70
    0
 62
7
  6
CONTINUOUS
  0
LAYER
  2
画層146
 70
    0
 62
7
  6
CONTINUOUS
  0
LAYER
  2
画層147
 70
    0
 62
7
  6
CONTINUOUS
  0
LAYER
  2
画層148
 70
    0
 62
7
  6
CONTINUOUS
  0
LAYER
  2
画層149
 70
    0
 62
7
  6
CONTINUOUS
  0
LAYER
  2
画層150
 70
    0
 62
7
  6
CONTINUOUS
  0
LAYER
  2
画層151
 70
    0
 62
7
  6
CONTINUOUS
  0
LAYER
  2
画層152
 70
    0
 62
7
  6
CONTINUOUS
  0
LAYER
  2
画層153
 70
    0
 62
7
  6
CONTINUOUS
  0
LAYER
  2
画層154
 70
    0
 62
7
  6
CONTINUOUS
  0
LAYER
  2
画層155
 70
    0
 62
7
  6
CONTINUOUS
  0
LAYER
  2
画層156
 70
    0
 62
7
  6
CONTINUOUS
  0
LAYER
  2
画層157
 70
    0
 62
7
  6
CONTINUOUS
  0
LAYER
  2
画層158
 70
    0
 62
7
  6
CONTINUOUS
  0
LAYER
  2
画層159
 70
    0
 62
7
  6
CONTINUOUS
  0
LAYER
  2
画層160
 70
    0
 62
7
  6
CONTINUOUS
  0
LAYER
  2
画層161
 70
    0
 62
7
  6
CONTINUOUS
  0
LAYER
  2
画層162
 70
    0
 62
7
  6
CONTINUOUS
  0
LAYER
  2
画層163
 70
    0
 62
7
  6
CONTINUOUS
  0
LAYER
  2
画層164
 70
    0
 62
7
  6
CONTINUOUS
  0
LAYER
  2
画層165
 70
    0
 62
7
  6
CONTINUOUS
  0
LAYER
  2
画層166
 70
    0
 62
7
  6
CONTINUOUS
  0
LAYER
  2
画層167
 70
    0
 62
7
  6
CONTINUOUS
  0
LAYER
  2
画層168
 70
    0
 62
7
  6
CONTINUOUS
  0
LAYER
  2
画層169
 70
    0
 62
7
  6
CONTINUOUS
  0
LAYER
  2
画層170
 70
    0
 62
7
  6
CONTINUOUS
  0
LAYER
  2
画層171
 70
    0
 62
7
  6
CONTINUOUS
  0
LAYER
  2
画層172
 70
    0
 62
7
  6
CONTINUOUS
  0
LAYER
  2
画層173
 70
    0
 62
7
  6
CONTINUOUS
  0
LAYER
  2
画層174
 70
    0
 62
7
  6
CONTINUOUS
  0
LAYER
  2
画層175
 70
    0
 62
7
  6
CONTINUOUS
  0
LAYER
  2
画層176
 70
    0
 62
7
  6
CONTINUOUS
  0
LAYER
  2
画層177
 70
    0
 62
7
  6
CONTINUOUS
  0
LAYER
  2
画層178
 70
    0
 62
7
  6
CONTINUOUS
  0
LAYER
  2
画層179
 70
    0
 62
7
  6
CONTINUOUS
  0
LAYER
  2
画層180
 70
    0
 62
7
  6
CONTINUOUS
  0
LAYER
  2
画層181
 70
    0
 62
7
  6
CONTINUOUS
  0
LAYER
  2
画層182
 70
    0
 62
7
  6
CONTINUOUS
  0
LAYER
  2
画層183
 70
    0
 62
7
  6
CONTINUOUS
  0
LAYER
  2
画層184
 70
    0
 62
7
  6
CONTINUOUS
  0
LAYER
  2
画層185
 70
    0
 62
7
  6
CONTINUOUS
  0
LAYER
  2
画層186
 70
    0
 62
7
  6
CONTINUOUS
  0
LAYER
  2
画層187
 70
    0
 62
7
  6
CONTINUOUS
  0
LAYER
  2
画層188
 70
    0
 62
7
  6
CONTINUOUS
  0
LAYER
  2
画層189
 70
    0
 62
7
  6
CONTINUOUS
  0
LAYER
  2
画層190
 70
    0
 62
7
  6
CONTINUOUS
  0
LAYER
  2
画層191
 70
    0
 62
7
  6
CONTINUOUS
  0
LAYER
  2
画層192
 70
    0
 62
7
  6
CONTINUOUS
  0
LAYER
  2
画層193
 70
    0
 62
7
  6
CONTINUOUS
  0
LAYER
  2
画層194
 70
    0
 62
7
  6
CONTINUOUS
  0
LAYER
  2
画層195
 70
    0
 62
7
  6
CONTINUOUS
  0
LAYER
  2
画層196
 70
    0
 62
7
  6
CONTINUOUS
  0
LAYER
  2
画層197
 70
    0
 62
7
  6
CONTINUOUS
  0
LAYER
  2
画層198
 70
    0
 62
7
  6
CONTINUOUS
  0
LAYER
  2
画層199
 70
    0
 62
7
  6
CONTINUOUS
  0
LAYER
  2
画層200
 70
    0
 62
7
  6
CONTINUOUS
  0
LAYER
  2
画層201
 70
    0
 62
7
  6
CONTINUOUS
  0
LAYER
  2
画層202
 70
    0
 62
7
  6
CONTINUOUS
  0
LAYER
  2
画層203
 70
    0
 62
7
  6
CONTINUOUS
  0
LAYER
  2
画層204
 70
    0
 62
7
  6
CONTINUOUS
  0
LAYER
  2
画層205
 70
    0
 62
7
  6
CONTINUOUS
  0
LAYER
  2
画層206
 70
    0
 62
7
  6
CONTINUOUS
  0
LAYER
  2
画層207
 70
    0
 62
7
  6
CONTINUOUS
  0
LAYER
  2
画層208
 70
    0
 62
7
  6
CONTINUOUS
  0
LAYER
  2
画層209
 70
    0
 62
7
  6
CONTINUOUS
  0
LAYER
  2
画層210
 70
    0
 62
7
  6
CONTINUOUS
  0
LAYER
  2
画層211
 70
    0
 62
7
  6
CONTINUOUS
  0
LAYER
  2
画層212
 70
    0
 62
7
  6
CONTINUOUS
  0
LAYER
  2
画層213
 70
    0
 62
7
  6
CONTINUOUS
  0
LAYER
  2
画層214
 70
    0
 62
7
  6
CONTINUOUS
  0
LAYER
  2
画層215
 70
    0
 62
7
  6
CONTINUOUS
  0
LAYER
  2
画層216
 70
    0
 62
7
  6
CONTINUOUS
  0
LAYER
  2
画層217
 70
    0
 62
7
  6
CONTINUOUS
  0
LAYER
  2
画層218
 70
    0
 62
7
  6
CONTINUOUS
  0
LAYER
  2
画層219
 70
    0
 62
7
  6
CONTINUOUS
  0
LAYER
  2
画層220
 70
    0
 62
7
  6
CONTINUOUS
  0
LAYER
  2
画層221
 70
    0
 62
7
  6
CONTINUOUS
  0
LAYER
  2
画層222
 70
    0
 62
7
  6
CONTINUOUS
  0
LAYER
  2
画層223
 70
    0
 62
7
  6
CONTINUOUS
  0
LAYER
  2
画層224
 70
    0
 62
7
  6
CONTINUOUS
  0
LAYER
  2
画層225
 70
    0
 62
7
  6
CONTINUOUS
  0
LAYER
  2
画層226
 70
    0
 62
7
  6
CONTINUOUS
  0
LAYER
  2
画層227
 70
    0
 62
7
  6
CONTINUOUS
  0
LAYER
  2
画層228
 70
    0
 62
7
  6
CONTINUOUS
  0
LAYER
  2
画層229
 70
    0
 62
7
  6
CONTINUOUS
  0
LAYER
  2
画層230
 70
    0
 62
7
  6
CONTINUOUS
  0
LAYER
  2
画層231
 70
    0
 62
7
  6
CONTINUOUS
  0
LAYER
  2
画層232
 70
    0
 62
7
  6
CONTINUOUS
  0
LAYER
  2
画層233
 70
    0
 62
7
  6
CONTINUOUS
  0
LAYER
  2
画層234
 70
    0
 62
7
  6
CONTINUOUS
  0
LAYER
  2
画層235
 70
    0
 62
7
  6
CONTINUOUS
  0
LAYER
  2
画層236
 70
    0
 62
7
  6
CONTINUOUS
  0
LAYER
  2
画層237
 70
    0
 62
7
  6
CONTINUOUS
  0
LAYER
  2
画層238
 70
    0
 62
7
  6
CONTINUOUS
  0
LAYER
  2
画層239
 70
    0
 62
7
  6
CONTINUOUS
  0
LAYER
  2
画層240
 70
    0
 62
7
  6
CONTINUOUS
  0
LAYER
  2
画層241
 70
    0
 62
7
  6
CONTINUOUS
  0
LAYER
  2
画層242
 70
    0
 62
7
  6
CONTINUOUS
  0
LAYER
  2
画層243
 70
    0
 62
7
  6
CONTINUOUS
  0
LAYER
  2
画層244
 70
    0
 62
7
  6
CONTINUOUS
  0
LAYER
  2
画層245
 70
    0
 62
7
  6
CONTINUOUS
  0
LAYER
  2
画層246
 70
    0
 62
7
  6
CONTINUOUS
  0
LAYER
  2
画層247
 70
    0
 62
7
  6
CONTINUOUS
  0
LAYER
  2
画層248
 70
    0
 62
7
  6
CONTINUOUS
  0
LAYER
  2
画層249
 70
    0
 62
7
  6
CONTINUOUS
  0
LAYER
  2
画層250
 70
    0
 62
7
  6
CONTINUOUS
  0
LAYER
  2
画層251
 70
    0
 62
7
  6
CONTINUOUS
  0
LAYER
  2
画層252
 70
    0
 62
7
  6
CONTINUOUS
  0
LAYER
  2
画層253
 70
    0
 62
7
  6
CONTINUOUS
  0
LAYER
  2
画層254
 70
    0
 62
7
  6
CONTINUOUS
  0
LAYER
  2
画層255
 70
    0
 62
7
  6
CONTINUOUS
  0
ENDTAB
  0
TABLE
  2
STYLE
 70
     1
  0
STYLE
  2
Standard
 70
     0
 40
0.0
 41
1.0
 50
0.0
 71
     0
 42
3.2
  3
TXT
  4
BIGFONT
  0
STYLE
  2
Font_0
 70
     0
 40
0.0
 41
1.0
 50
0.0
 71
     0
 42
3.2
  3
txt
  4
BIGFONT
  0
STYLE
  2
Font_1
 70
     0
 40
0.0
 41
1.0
 50
0.0
 71
     0
 42
3.2
  3
txt
  4
BIGFONT
  0
STYLE
  2
Font_2
 70
     0
 40
0.0
 41
1.0
 50
0.0
 71
     0
 42
3.2
  3
txt
  4
BIGFONT
  0
ENDTAB
  0
ENDSEC
  0
SECTION
  2
BLOCKS
  0
BLOCK
  8
0
  2
_OPEN30
 70
    0
 10
0
 20
0
 30
0.0
  3
_OPEN30
  1

  0
LINE
  8
0
  6
BYBLOCK
 62
0
 10
-1
 20
0.267949
 11
0
 21
0
  0
LINE
  8
0
  6
BYBLOCK
 62
0
 10
0
 20
0
 11
-1
 21
-0.267949
  0
LINE
  8
0
  6
BYBLOCK
 62
0
 10
0
 20
0
 11
-1
 21
0
  0
ENDBLK
  0
BLOCK
  8
0
  2
SW_NOTE_0
 70
    0
 10
0
 20
0
 30
0.0
  3
SW_NOTE_0
  1

  0
TEXT
  8
SLD-0
 62
0
  6
BYLAYER
 62
0
 10
-0.8885214388
 20
-2.98901918840966E-16
 40
2.4408
  1
Φ
  7
Font_0
 50
90
 11
-3.3293214388
 21
0
 73
3
  0
TEXT
  8
SLD-0
 62
0
  6
BYLAYER
 62
0
 10
-0.8885214388
 20
3.2333820127
 40
2.4408
  1
17.5
  7
Font_0
 50
90
 11
-3.3293214388
 21
3.2333820127
 73
3
  0
ENDBLK
  0
BLOCK
  8
0
  2
SW_NOTE_1
 70
    0
 10
0
 20
0
 30
0.0
  3
SW_NOTE_1
  1

  0
TEXT
  8
SLD-0
 62
0
  6
BYLAYER
 62
0
 10
-0.8885214388
 20
-2.98901918840966E-16
 40
2.4408
  1
Φ
  7
Font_0
 50
90
 11
-3.3293214388
 21
0
 73
3
  0
TEXT
  8
SLD-0
 62
0
  6
BYLAYER
 62
0
 10
-0.8885214388
 20
3.2333820127
 40
2.4408
  1
18
  7
Font_0
 50
90
 11
-3.3293214388
 21
3.2333820127
 73
3
  0
ENDBLK
  0
BLOCK
  8
0
  2
SW_NOTE_2
 70
    0
 10
0
 20
0
 30
0.0
  3
SW_NOTE_2
  1

  0
TEXT
  8
KCAD_DIMS
 62
0
  6
BYLAYER
 62
0
 10
-0.9477562156
 20
-3.18828718181836E-16
 40
2.6035200388
  1
Φ
  7
Font_0
 50
90
 11
-3.5512762544
 21
0
 73
3
  0
TEXT
  8
KCAD_DIMS
 62
0
  6
BYLAYER
 62
0
 10
-0.9477562156
 20
3.4489408135
 40
2.6035200388
  1
18
  7
Font_0
 50
90
 11
-3.5512762544
 21
3.4489408135
 73
3
  0
ENDBLK
  0
BLOCK
  8
0
  2
SW_NOTE_3
 70
    0
 10
0
 20
0
 30
0.0
  3
SW_NOTE_3
  1

  0
TEXT
  8
0
 62
0
  6
BYLAYER
 62
0
 10
-1.83690953073357E-16
 20
0.4909090909
 40
3
  1
一般
  7
Font_0
 11
0
 21
3.4909090909
 73
3
  0
TEXT
  8
0
 62
0
  6
BYLAYER
 62
0
 10
-1.83690953073357E-16
 20
-3.2090909102
 40
3
  1
公差
  7
Font_0
 11
0
 21
-0.2090909102
 73
3
  0
ENDBLK
  0
BLOCK
  8
0
  2
SW_NOTE_4
 70
    0
 10
0
 20
0
 30
0.0
  3
SW_NOTE_4
  1

  0
LINE
  8
0
  6
CONTINUOUS
 62
0
 10
0
 20
0
 11
0
 21
-4.498808587
  0
LINE
  8
0
  6
CONTINUOUS
 62
0
 10
0
 20
-4.498808587
 11
4.0707905215
 21
-4.498808587
  0
LINE
  8
0
  6
CONTINUOUS
 62
0
 10
4.0707905215
 20
-4.498808587
 11
4.0707905215
 21
0
  0
LINE
  8
0
  6
CONTINUOUS
 62
0
 10
4.0707905215
 20
0
 11
0
 21
0
  0
LINE
  8
0
  6
CONTINUOUS
 62
0
 10
0
 20
0
 11
4.0707905215
 21
-4.498808587
  0
LINE
  8
0
  6
CONTINUOUS
 62
0
 10
0
 20
-4.498808587
 11
4.0707905215
 21
0
  0
ENDBLK
  0
BLOCK
  8
0
  2
SW_NOTE_5
 70
    0
 10
0
 20
0
 30
0.0
  3
SW_NOTE_5
  1

  0
TEXT
  8
0
 62
0
  6
BYLAYER
 62
0
 10
-1.29604172448243E-16
 20
0.3463636363
 40
2.1166666667
  1
1
  7
Font_0
 11
0
 21
2.463030303
 73
3
  0
TEXT
  8
0
 62
0
  6
BYLAYER
 62
0
 10
1.4111110941
 20
0.3463636363
 40
2.1166666667
  1
.6
  7
Font_0
 11
1.4111110941
 21
2.463030303
 73
3
  0
ENDBLK
  0
BLOCK
  8
0
  2
SW_NOTE_6
 70
    0
 10
0
 20
0
 30
0.0
  3
SW_NOTE_6
  1

  0
TEXT
  8
0
 62
0
  6
BYLAYER
 62
0
 10
-1.94406258669302E-16
 20
0.5195454545
 40
3.175
  1
梨地
  7
Font_0
 11
0
 21
3.6945454545
 73
3
  0
TEXT
  8
0
 62
0
  6
BYLAYER
 62
0
 10
-1.94406258669302E-16
 20
-3.7137878276
 40
3.175
  1
黒アルマイト
  7
Font_0
 11
0
 21
-0.5387878276
 73
3
  0
ENDBLK
  0
BLOCK
  8
0
  2
201502261057
 70
    0
 10
0
 20
0
 30
0.0
  3
201502261057
  1

  0
LINE
  8
SYBOUTLINE
  6
BYLAYER
 10
8372.05793405486
 20
13.2315155508786
 11
8327.65793405485
 21
13.2315155508786
  0
LINE
  8
SYBOUTLINE
  6
BYLAYER
 10
8327.35793405485
 20
12.9315155508786
 11
8327.65793405485
 21
13.2315155508786
  0
LINE
  8
SYBOUTLINE
  6
BYLAYER
 10
8372.05793405486
 20
13.2315155508786
 11
8372.35793405485
 21
12.9315155508786
  0
LINE
  8
SYBOUTLINE
  6
BYLAYER
 10
8372.05793405486
 20
-24.7684844491214
 11
8327.65793405485
 21
-24.7684844491214
  0
LINE
  8
SYBOUTLINE
  6
BYLAYER
 10
8327.35793405485
 20
-24.4684844491215
 11
8327.65793405485
 21
-24.7684844491214
  0
LINE
  8
SYBOUTLINE
  6
BYLAYER
 10
8372.05793405486
 20
-24.7684844491214
 11
8372.35793405485
 21
-24.4684844491215
  0
LINE
  8
SYBOUTLINE
  6
BYLAYER
 10
8327.35793405485
 20
12.9315155508786
 11
8327.35793405485
 21
-24.4684844491215
  0
LINE
  8
SYBOUTLINE
  6
BYLAYER
 10
8327.65793405485
 20
-24.7684844491214
 11
8327.65793405485
 21
13.2315155508786
  0
LINE
  8
SYBOUTLINE
  6
BYLAYER
 10
8372.05793405486
 20
13.2315155508786
 11
8372.05793405486
 21
-24.7684844491214
  0
LINE
  8
SYBOUTLINE
  6
BYLAYER
 10
8372.35793405485
 20
-24.4684844491215
 11
8372.35793405485
 21
12.9315155508786
  0
ENDBLK
  0
BLOCK
  8
0
  2
201502261146
 70
    0
 10
0
 20
0
 30
0.0
  3
201502261146
  1

  0
LINE
  8
SYBOUTLINE
  6
BYLAYER
 10
2923.01313787619
 20
1546.38850412072
 11
2923.31313787619
 21
1546.08850412072
  0
LINE
  8
SYBOUTLINE
  6
BYLAYER
 10
2923.01313787619
 20
1546.38850412072
 11
2905.6131378762
 21
1546.38850412072
  0
LINE
  8
SYBOUTLINE
  6
BYLAYER
 10
2905.6131378762
 20
1546.38850412072
 11
2905.31313787619
 21
1546.08850412072
  0
LINE
  8
SYBOUTLINE
  6
BYLAYER
 10
2923.31313787618
 20
1508.68850412073
 11
2923.01313787619
 21
1508.38850412073
  0
LINE
  8
SYBOUTLINE
  6
BYLAYER
 10
2905.6131378762
 20
1508.38850412073
 11
2905.31313787619
 21
1508.68850412073
  0
LINE
  8
SYBOUTLINE
  6
BYLAYER
 10
2923.01313787619
 20
1508.38850412073
 11
2905.6131378762
 21
1508.38850412073
  0
LINE
  8
SYBOUTLINE
  6
BYLAYER
 10
2905.31313787619
 20
1546.08850412072
 11
2905.31313787619
 21
1508.68850412073
  0
LINE
  8
SYBOUTLINE
  6
BYLAYER
 10
2923.31313787618
 20
1508.68850412073
 11
2923.31313787618
 21
1546.08850412072
  0
LINE
  8
SYBOUTLINE
  6
BYLAYER
 10
2923.01313787619
 20
1546.38850412072
 11
2923.01313787619
 21
1508.38850412073
  0
LINE
  8
SYBOUTLINE
  6
BYLAYER
 10
2905.6131378762
 20
1508.38850412073
 11
2905.6131378762
 21
1546.38850412072
  0
ENDBLK
  0
BLOCK
  8
0
  2
201502261148
 70
    0
 10
0
 20
0
 30
0.0
  3
201502261148
  1

  0
LINE
  8
SYBOUTLINE
  6
BYLAYER
 10
2685.15421124943
 20
1671.88426479782
 11
2685.15421124942
 21
1660.18426479782
  0
LINE
  8
SYBOUTLINE
  6
BYLAYER
 10
2701.15421124942
 20
1671.88426479782
 11
2701.15421124942
 21
1660.18426479782
  0
LINE
  8
SYBOUTLINE
  6
BYLAYER
 10
2700.85421124943
 20
1659.88426479782
 11
2701.15421124942
 21
1660.18426479782
  0
LINE
  8
SYBOUTLINE
  6
BYLAYER
 10
2685.15421124942
 20
1660.18426479782
 11
2685.45421124942
 21
1659.88426479782
  0
LINE
  8
SYBOUTLINE
  6
BYLAYER
 10
2685.15421124943
 20
1671.88426479782
 11
2701.15421124942
 21
1671.88426479782
  0
LINE
  8
SYBOUTLINE
  6
BYLAYER
 10
2685.45421124942
 20
1659.88426479782
 11
2700.85421124943
 21
1659.88426479782
  0
LINE
  8
SYBOUTLINE
  6
BYLAYER
 10
2685.15421124942
 20
1660.18426479782
 11
2701.15421124942
 21
1660.18426479782
  0
ENDBLK
  0
BLOCK
  8
0
  2
201502261155
 70
    0
 10
0
 20
0
 30
0.0
  3
201502261155
  1

  0
LINE
  8
SYBTHRHID
  6
BYLAYER
 10
2805.53523438708
 20
1523.09529888379
 11
2805.53523438708
 21
1518.61260924032
  0
LINE
  8
SYBTHRHID
  6
BYLAYER
 10
2797.53523438707
 20
1523.49148789835
 11
2797.53523438707
 21
1518.61260924032
  0
LINE
  8
SYBOUTLINE
  6
BYLAYER
 10
2793.53523438707
 20
1518.61260924032
 11
2793.53523438707
 21
1524.01260924031
  0
LINE
  8
SYBOUTLINE
  6
BYLAYER
 10
2793.83523438708
 20
1524.31260924031
 11
2793.53523438707
 21
1524.01260924031
  0
LINE
  8
SYBOUTLINE
  6
BYLAYER
 10
2809.53523438707
 20
1524.01260924031
 11
2809.53523438707
 21
1518.61260924032
  0
LINE
  8
SYBOUTLINE
  6
BYLAYER
 10
2809.23523438708
 20
1518.31260924032
 11
2809.53523438707
 21
1518.61260924032
  0
LINE
  8
SYBOUTLINE
  6
BYLAYER
 10
2809.23523438708
 20
1524.31260924031
 11
2809.53523438707
 21
1524.01260924031
  0
LINE
  8
SYBOUTLINE
  6
BYLAYER
 10
2793.83523438708
 20
1518.31260924032
 11
2797.23523438708
 21
1518.31260924032
  0
LINE
  8
SYBTHRHID
  6
BYLAYER
 10
2797.53523438707
 20
1518.61260924032
 11
2797.23523438708
 21
1518.31260924032
  0
LINE
  8
SYBOUTLINE
  6
BYLAYER
 10
2793.53523438707
 20
1518.61260924032
 11
2793.83523438708
 21
1518.31260924032
  0
LINE
  8
SYBOUTLINE
  6
BYLAYER
 10
2805.83523438708
 20
1518.31260924032
 11
2809.23523438708
 21
1518.31260924032
  0
LINE
  8
SYBTHRHID
  6
BYLAYER
 10
2805.53523438708
 20
1518.61260924032
 11
2805.83523438708
 21
1518.31260924032
  0
LINE
  8
SYBOUTLINE
  6
BYLAYER
 10
2797.23523438708
 20
1518.31260924032
 11
2805.83523438709
 21
1518.31260924031
  0
LINE
  8
SYBOUTLINE
  6
BYLAYER
 10
2793.83523438708
 20
1524.31260924031
 11
2809.23523438708
 21
1524.31260924031
  0
LINE
  8
SYBOUTLINE
  6
BYLAYER
 10
2793.53523438707
 20
1524.01260924031
 11
2809.53523438707
 21
1524.01260924031
  0
POLYLINE
  8
KCAD_ASST
  6
BYLAYER
 10
0.0
 20
0.0
 30
0.0
 66
1
 40
-1
 41
-1
  0
VERTEX
  8
KCAD_ASST
 10
2795.55733757205
  20
1522.8317135085
  0
VERTEX
  8
KCAD_ASST
 10
2795.9163703794
  20
1522.96608791438
  0
VERTEX
  8
KCAD_ASST
 10
2796.29227583419
  20
1523.10254340032
  0
VERTEX
  8
KCAD_ASST
 10
2796.68305286832
  20
1523.23605983629
  0
VERTEX
  8
KCAD_ASST
 10
2797.08670041367
  20
1523.36161709223
  0
VERTEX
  8
KCAD_ASST
 10
2797.50121740212
  20
1523.47419503812
  0
VERTEX
  8
KCAD_ASST
 10
2797.92460276558
  20
1523.56877354391
  0
VERTEX
  8
KCAD_ASST
 10
2798.35485543591
  20
1523.64033247955
  0
VERTEX
  8
KCAD_ASST
 10
2798.78997434502
  20
1523.68385171502
  0
VERTEX
  8
KCAD_ASST
 10
2799.22795842478
  20
1523.69431112027
  0
VERTEX
  8
KCAD_ASST
 10
2799.66719965979
  20
1523.66879633225
  0
VERTEX
  8
KCAD_ASST
 10
2800.10766224545
  20
1523.61281605592
  0
VERTEX
  8
KCAD_ASST
 10
2800.54970342985
  20
1523.53398476322
  0
VERTEX
  8
KCAD_ASST
 10
2800.99368046109
  20
1523.43991692611
  0
VERTEX
  8
KCAD_ASST
 10
2801.43995058728
  20
1523.33822701652
  0
VERTEX
  8
KCAD_ASST
 10
2801.88887105652
  20
1523.2365295064
  0
VERTEX
  8
KCAD_ASST
 10
2802.3407991169
  20
1523.14243886771
  0
VERTEX
  8
KCAD_ASST
 10
2802.79609201652
  20
1523.06356957238
  0
VERTEX
  8
KCAD_ASST
 10
2803.25510700348
  20
1523.00753609236
  0
VERTEX
  8
KCAD_ASST
 10
2803.71782762474
  20
1522.98007266217
  0
VERTEX
  8
KCAD_ASST
 10
2804.18274262263
  20
1522.97939256655
  0
VERTEX
  8
KCAD_ASST
 10
2804.64796703838
  20
1523.0018288528
  0
VERTEX
  8
KCAD_ASST
 10
2805.11161591316
  20
1523.04371456823
  0
VERTEX
  8
KCAD_ASST
 10
2805.57180428819
  20
1523.10138276015
  0
VERTEX
  8
KCAD_ASST
 10
2806.02664720467
  20
1523.17116647587
  0
VERTEX
  8
KCAD_ASST
 10
2806.47425970379
  20
1523.24939876269
  0
VERTEX
  8
KCAD_ASST
 10
2806.91275682676
  20
1523.33241266793
  0
VERTEX
  8
KCAD_ASST
 10
2807.34025361477
  20
1523.41654123887
  0
SEQEND
100
AcDbEntity
  8
KCAD_ASST
  0
LINE
  8
SYBOUTLINE
  6
BYLAYER
 10
2793.53523438707
 20
1518.61260924032
 11
2809.53523438707
 21
1518.61260924032
  0
ENDBLK
  0
BLOCK
  8
0
  2
201502261157
 70
    0
 10
0
 20
0
 30
0.0
  3
201502261157
  1

  0
LINE
  8
SYBOUTLINE
  6
BYLAYER
 10
2787.22134602678
 20
1559.45368781631
 11
2805.62134602678
 21
1559.45368781631
  0
LINE
  8
SYBOUTLINE
  6
BYLAYER
 10
2786.92134602678
 20
1559.15368781631
 11
2787.22134602678
 21
1559.45368781631
  0
LINE
  8
SYBOUTLINE
  6
BYLAYER
 10
2805.62134602678
 20
1559.45368781631
 11
2805.92134602678
 21
1559.15368781631
  0
LINE
  8
SYBOUTLINE
  6
BYLAYER
 10
2787.22134602678
 20
1527.45368781631
 11
2805.62134602678
 21
1527.45368781631
  0
LINE
  8
SYBOUTLINE
  6
BYLAYER
 10
2786.92134602678
 20
1527.75368781631
 11
2787.22134602678
 21
1527.45368781631
  0
LINE
  8
SYBOUTLINE
  6
BYLAYER
 10
2805.62134602678
 20
1527.45368781631
 11
2805.92134602678
 21
1527.75368781631
  0
LINE
  8
SYBOUTLINE
  6
BYLAYER
 10
2786.92134602678
 20
1559.15368781631
 11
2786.92134602678
 21
1527.75368781631
  0
LINE
  8
SYBOUTLINE
  6
BYLAYER
 10
2787.22134602678
 20
1527.45368781631
 11
2787.22134602678
 21
1559.45368781631
  0
LINE
  8
SYBOUTLINE
  6
BYLAYER
 10
2805.62134602678
 20
1559.45368781631
 11
2805.62134602678
 21
1527.45368781631
  0
LINE
  8
SYBOUTLINE
  6
BYLAYER
 10
2805.92134602678
 20
1527.75368781631
 11
2805.92134602678
 21
1559.15368781631
  0
ENDBLK
  0
BLOCK
  8
0
  2
20502261200
 70
    0
 10
0
 20
0
 30
0.0
  3
20502261200
  1

  0
LINE
  8
SYBOUTLINE
  6
BYLAYER
 10
2823.87510199764
 20
1533.77109953483
 11
2824.17510199764
 21
1534.07109953483
  0
LINE
  8
SYBOUTLINE
  6
BYLAYER
 10
2824.17510199764
 20
1534.07109953483
 11
2843.01910199762
 21
1534.07109953483
  0
LINE
  8
SYBOUTLINE
  6
BYLAYER
 10
2843.01910199762
 20
1534.07109953483
 11
2843.31910199762
 21
1533.77109953483
  0
LINE
  8
SYBOUTLINE
  6
BYLAYER
 10
2843.31910199762
 20
1533.77109953483
 11
2843.31910199762
 21
1502.37109953478
  0
LINE
  8
SYBOUTLINE
  6
BYLAYER
 10
2843.31910199762
 20
1502.37109953478
 11
2843.01910199762
 21
1502.07109953478
  0
LINE
  8
SYBOUTLINE
  6
BYLAYER
 10
2843.01910199762
 20
1502.07109953478
 11
2824.17510199764
 21
1502.07109953478
  0
LINE
  8
SYBOUTLINE
  6
BYLAYER
 10
2824.17510199764
 20
1502.07109953478
 11
2823.87510199764
 21
1502.37109953478
  0
LINE
  8
SYBOUTLINE
  6
BYLAYER
 10
2823.87510199764
 20
1502.37109953478
 11
2823.87510199764
 21
1533.77109953483
  0
LINE
  8
SYBOUTLINE
  6
BYLAYER
 10
2824.17510199764
 20
1534.07109953483
 11
2824.17510199764
 21
1502.07109953478
  0
LINE
  8
SYBOUTLINE
  6
BYLAYER
 10
2843.01910199762
 20
1534.07109953483
 11
2843.01910199762
 21
1502.07109953478
  0
ENDBLK
  0
BLOCK
  8
0
  2
201502261301
 70
    0
 10
0
 20
0
 30
0.0
  3
201502261301
  1

  0
LINE
  8
SYBOUTLINE
  6
BYLAYER
 10
2850.84219882954
 20
1571.31260945858
 11
2842.74219882954
 21
1571.31260945858
  0
LINE
  8
SYBOUTLINE
  6
BYLAYER
 10
2851.04219882954
 20
1571.11260945858
 11
2850.84219882954
 21
1571.31260945858
  0
LINE
  8
SYBOUTLINE
  6
BYLAYER
 10
2842.74219882954
 20
1571.31260945858
 11
2842.54219882954
 21
1571.11260945858
  0
LINE
  8
SYBOUTLINE
  6
BYLAYER
 10
2850.84219882954
 20
1539.31260895136
 11
2842.74219882954
 21
1539.31260895136
  0
LINE
  8
SYBOUTLINE
  6
BYLAYER
 10
2851.04219882954
 20
1539.51260895136
 11
2850.84219882954
 21
1539.31260895136
  0
LINE
  8
SYBOUTLINE
  6
BYLAYER
 10
2842.74219882954
 20
1539.31260895136
 11
2842.54219882954
 21
1539.51260895136
  0
TEXT
  8
SYBOUTLINE
 62
7
  6
BYLAYER
 62
7
 10
2845.36802467633
 20
1563.93543833446
 40
3
  1
OPTART
  7
Font_2
 50
-90
 11
2848.36802467633
 21
1563.93543833446
 73
3
  0
LINE
  8
SYBOUTLINE
  6
BYLAYER
 10
2842.54219882954
 20
1571.11260945858
 11
2842.54219882954
 21
1539.51260895136
  0
LINE
  8
SYBOUTLINE
  6
BYLAYER
 10
2842.74219882954
 20
1539.31260895136
 11
2842.74219882954
 21
1571.31260945858
  0
LINE
  8
SYBOUTLINE
  6
BYLAYER
 10
2850.84219882954
 20
1571.31260945858
 11
2850.84219882954
 21
1539.31260895136
  0
LINE
  8
SYBOUTLINE
  6
BYLAYER
 10
2851.04219882954
 20
1539.51260895136
 11
2851.04219882954
 21
1571.11260945858
  0
ENDBLK
  0
BLOCK
  8
0
  2
201502261304
 70
    0
 10
0
 20
0
 30
0.0
  3
201502261304
  1

  0
LINE
  8
SYBOUTLINE
  6
BYLAYER
 10
2808.87527884691
 20
1571.31260924031
 11
2824.27527884691
 21
1571.31260924031
  0
LINE
  8
SYBOUTLINE
  6
BYLAYER
 10
2808.57527884691
 20
1571.01260924031
 11
2808.87527884691
 21
1571.31260924031
  0
LINE
  8
SYBOUTLINE
  6
BYLAYER
 10
2808.87527884691
 20
1539.31260924031
 11
2824.27527884691
 21
1539.31260924031
  0
LINE
  8
SYBOUTLINE
  6
BYLAYER
 10
2824.57527884691
 20
1539.61260924031
 11
2824.27527884691
 21
1539.31260924031
  0
LINE
  8
SYBOUTLINE
  6
BYLAYER
 10
2808.57527884691
 20
1539.61260924031
 11
2808.87527884691
 21
1539.31260924031
  0
LINE
  8
SYBOUTLINE
  6
BYLAYER
 10
2824.27527884691
 20
1571.31260924031
 11
2824.57527884691
 21
1571.01260924031
  0
LINE
  8
SYBOUTLINE
  6
BYLAYER
 10
2824.57527884691
 20
1567.61260924031
 11
2825.07527884691
 21
1567.61260924031
  0
LINE
  8
KCAD_ASST
  6
BYLAYER
 10
2825.07527884691
 20
1567.61260924031
 11
2828.57527884691
 21
1567.61260924031
  0
LINE
  8
SYBOUTLINE
  6
BYLAYER
 10
2828.17527884691
 20
1568.01260924031
 11
2825.07527884691
 21
1568.01260924031
  0
LINE
  8
SYBOUTLINE
  6
BYLAYER
 10
2824.57527884691
 20
1543.01260924031
 11
2825.07527884691
 21
1543.01260924031
  0
LINE
  8
KCAD_ASST
  6
BYLAYER
 10
2825.07527884691
 20
1543.01260924031
 11
2828.57527884691
 21
1543.01260924031
  0
LINE
  8
SYBOUTLINE
  6
BYLAYER
 10
2825.07527884691
 20
1542.61260924031
 11
2828.17527884691
 21
1542.61260924031
  0
LINE
  8
SYBOUTLINE
  6
BYLAYER
 10
2828.17527884691
 20
1568.01260924031
 11
2828.57527884691
 21
1567.61260924031
  0
LINE
  8
SYBOUTLINE
  6
BYLAYER
 10
2828.17527884691
 20
1542.61260924031
 11
2828.57527884691
 21
1543.01260924031
  0
LINE
  8
SYBOUTLINE
  6
BYLAYER
 10
2825.07527884691
 20
1542.61260924031
 11
2825.07527884691
 21
1568.01260924031
  0
LINE
  8
SYBOUTLINE
  6
BYLAYER
 10
2828.57527884691
 20
1567.61260924031
 11
2828.57527884691
 21
1543.01260924031
  0
LINE
  8
SYBOUTLINE
  6
BYLAYER
 10
2828.17527884691
 20
1542.61260924031
 11
2828.17527884691
 21
1568.01260924031
  0
LINE
  8
SYBOUTLINE
  6
BYLAYER
 10
2824.57527884691
 20
1571.01260924031
 11
2824.57527884691
 21
1539.61260924031
  0
LINE
  8
SYBOUTLINE
  6
BYLAYER
 10
2824.27527884691
 20
1539.31260924031
 11
2824.27527884691
 21
1571.31260924031
  0
LINE
  8
SYBOUTLINE
  6
BYLAYER
 10
2808.87527884691
 20
1571.31260924031
 11
2808.87527884691
 21
1539.31260924031
  0
LINE
  8
SYBOUTLINE
  6
BYLAYER
 10
2808.57527884691
 20
1571.01260924031
 11
2808.57527884691
 21
1539.61260924031
  0
ENDBLK
  0
BLOCK
  8
0
  2
201502261315
 70
    0
 10
0
 20
0
 30
0.0
  3
201502261315
  1

  0
LINE
  8
1
  6
BYLAYER
 10
2805.9657017059
 20
1556.17863463031
 11
2805.21570171937
 21
1555.74562193031
  0
LINE
  8
1
  6
BYLAYER
 10
2805.21570171937
 20
1554.87959655031
 11
2805.9657017059
 21
1554.44658385031
  0
CIRCLE
  8
1
  6
BYLAYER
 10
2805.96570171937
 20
1555.31260924031
 40
1.5
  0
CIRCLE
  8
KCAD_ASST
  6
BYLAYER
 10
2805.96570171937
 20
1555.31260924031
 40
1.2295001
  0
LINE
  8
1
  6
BYLAYER
 10
2805.21570171937
 20
1555.74562193031
 11
2805.21570171937
 21
1554.87959655031
  0
LINE
  8
KCAD_UIR_TMP_LAYER_
  6
BYLAYER
 10
2805.96570171937
 20
1557.81260924031
 11
2805.96570171937
 21
1552.81260924031
  0
LINE
  8
1
  6
BYLAYER
 10
2806.71570171937
 20
1554.87959655031
 11
2806.71570171937
 21
1555.74562193031
  0
LINE
  8
1
  6
BYLAYER
 10
2805.96570173283
 20
1554.44658385031
 11
2806.71570171937
 21
1554.87959655031
  0
LINE
  8
1
  6
BYLAYER
 10
2806.71570171937
 20
1555.74562193031
 11
2805.96570173283
 21
1556.17863463031
  0
ENDBLK
  0
BLOCK
  8
0
  2
201502261805
 70
    0
 10
0
 20
0
 30
0.0
  3
201502261805
  1

  0
LINE
  8
SYBOUTLINE
  6
BYLAYER
 10
2786.13525613871
 20
1576.92163635674
 11
2801.53525613871
 21
1576.92163635674
  0
LINE
  8
SYBOUTLINE
  6
BYLAYER
 10
2785.83525613871
 20
1576.62163635674
 11
2786.13525613871
 21
1576.92163635674
  0
LINE
  8
SYBOUTLINE
  6
BYLAYER
 10
2786.13525613871
 20
1544.92163635674
 11
2801.53525613871
 21
1544.92163635674
  0
LINE
  8
SYBOUTLINE
  6
BYLAYER
 10
2801.83525613871
 20
1545.22163635674
 11
2801.53525613871
 21
1544.92163635674
  0
LINE
  8
SYBOUTLINE
  6
BYLAYER
 10
2785.83525613871
 20
1545.22163635674
 11
2786.13525613871
 21
1544.92163635674
  0
LINE
  8
SYBOUTLINE
  6
BYLAYER
 10
2801.83525613871
 20
1576.62163635674
 11
2801.83525613873
 21
1545.22163635674
  0
LINE
  8
SYBOUTLINE
  6
BYLAYER
 10
2801.53525613871
 20
1576.92163635674
 11
2801.83525613871
 21
1576.62163635674
  0
LINE
  8
SYBOUTLINE
  6
BYLAYER
 10
2801.83525613871
 20
1573.22163635674
 11
2802.33525613871
 21
1573.22163635674
  0
LINE
  8
KCAD_ASST
  6
BYLAYER
 10
2802.33525613871
 20
1573.22163635674
 11
2805.83525613871
 21
1573.22163635674
  0
LINE
  8
SYBOUTLINE
  6
BYLAYER
 10
2805.43525613871
 20
1573.62163635674
 11
2802.33525613871
 21
1573.62163635674
  0
LINE
  8
SYBOUTLINE
  6
BYLAYER
 10
2802.33525613871
 20
1573.62163635674
 11
2802.33525613871
 21
1548.22163635674
  0
LINE
  8
SYBOUTLINE
  6
BYLAYER
 10
2801.83525613871
 20
1548.62163635674
 11
2802.33525613871
 21
1548.62163635674
  0
LINE
  8
KCAD_ASST
  6
BYLAYER
 10
2802.33525613871
 20
1548.62163635674
 11
2805.83525613871
 21
1548.62163635674
  0
LINE
  8
SYBOUTLINE
  6
BYLAYER
 10
2802.33525613871
 20
1548.22163635674
 11
2805.43525613871
 21
1548.22163635674
  0
LINE
  8
SYBOUTLINE
  6
BYLAYER
 10
2805.83525613871
 20
1573.22163635674
 11
2805.83525613871
 21
1548.62163635674
  0
LINE
  8
SYBOUTLINE
  6
BYLAYER
 10
2805.43525613871
 20
1573.62163635674
 11
2805.83525613871
 21
1573.22163635674
  0
LINE
  8
SYBOUTLINE
  6
BYLAYER
 10
2805.43525613871
 20
1548.22163635674
 11
2805.83525613871
 21
1548.62163635674
  0
LINE
  8
SYBOUTLINE
  6
BYLAYER
 10
2785.83525613871
 20
1576.62163635674
 11
2785.83525613871
 21
1545.22163635674
  0
LINE
  8
SYBOUTLINE
  6
BYLAYER
 10
2786.13525613871
 20
1576.92163635674
 11
2786.13525613871
 21
1544.92163635674
  0
LINE
  8
SYBOUTLINE
  6
BYLAYER
 10
2801.53525613871
 20
1576.92163635674
 11
2801.53525613871
 21
1544.92163635674
  0
LINE
  8
SYBOUTLINE
  6
BYLAYER
 10
2805.43525613871
 20
1573.62163635674
 11
2805.43525613871
 21
1548.22163635674
  0
ENDBLK
  0
BLOCK
  8
0
  2
201503031119
 70
    0
 10
0
 20
0
 30
0.0
  3
201503031119
  1

  0
LINE
  8
SYBOUTLINE
  6
BYLAYER
 10
2851.3955954115
 20
1557.60459312299
 11
2806.9955954115
 21
1557.60459312299
  0
LINE
  8
SYBOUTLINE
  6
BYLAYER
 10
2806.6955954115
 20
1557.30459312299
 11
2806.9955954115
 21
1557.60459312299
  0
LINE
  8
SYBOUTLINE
  6
BYLAYER
 10
2851.3955954115
 20
1557.60459312299
 11
2851.6955954115
 21
1557.30459312299
  0
LINE
  8
SYBOUTLINE
  6
BYLAYER
 10
2851.3955954115
 20
1519.60459312299
 11
2806.9955954115
 21
1519.60459312299
  0
LINE
  8
SYBOUTLINE
  6
BYLAYER
 10
2806.6955954115
 20
1519.90459312299
 11
2806.9955954115
 21
1519.60459312299
  0
LINE
  8
SYBOUTLINE
  6
BYLAYER
 10
2851.3955954115
 20
1519.60459312299
 11
2851.6955954115
 21
1519.90459312299
  0
LINE
  8
SYBOUTLINE
  6
BYLAYER
 10
2806.6955954115
 20
1557.30459312299
 11
2806.6955954115
 21
1519.90459312299
  0
LINE
  8
SYBOUTLINE
  6
BYLAYER
 10
2806.9955954115
 20
1519.60459312299
 11
2806.9955954115
 21
1557.60459312299
  0
LINE
  8
SYBOUTLINE
  6
BYLAYER
 10
2851.3955954115
 20
1557.60459312299
 11
2851.3955954115
 21
1519.60459312299
  0
LINE
  8
SYBOUTLINE
  6
BYLAYER
 10
2851.6955954115
 20
1519.90459312299
 11
2851.6955954115
 21
1557.30459312299
  0
ENDBLK
  0
BLOCK
  8
0
  2
201503031120
 70
    0
 10
0
 20
0
 30
0.0
  3
201503031120
  1

  0
LINE
  8
SYBOUTLINE
  6
BYLAYER
 10
2809.70036884684
 20
1561.2588761491
 11
2809.40036884684
 21
1561.5588761491
  0
LINE
  8
SYBOUTLINE
  6
BYLAYER
 10
2809.40036884684
 20
1561.5588761491
 11
2797.70036884684
 21
1561.5588761491
  0
LINE
  8
SYBOUTLINE
  6
BYLAYER
 10
2797.70036884684
 20
1564.25887614909
 11
2797.40036884684
 21
1564.55887614909
  0
LINE
  8
SYBOUTLINE
  6
BYLAYER
 10
2797.40036884684
 20
1564.55887614909
 11
2792.00036884684
 21
1564.55887614909
  0
LINE
  8
SYBOUTLINE
  6
BYLAYER
 10
2792.00036884684
 20
1564.55887614909
 11
2791.70036884684
 21
1564.25887614909
  0
LINE
  8
SYBOUTLINE
  6
BYLAYER
 10
2809.70036884684
 20
1529.8588761491
 11
2809.40036884684
 21
1529.5588761491
  0
LINE
  8
SYBOUTLINE
  6
BYLAYER
 10
2809.40036884684
 20
1529.5588761491
 11
2797.70036884684
 21
1529.5588761491
  0
LINE
  8
SYBOUTLINE
  6
BYLAYER
 10
2797.70036884684
 20
1526.85887614911
 11
2797.40036884684
 21
1526.55887614911
  0
LINE
  8
SYBOUTLINE
  6
BYLAYER
 10
2797.40036884684
 20
1526.55887614911
 11
2792.00036884684
 21
1526.55887614911
  0
LINE
  8
SYBOUTLINE
  6
BYLAYER
 10
2792.00036884684
 20
1526.55887614911
 11
2791.70036884684
 21
1526.85887614911
  0
LINE
  8
SYBOUTLINE
  6
BYLAYER
 10
2791.70036884684
 20
1564.25887614909
 11
2791.70036884684
 21
1526.85887614911
  0
LINE
  8
SYBOUTLINE
  6
BYLAYER
 10
2792.00036884684
 20
1564.55887614909
 11
2792.00036884684
 21
1526.55887614911
  0
LINE
  8
SYBOUTLINE
  6
BYLAYER
 10
2797.40036884684
 20
1564.55887614909
 11
2797.40036884684
 21
1526.55887614911
  0
LINE
  8
SYBOUTLINE
  6
BYLAYER
 10
2797.70036884684
 20
1564.25887614909
 11
2797.70036884684
 21
1526.85887614911
  0
LINE
  8
SYBOUTLINE
  6
BYLAYER
 10
2809.70036884684
 20
1561.2588761491
 11
2809.70036884684
 21
1529.8588761491
  0
LINE
  8
SYBOUTLINE
  6
BYLAYER
 10
2809.40036884684
 20
1561.5588761491
 11
2809.40036884684
 21
1529.5588761491
  0
ENDBLK
  0
BLOCK
  8
0
  2
201503031122
 70
    0
 10
0
 20
0
 30
0.0
  3
201503031122
  1

  0
LINE
  8
SYBOUTLINE
  6
BYLAYER
 10
2811.79499763635
 20
1554.97854429259
 11
2830.19499763636
 21
1554.97854429259
  0
LINE
  8
SYBOUTLINE
  6
BYLAYER
 10
2811.49499763635
 20
1554.67854429259
 11
2811.79499763635
 21
1554.97854429259
  0
LINE
  8
SYBOUTLINE
  6
BYLAYER
 10
2830.19499763636
 20
1554.97854429259
 11
2830.49499763635
 21
1554.67854429259
  0
LINE
  8
SYBOUTLINE
  6
BYLAYER
 10
2811.79499763635
 20
1522.97854429259
 11
2830.19499763636
 21
1522.97854429259
  0
LINE
  8
SYBOUTLINE
  6
BYLAYER
 10
2811.49499763635
 20
1523.27854429259
 11
2811.79499763635
 21
1522.97854429259
  0
LINE
  8
SYBOUTLINE
  6
BYLAYER
 10
2830.19499763636
 20
1522.97854429259
 11
2830.49499763635
 21
1523.27854429259
  0
LINE
  8
SYBOUTLINE
  6
BYLAYER
 10
2811.49499763635
 20
1554.67854429259
 11
2811.49499763635
 21
1523.27854429259
  0
LINE
  8
SYBOUTLINE
  6
BYLAYER
 10
2811.79499763635
 20
1522.97854429259
 11
2811.79499763635
 21
1554.97854429259
  0
LINE
  8
SYBOUTLINE
  6
BYLAYER
 10
2830.19499763636
 20
1554.97854429259
 11
2830.19499763636
 21
1522.97854429259
  0
LINE
  8
SYBOUTLINE
  6
BYLAYER
 10
2830.49499763635
 20
1523.27854429259
 11
2830.49499763635
 21
1554.67854429259
  0
ENDBLK
  0
BLOCK
  8
0
  2
201503031123
 70
    0
 10
0
 20
0
 30
0.0
  3
201503031123
  1

  0
LINE
  8
SYBOUTLINE
  6
BYLAYER
 10
2793.72162427255
 20
1557.64924636361
 11
2794.02162427256
 21
1557.94924636361
  0
LINE
  8
SYBOUTLINE
  6
BYLAYER
 10
2794.02162427256
 20
1557.94924636361
 11
2812.86562427254
 21
1557.94924636361
  0
LINE
  8
SYBOUTLINE
  6
BYLAYER
 10
2812.86562427254
 20
1557.94924636361
 11
2813.16562427253
 21
1557.64924636361
  0
LINE
  8
SYBOUTLINE
  6
BYLAYER
 10
2813.16562427253
 20
1557.64924636361
 11
2813.16562427253
 21
1526.24924636356
  0
LINE
  8
SYBOUTLINE
  6
BYLAYER
 10
2813.16562427253
 20
1526.24924636356
 11
2812.86562427254
 21
1525.94924636356
  0
LINE
  8
SYBOUTLINE
  6
BYLAYER
 10
2812.86562427254
 20
1525.94924636356
 11
2794.02162427256
 21
1525.94924636356
  0
LINE
  8
SYBOUTLINE
  6
BYLAYER
 10
2794.02162427256
 20
1525.94924636356
 11
2793.72162427255
 21
1526.24924636356
  0
LINE
  8
SYBOUTLINE
  6
BYLAYER
 10
2793.72162427255
 20
1526.24924636356
 11
2793.72162427255
 21
1557.64924636361
  0
LINE
  8
SYBOUTLINE
  6
BYLAYER
 10
2794.02162427256
 20
1557.94924636361
 11
2794.02162427256
 21
1525.94924636356
  0
LINE
  8
SYBOUTLINE
  6
BYLAYER
 10
2812.86562427254
 20
1557.94924636361
 11
2812.86562427254
 21
1525.94924636356
  0
ENDBLK
  0
BLOCK
  8
0
  2
201503031125
 70
    0
 10
0
 20
0
 30
0.0
  3
201503031125
  1

  0
LINE
  8
SYBOUTLINE
  6
BYLAYER
 10
2845.2832605881
 20
1573.96950654475
 11
2837.1832605881
 21
1573.96950654475
  0
LINE
  8
SYBOUTLINE
  6
BYLAYER
 10
2845.4832605881
 20
1573.76950654475
 11
2845.2832605881
 21
1573.96950654475
  0
LINE
  8
SYBOUTLINE
  6
BYLAYER
 10
2837.1832605881
 20
1573.96950654475
 11
2836.9832605881
 21
1573.76950654475
  0
LINE
  8
SYBOUTLINE
  6
BYLAYER
 10
2845.2832605881
 20
1541.96950603754
 11
2837.1832605881
 21
1541.96950603754
  0
LINE
  8
SYBOUTLINE
  6
BYLAYER
 10
2845.4832605881
 20
1542.16950603754
 11
2845.2832605881
 21
1541.96950603754
  0
LINE
  8
SYBOUTLINE
  6
BYLAYER
 10
2837.1832605881
 20
1541.96950603754
 11
2836.9832605881
 21
1542.16950603754
  0
TEXT
  8
SYBOUTLINE
 62
7
  6
BYLAYER
 62
7
 10
2839.80908643489
 20
1566.59233542064
 40
3
  1
OPTART
  7
Font_2
 50
-90
 11
2842.80908643489
 21
1566.59233542064
 73
3
  0
LINE
  8
SYBOUTLINE
  6
BYLAYER
 10
2836.9832605881
 20
1573.76950654475
 11
2836.9832605881
 21
1542.16950603754
  0
LINE
  8
SYBOUTLINE
  6
BYLAYER
 10
2837.1832605881
 20
1541.96950603754
 11
2837.1832605881
 21
1573.96950654475
  0
LINE
  8
SYBOUTLINE
  6
BYLAYER
 10
2845.2832605881
 20
1573.96950654475
 11
2845.2832605881
 21
1541.96950603754
  0
LINE
  8
SYBOUTLINE
  6
BYLAYER
 10
2845.4832605881
 20
1542.16950603754
 11
2845.4832605881
 21
1573.76950654475
  0
ENDBLK
  0
BLOCK
  8
0
  2
201503031606
 70
    0
 10
0
 20
0
 30
0.0
  3
201503031606
  1

  0
LINE
  8
SYBOUTLINE
  6
BYLAYER
 10
2840.55332426652
 20
1514.43748684202
 11
2795.15332426652
 21
1514.43748684202
  0
LINE
  8
SYBOUTLINE
  6
BYLAYER
 10
2794.85332426652
 20
1514.13748684202
 11
2795.15332426652
 21
1514.43748684202
  0
LINE
  8
SYBOUTLINE
  6
BYLAYER
 10
2840.55332426652
 20
1514.43748684202
 11
2840.85332426652
 21
1514.13748684202
  0
LINE
  8
SYBOUTLINE
  6
BYLAYER
 10
2840.55332426652
 20
1476.43748684202
 11
2795.15332426652
 21
1476.43748684202
  0
LINE
  8
SYBOUTLINE
  6
BYLAYER
 10
2794.85332426652
 20
1476.73748684202
 11
2795.15332426652
 21
1476.43748684202
  0
LINE
  8
SYBOUTLINE
  6
BYLAYER
 10
2840.55332426652
 20
1476.43748684202
 11
2840.85332426652
 21
1476.73748684202
  0
LINE
  8
SYBOUTLINE
  6
BYLAYER
 10
2794.85332426652
 20
1514.13748684202
 11
2794.85332426652
 21
1476.73748684202
  0
LINE
  8
SYBOUTLINE
  6
BYLAYER
 10
2795.15332426652
 20
1514.43748684202
 11
2795.15332426652
 21
1476.43748684202
  0
LINE
  8
SYBOUTLINE
  6
BYLAYER
 10
2840.55332426652
 20
1514.43748684202
 11
2840.55332426652
 21
1476.43748684202
  0
LINE
  8
SYBOUTLINE
  6
BYLAYER
 10
2840.85332426652
 20
1514.13748684202
 11
2840.85332426652
 21
1476.73748684202
  0
ENDBLK
  0
BLOCK
  8
0
  2
201503031609
 70
    0
 10
0
 20
0
 30
0.0
  3
201503031609
  1

  0
LINE
  8
SYBOUTLINE
  6
BYLAYER
 10
2805.69611147788
 20
1545.48379119379
 11
2826.59611147787
 21
1545.48379119379
  0
LINE
  8
SYBOUTLINE
  6
BYLAYER
 10
2805.39611147787
 20
1545.18379119378
 11
2805.69611147788
 21
1545.48379119379
  0
LINE
  8
SYBOUTLINE
  6
BYLAYER
 10
2846.59611147787
 20
1542.48379119378
 11
2826.89611147787
 21
1542.48379119378
  0
LINE
  8
SYBOUTLINE
  6
BYLAYER
 10
2826.59611147787
 20
1545.48379119379
 11
2826.89611147787
 21
1545.18379119378
  0
LINE
  8
SYBOUTLINE
  6
BYLAYER
 10
2846.59611147787
 20
1542.48379119378
 11
2846.89611147787
 21
1542.18379119378
  0
LINE
  8
SYBOUTLINE
  6
BYLAYER
 10
2805.69611147788
 20
1507.48379119378
 11
2826.59611147787
 21
1507.48379119378
  0
LINE
  8
SYBOUTLINE
  6
BYLAYER
 10
2805.39611147787
 20
1507.78379119378
 11
2805.69611147788
 21
1507.48379119378
  0
LINE
  8
SYBOUTLINE
  6
BYLAYER
 10
2846.59611147787
 20
1510.48379119379
 11
2826.89611147787
 21
1510.48379119379
  0
LINE
  8
SYBOUTLINE
  6
BYLAYER
 10
2826.59611147787
 20
1507.48379119378
 11
2826.89611147787
 21
1507.78379119378
  0
LINE
  8
SYBOUTLINE
  6
BYLAYER
 10
2846.59611147787
 20
1510.48379119379
 11
2846.89611147787
 21
1510.78379119379
  0
LINE
  8
SYBOUTLINE
  6
BYLAYER
 10
2805.39611147787
 20
1507.78379119378
 11
2805.39611147787
 21
1545.18379119378
  0
LINE
  8
SYBOUTLINE
  6
BYLAYER
 10
2805.69611147788
 20
1545.48379119379
 11
2805.69611147788
 21
1507.48379119378
  0
LINE
  8
SYBOUTLINE
  6
BYLAYER
 10
2826.59611147787
 20
1507.48379119378
 11
2826.59611147787
 21
1545.48379119379
  0
LINE
  8
SYBOUTLINE
  6
BYLAYER
 10
2826.89611147787
 20
1545.18379119378
 11
2826.89611147787
 21
1507.78379119378
  0
LINE
  8
SYBOUTLINE
  6
BYLAYER
 10
2846.89611147787
 20
1542.18379119378
 11
2846.89611147787
 21
1510.78379119379
  0
LINE
  8
SYBOUTLINE
  6
BYLAYER
 10
2846.59611147787
 20
1510.48379119379
 11
2846.59611147787
 21
1542.48379119378
  0
ENDBLK
  0
BLOCK
  8
0
  2
201503031614
 70
    0
 10
0
 20
0
 30
0.0
  3
201503031614
  1

  0
LINE
  8
SYBOUTLINE
  6
BYLAYER
 10
2807.30531363815
 20
1544.60752429117
 11
2814.20531363815
 21
1544.60752429117
  0
LINE
  8
SYBOUTLINE
  6
BYLAYER
 10
2807.00531363815
 20
1544.30752429117
 11
2807.30531363815
 21
1544.60752429117
  0
LINE
  8
SYBOUTLINE
  6
BYLAYER
 10
2814.20531363815
 20
1544.60752429117
 11
2814.50531363815
 21
1544.30752429117
  0
LINE
  8
SYBOUTLINE
  6
BYLAYER
 10
2807.30531363815
 20
1512.60752429117
 11
2814.20531363815
 21
1512.60752429117
  0
LINE
  8
SYBOUTLINE
  6
BYLAYER
 10
2807.00531363815
 20
1512.90752429117
 11
2807.30531363815
 21
1512.60752429117
  0
LINE
  8
SYBOUTLINE
  6
BYLAYER
 10
2814.20531363815
 20
1512.60752429117
 11
2814.50531363815
 21
1512.90752429117
  0
LINE
  8
SYBOUTLINE
  6
BYLAYER
 10
2807.00531363815
 20
1544.30752429117
 11
2807.00531363815
 21
1512.90752429117
  0
LINE
  8
SYBOUTLINE
  6
BYLAYER
 10
2807.30531363815
 20
1544.60752429117
 11
2807.30531363815
 21
1512.60752429117
  0
LINE
  8
SYBOUTLINE
  6
BYLAYER
 10
2814.20531363815
 20
1544.60752429117
 11
2814.20531363815
 21
1512.60752429117
  0
LINE
  8
SYBOUTLINE
  6
BYLAYER
 10
2814.50531363815
 20
1544.30752429117
 11
2814.50531363815
 21
1512.90752429117
  0
ENDBLK
  0
BLOCK
  8
0
  2
201503031615
 70
    0
 10
0
 20
0
 30
0.0
  3
201503031615
  1

  0
LINE
  8
SYBOUTLINE
  6
BYLAYER
 10
2790.06910564431
 20
1567.55903211504
 11
2820.87959800288
 21
1567.55903211504
  0
LINE
  8
SYBOUTLINE
  6
BYLAYER
 10
2789.76910564431
 20
1567.25903211504
 11
2790.06910564431
 21
1567.55903211504
  0
LINE
  8
SYBOUTLINE
  6
BYLAYER
 10
2820.87959800288
 20
1567.55903211504
 11
2821.17959800288
 21
1567.25903211504
  0
LINE
  8
SYBOUTLINE
  6
BYLAYER
 10
2790.06910564431
 20
1567.55903211504
 11
2820.87959800288
 21
1567.55903211504
  0
LINE
  8
SYBOUTLINE
  6
BYLAYER
 10
2789.76910564431
 20
1567.25903211504
 11
2790.06910564431
 21
1567.55903211504
  0
LINE
  8
SYBOUTLINE
  6
BYLAYER
 10
2820.87959800288
 20
1567.55903211504
 11
2821.17959800288
 21
1567.25903211504
  0
LINE
  8
SYBOUTLINE
  6
BYLAYER
 10
2790.06910564431
 20
1535.55903211499
 11
2820.87959800288
 21
1535.55903211499
  0
LINE
  8
SYBOUTLINE
  6
BYLAYER
 10
2789.76910564431
 20
1535.85903211499
 11
2790.06910564431
 21
1535.55903211499
  0
LINE
  8
SYBOUTLINE
  6
BYLAYER
 10
2820.87959800288
 20
1535.55903211499
 11
2821.17959800288
 21
1535.85903211499
  0
LINE
  8
SYBOUTLINE
  6
BYLAYER
 10
2789.76910564431
 20
1567.25903211504
 11
2789.76910564431
 21
1535.85903211499
  0
LINE
  8
SYBOUTLINE
  6
BYLAYER
 10
2790.06910564431
 20
1567.55903211504
 11
2790.06910564431
 21
1535.55903211499
  0
LINE
  8
SYBOUTLINE
  6
BYLAYER
 10
2820.87959800288
 20
1567.55903211504
 11
2820.87959800288
 21
1535.55903211499
  0
LINE
  8
SYBOUTLINE
  6
BYLAYER
 10
2821.17959800288
 20
1567.25903211504
 11
2821.17959800288
 21
1535.85903211499
  0
ENDBLK
  0
BLOCK
  8
0
  2
201502261431
 70
    0
 10
0
 20
0
 30
0.0
  3
201502261431
  1

  0
LINE
  8
SYBOUTLINE
  6
BYLAYER
 10
3005.58830778744
 20
1882.07042285347
 11
3005.13830779552
 21
1881.81061523347
  0
LINE
  8
SYBOUTLINE
  6
BYLAYER
 10
3005.13830779552
 20
1881.29100000547
 11
3005.58830778744
 21
1881.03119238547
  0
CIRCLE
  8
SYBOUTLINE
  6
BYLAYER
 10
3005.58830779552
 20
1881.55080761947
 40
1
  0
CIRCLE
  8
KCAD_ASST
  6
BYLAYER
 10
3005.58830779552
 20
1881.55080761947
 40
0.819666733333333
  0
LINE
  8
KCAD_UIR_TMP_LAYER_
  6
BYLAYER
 10
3003.58830779552
 20
1881.55080761947
 11
3007.58830779552
 21
1881.55080761947
  0
LINE
  8
SYBOUTLINE
  6
BYLAYER
 10
3005.13830779552
 20
1881.81061523347
 11
3005.13830779552
 21
1881.29100000547
  0
LINE
  8
SYBOUTLINE
  6
BYLAYER
 10
3006.03830779552
 20
1881.29100000547
 11
3006.03830779552
 21
1881.81061523347
  0
LINE
  8
SYBOUTLINE
  6
BYLAYER
 10
3005.58830780359
 20
1881.03119238547
 11
3006.03830779552
 21
1881.29100000547
  0
LINE
  8
SYBOUTLINE
  6
BYLAYER
 10
3006.03830779552
 20
1881.81061523347
 11
3005.58830780359
 21
1882.07042285347
  0
ENDBLK
  0
BLOCK
  8
0
  2
201502261603
 70
    0
 10
0
 20
0
 30
0.0
  3
201502261603
  1

  0
LINE
  8
SYBOUTLINE
  6
BYLAYER
 10
2852.21174477542
 20
1574.92274400242
 11
2806.81174477541
 21
1574.92274400242
  0
LINE
  8
SYBOUTLINE
  6
BYLAYER
 10
2806.51174477541
 20
1574.62274400242
 11
2806.81174477541
 21
1574.92274400242
  0
LINE
  8
SYBOUTLINE
  6
BYLAYER
 10
2852.21174477542
 20
1574.92274400242
 11
2852.51174477542
 21
1574.62274400242
  0
LINE
  8
SYBOUTLINE
  6
BYLAYER
 10
2852.21174477542
 20
1536.92274400242
 11
2806.81174477541
 21
1536.92274400242
  0
LINE
  8
SYBOUTLINE
  6
BYLAYER
 10
2806.51174477541
 20
1537.22274400242
 11
2806.81174477541
 21
1536.92274400242
  0
LINE
  8
SYBOUTLINE
  6
BYLAYER
 10
2852.21174477542
 20
1536.92274400242
 11
2852.51174477542
 21
1537.22274400242
  0
LINE
  8
SYBOUTLINE
  6
BYLAYER
 10
2806.51174477541
 20
1574.62274400242
 11
2806.51174477541
 21
1537.22274400242
  0
LINE
  8
SYBOUTLINE
  6
BYLAYER
 10
2806.81174477541
 20
1574.92274400242
 11
2806.81174477541
 21
1536.92274400242
  0
LINE
  8
SYBOUTLINE
  6
BYLAYER
 10
2852.21174477542
 20
1574.92274400242
 11
2852.21174477542
 21
1536.92274400242
  0
LINE
  8
SYBOUTLINE
  6
BYLAYER
 10
2852.51174477542
 20
1574.62274400242
 11
2852.51174477542
 21
1537.22274400242
  0
ENDBLK
  0
BLOCK
  8
0
  2
201502261608
 70
    0
 10
0
 20
0
 30
0.0
  3
201502261608
  1

  0
LINE
  8
SYBOUTLINE
  6
BYLAYER
 10
2808.02820836345
 20
1574.92274400241
 11
2807.72820836345
 21
1574.62274400241
  0
LINE
  8
SYBOUTLINE
  6
BYLAYER
 10
2808.02820836345
 20
1536.92274400242
 11
2807.72820836345
 21
1537.22274400242
  0
LINE
  8
SYBOUTLINE
  6
BYLAYER
 10
2808.02820836346
 20
1574.92274400242
 11
2834.42820836345
 21
1574.92274400242
  0
LINE
  8
SYBOUTLINE
  6
BYLAYER
 10
2848.92820836345
 20
1571.92274400242
 11
2834.72820836345
 21
1571.92274400242
  0
LINE
  8
SYBOUTLINE
  6
BYLAYER
 10
2834.42820836345
 20
1574.92274400242
 11
2834.72820836345
 21
1574.62274400242
  0
LINE
  8
SYBOUTLINE
  6
BYLAYER
 10
2848.92820836345
 20
1571.92274400242
 11
2849.22820836345
 21
1571.62274400242
  0
LINE
  8
SYBOUTLINE
  6
BYLAYER
 10
2848.92820836345
 20
1539.92274400242
 11
2834.72820836345
 21
1539.92274400242
  0
LINE
  8
SYBOUTLINE
  6
BYLAYER
 10
2834.42820836345
 20
1536.92274400242
 11
2834.72820836345
 21
1537.22274400242
  0
LINE
  8
SYBOUTLINE
  6
BYLAYER
 10
2848.92820836345
 20
1539.92274400242
 11
2849.22820836345
 21
1540.22274400242
  0
LINE
  8
SYBOUTLINE
  6
BYLAYER
 10
2808.02820836345
 20
1536.92274400242
 11
2834.42820836345
 21
1536.92274400242
  0
LINE
  8
SYBOUTLINE
  6
BYLAYER
 10
2807.72820836345
 20
1574.62274400241
 11
2807.72820836345
 21
1537.22274400242
  0
LINE
  8
SYBOUTLINE
  6
BYLAYER
 10
2808.02820836345
 20
1536.92274400242
 11
2808.02820836346
 21
1574.92274400242
  0
LINE
  8
SYBOUTLINE
  6
BYLAYER
 10
2834.42820836345
 20
1574.92274400242
 11
2834.42820836345
 21
1536.92274400242
  0
LINE
  8
SYBOUTLINE
  6
BYLAYER
 10
2834.72820836345
 20
1537.22274400242
 11
2834.72820836345
 21
1574.62274400242
  0
LINE
  8
SYBOUTLINE
  6
BYLAYER
 10
2848.92820836345
 20
1571.92274400242
 11
2848.92820836345
 21
1539.92274400242
  0
LINE
  8
SYBOUTLINE
  6
BYLAYER
 10
2849.22820836345
 20
1540.22274400242
 11
2849.22820836345
 21
1571.62274400242
  0
ENDBLK
  0
BLOCK
  8
0
  2
201502261613
 70
    0
 10
0
 20
0
 30
0.0
  3
201502261613
  1

  0
LINE
  8
SYBOUTLINE
  6
BYLAYER
 10
2788.9689361002
 20
1533.10350578413
 11
2788.9689361002
 21
1521.40350578412
  0
LINE
  8
SYBOUTLINE
  6
BYLAYER
 10
2804.9689361002
 20
1533.10350578413
 11
2804.9689361002
 21
1521.40350578412
  0
LINE
  8
SYBOUTLINE
  6
BYLAYER
 10
2804.6689361002
 20
1521.10350578413
 11
2804.9689361002
 21
1521.40350578412
  0
LINE
  8
SYBOUTLINE
  6
BYLAYER
 10
2788.9689361002
 20
1521.40350578412
 11
2789.26893610019
 21
1521.10350578413
  0
LINE
  8
SYBOUTLINE
  6
BYLAYER
 10
2788.9689361002
 20
1533.10350578413
 11
2804.9689361002
 21
1533.10350578413
  0
LINE
  8
SYBOUTLINE
  6
BYLAYER
 10
2788.9689361002
 20
1521.40350578412
 11
2804.9689361002
 21
1521.40350578412
  0
LINE
  8
SYBOUTLINE
  6
BYLAYER
 10
2789.26893610019
 20
1521.10350578413
 11
2804.6689361002
 21
1521.10350578413
  0
ENDBLK
  0
BLOCK
  8
0
  2
201502261615
 70
    0
 10
0
 20
0
 30
0.0
  3
201502261615
  1

  0
LINE
  8
SYBOUTLINE
  6
BYLAYER
 10
2831.26336620716
 20
1519.22274400242
 11
2831.26336620716
 21
1524.62274400242
  0
LINE
  8
SYBOUTLINE
  6
BYLAYER
 10
2831.56336620716
 20
1524.92274400242
 11
2831.26336620716
 21
1524.62274400242
  0
LINE
  8
SYBOUTLINE
  6
BYLAYER
 10
2847.26336620716
 20
1524.62274400242
 11
2847.26336620716
 21
1519.22274400242
  0
LINE
  8
SYBOUTLINE
  6
BYLAYER
 10
2846.96336620716
 20
1518.92274400242
 11
2847.26336620716
 21
1519.22274400242
  0
LINE
  8
SYBOUTLINE
  6
BYLAYER
 10
2846.96336620716
 20
1524.92274400242
 11
2847.26336620716
 21
1524.62274400242
  0
LINE
  8
SYBOUTLINE
  6
BYLAYER
 10
2831.26336620716
 20
1519.22274400242
 11
2831.56336620716
 21
1518.92274400242
  0
LINE
  8
SYBOUTLINE
  6
BYLAYER
 10
2831.56336620716
 20
1518.92274400242
 11
2846.96336620716
 21
1518.92274400242
  0
LINE
  8
SYBOUTLINE
  6
BYLAYER
 10
2831.26336620716
 20
1519.22274400242
 11
2847.26336620716
 21
1519.22274400242
  0
LINE
  8
SYBOUTLINE
  6
BYLAYER
 10
2831.26336620716
 20
1524.62274400242
 11
2847.26336620716
 21
1524.62274400242
  0
LINE
  8
SYBOUTLINE
  6
BYLAYER
 10
2831.56336620716
 20
1524.92274400242
 11
2846.96336620716
 21
1524.92274400242
  0
LINE
  8
SYBTHRHID
  6
BYLAYER
 10
2843.26336620716
 20
1524.27881335604
 11
2843.26336620716
 21
1519.22274400242
  0
LINE
  8
SYBTHRHID
  6
BYLAYER
 10
2835.26336620716
 20
1524.07162344994
 11
2835.26336620716
 21
1519.22274400242
  0
LINE
  8
SYBTHRHID
  6
BYLAYER
 10
2835.26336620716
 20
1519.22274400242
 11
2834.96336620716
 21
1518.92274400242
  0
LINE
  8
SYBTHRHID
  6
BYLAYER
 10
2843.26336620716
 20
1519.22274400242
 11
2843.56336620716
 21
1518.92274400242
  0
POLYLINE
  8
KCAD_ASST
  6
BYLAYER
 10
0.0
 20
0.0
 30
0.0
 66
1
 40
-1
 41
-1
  0
VERTEX
  8
KCAD_ASST
 10
2833.29379074501
  20
1524.39030838285
  0
VERTEX
  8
KCAD_ASST
 10
2833.73799710629
  20
1524.35864348592
  0
VERTEX
  8
KCAD_ASST
 10
2834.19443723431
  20
1524.29241068394
  0
VERTEX
  8
KCAD_ASST
 10
2834.66073648062
  20
1524.20091790079
  0
VERTEX
  8
KCAD_ASST
 10
2835.13452019674
  20
1524.09347306034
  0
VERTEX
  8
KCAD_ASST
 10
2835.61341373423
  20
1523.97938408648
  0
VERTEX
  8
KCAD_ASST
 10
2836.0950424446
  20
1523.86795890309
  0
VERTEX
  8
KCAD_ASST
 10
2836.57703167941
  20
1523.76850543406
  0
VERTEX
  8
KCAD_ASST
 10
2837.05700679017
  20
1523.69033160326
  0
VERTEX
  8
KCAD_ASST
 10
2837.53259312844
  20
1523.64274533459
  0
VERTEX
  8
KCAD_ASST
 10
2838.00193195422
  20
1523.63238475843
  0
VERTEX
  8
KCAD_ASST
 10
2838.46522816147
  20
1523.65520883125
  0
VERTEX
  8
KCAD_ASST
 10
2838.9232025526
  20
1523.70450671604
  0
VERTEX
  8
KCAD_ASST
 10
2839.37657593004
  20
1523.77356757576
  0
VERTEX
  8
KCAD_ASST
 10
2839.82606909621
  20
1523.8556805734
  0
VERTEX
  8
KCAD_ASST
 10
2840.27240285354
  20
1523.94413487195
  0
VERTEX
  8
KCAD_ASST
 10
2840.71629800446
  20
1524.03221963436
  0
VERTEX
  8
KCAD_ASST
 10
2841.15847535139
  20
1524.11322402364
  0
VERTEX
  8
KCAD_ASST
 10
2841.59965569674
  20
1524.18043720275
  0
VERTEX
  8
KCAD_ASST
 10
2842.04002699117
  20
1524.22855940177
  0
VERTEX
  8
KCAD_ASST
 10
2842.47764577811
  20
1524.25793511912
  0
VERTEX
  8
KCAD_ASST
 10
2842.91003574924
  20
1524.27031992033
  0
VERTEX
  8
KCAD_ASST
 10
2843.33472059622
  20
1524.26746937092
  0
VERTEX
  8
KCAD_ASST
 10
2843.74922401071
  20
1524.2511390364
  0
VERTEX
  8
KCAD_ASST
 10
2844.15106968438
  20
1524.22308448231
  0
VERTEX
  8
KCAD_ASST
 10
2844.53778130888
  20
1524.18506127416
  0
VERTEX
  8
KCAD_ASST
 10
2844.9068825759
  20
1524.13882497747
  0
VERTEX
  8
KCAD_ASST
 10
2845.25589717708
  20
1524.08613115777
  0
SEQEND
100
AcDbEntity
  8
KCAD_ASST
  0
ENDBLK
  0
BLOCK
  8
0
  2
201502261636
 70
    0
 10
0
 20
0
 30
0.0
  3
201502261636
  1

  0
LINE
  8
SYBOUTLINE
  6
BYLAYER
 10
2798.74663155235
 20
1571.92274400244
 11
2798.74663155235
 21
1539.92274400239
  0
LINE
  8
SYBOUTLINE
  6
BYLAYER
 10
2829.55712391092
 20
1571.92274400244
 11
2829.55712391092
 21
1539.92274400239
  0
ENDBLK
  0
BLOCK
  8
0
  2
201502261635
 70
    0
 10
0
 20
0
 30
0.0
  3
201502261635
  1

  0
LINE
  8
SYBOUTLINE
  6
BYLAYER
 10
2798.74663155235
 20
1571.92274400244
 11
2829.55712391092
 21
1571.92274400244
  0
LINE
  8
SYBOUTLINE
  6
BYLAYER
 10
2798.44663155235
 20
1571.62274400244
 11
2798.74663155235
 21
1571.92274400244
  0
LINE
  8
SYBOUTLINE
  6
BYLAYER
 10
2829.55712391092
 20
1571.92274400244
 11
2829.85712391092
 21
1571.62274400244
  0
LINE
  8
SYBOUTLINE
  6
BYLAYER
 10
2798.74663155235
 20
1571.92274400244
 11
2829.55712391092
 21
1571.92274400244
  0
LINE
  8
SYBOUTLINE
  6
BYLAYER
 10
2798.44663155235
 20
1571.62274400244
 11
2798.74663155235
 21
1571.92274400244
  0
LINE
  8
SYBOUTLINE
  6
BYLAYER
 10
2829.55712391092
 20
1571.92274400244
 11
2829.85712391092
 21
1571.62274400244
  0
LINE
  8
SYBOUTLINE
  6
BYLAYER
 10
2798.74663155235
 20
1539.92274400239
 11
2829.55712391092
 21
1539.92274400239
  0
LINE
  8
SYBOUTLINE
  6
BYLAYER
 10
2798.44663155235
 20
1540.22274400239
 11
2798.74663155235
 21
1539.92274400239
  0
LINE
  8
SYBOUTLINE
  6
BYLAYER
 10
2829.55712391092
 20
1539.92274400239
 11
2829.85712391092
 21
1540.22274400239
  0
LINE
  8
SYBOUTLINE
  6
BYLAYER
 10
2798.44663155235
 20
1571.62274400244
 11
2798.44663155235
 21
1540.22274400239
  0
LINE
  8
SYBOUTLINE
  6
BYLAYER
 10
2829.85712391092
 20
1571.62274400244
 11
2829.85712391092
 21
1540.22274400239
  0
INSERT
  8
99
  6
CONTINUOUS
  2
201502261636
 10
0
 20
0
 30
0.0
  0
ENDBLK
  0
BLOCK
  8
0
  2
201502261638
 70
    0
 10
0
 20
0
 30
0.0
  3
201502261638
  1

  0
LINE
  8
SYBOUTLINE
  6
BYLAYER
 10
2813.44065125878
 20
1581.97220552359
 11
2820.34065125878
 21
1581.97220552359
  0
LINE
  8
SYBOUTLINE
  6
BYLAYER
 10
2813.14065125878
 20
1581.67220552359
 11
2813.44065125878
 21
1581.97220552359
  0
LINE
  8
SYBOUTLINE
  6
BYLAYER
 10
2820.34065125878
 20
1581.97220552359
 11
2820.64065125878
 21
1581.67220552359
  0
LINE
  8
SYBOUTLINE
  6
BYLAYER
 10
2813.44065125878
 20
1549.97220552359
 11
2820.34065125878
 21
1549.97220552359
  0
LINE
  8
SYBOUTLINE
  6
BYLAYER
 10
2813.14065125878
 20
1550.27220552359
 11
2813.44065125878
 21
1549.97220552359
  0
LINE
  8
SYBOUTLINE
  6
BYLAYER
 10
2820.34065125878
 20
1549.97220552359
 11
2820.64065125878
 21
1550.27220552359
  0
LINE
  8
SYBOUTLINE
  6
BYLAYER
 10
2813.14065125878
 20
1581.67220552359
 11
2813.14065125878
 21
1550.27220552359
  0
LINE
  8
SYBOUTLINE
  6
BYLAYER
 10
2813.44065125878
 20
1581.97220552359
 11
2813.44065125878
 21
1549.97220552359
  0
LINE
  8
SYBOUTLINE
  6
BYLAYER
 10
2820.34065125878
 20
1581.97220552359
 11
2820.34065125878
 21
1549.97220552359
  0
LINE
  8
SYBOUTLINE
  6
BYLAYER
 10
2820.64065125878
 20
1581.67220552359
 11
2820.64065125878
 21
1550.27220552359
  0
ENDBLK
  0
BLOCK
  8
0
  2
201502261639
 70
    0
 10
0
 20
0
 30
0.0
  3
201502261639
  1

  0
LINE
  8
SYBOUTLINE
  6
BYLAYER
 10
2802.64594810914
 20
1571.92274422068
 11
2794.54594810914
 21
1571.92274422068
  0
LINE
  8
SYBOUTLINE
  6
BYLAYER
 10
2802.84594810914
 20
1571.72274422068
 11
2802.64594810914
 21
1571.92274422068
  0
LINE
  8
SYBOUTLINE
  6
BYLAYER
 10
2794.54594810914
 20
1571.92274422068
 11
2794.34594810914
 21
1571.72274422068
  0
LINE
  8
SYBOUTLINE
  6
BYLAYER
 10
2802.64594810914
 20
1539.92274371346
 11
2794.54594810914
 21
1539.92274371346
  0
LINE
  8
SYBOUTLINE
  6
BYLAYER
 10
2802.84594810914
 20
1540.12274371346
 11
2802.64594810914
 21
1539.92274371346
  0
LINE
  8
SYBOUTLINE
  6
BYLAYER
 10
2794.54594810914
 20
1539.92274371346
 11
2794.34594810914
 21
1540.12274371346
  0
TEXT
  8
SYBOUTLINE
 62
7
  6
BYLAYER
 62
7
 10
2797.17177395593
 20
1564.54557309656
 40
3
  1
OPTART
  7
Font_2
 50
-90
 11
2800.17177395593
 21
1564.54557309656
 73
3
  0
LINE
  8
SYBOUTLINE
  6
BYLAYER
 10
2794.34594810914
 20
1571.72274422068
 11
2794.34594810914
 21
1540.12274371346
  0
LINE
  8
SYBOUTLINE
  6
BYLAYER
 10
2794.54594810914
 20
1539.92274371346
 11
2794.54594810914
 21
1571.92274422068
  0
LINE
  8
SYBOUTLINE
  6
BYLAYER
 10
2802.64594810914
 20
1571.92274422068
 11
2802.64594810914
 21
1539.92274371346
  0
LINE
  8
SYBOUTLINE
  6
BYLAYER
 10
2802.84594810914
 20
1540.12274371346
 11
2802.84594810914
 21
1571.72274422068
  0
ENDBLK
  0
BLOCK
  8
0
  2
201502261641
 70
    0
 10
0
 20
0
 30
0.0
  3
201502261641
  1

  0
LINE
  8
SYBOUTLINE
  6
BYLAYER
 10
2854.64051966787
 20
1557.4232405137
 11
2870.04051966787
 21
1557.4232405137
  0
LINE
  8
SYBOUTLINE
  6
BYLAYER
 10
2854.34051966786
 20
1557.1232405137
 11
2854.64051966787
 21
1557.4232405137
  0
LINE
  8
SYBOUTLINE
  6
BYLAYER
 10
2854.64051966787
 20
1525.4232405137
 11
2870.04051966787
 21
1525.4232405137
  0
LINE
  8
SYBOUTLINE
  6
BYLAYER
 10
2870.34051966786
 20
1525.7232405137
 11
2870.04051966787
 21
1525.4232405137
  0
LINE
  8
SYBOUTLINE
  6
BYLAYER
 10
2854.34051966786
 20
1525.7232405137
 11
2854.64051966787
 21
1525.4232405137
  0
LINE
  8
SYBOUTLINE
  6
BYLAYER
 10
2870.04051966787
 20
1557.4232405137
 11
2870.34051966786
 21
1557.1232405137
  0
LINE
  8
SYBOUTLINE
  6
BYLAYER
 10
2870.34051966786
 20
1553.7232405137
 11
2870.84051966786
 21
1553.7232405137
  0
LINE
  8
KCAD_ASST
  6
BYLAYER
 10
2870.84051966786
 20
1553.7232405137
 11
2874.34051966786
 21
1553.7232405137
  0
LINE
  8
SYBOUTLINE
  6
BYLAYER
 10
2873.94051966787
 20
1554.1232405137
 11
2870.84051966786
 21
1554.1232405137
  0
LINE
  8
SYBOUTLINE
  6
BYLAYER
 10
2870.84051966786
 20
1554.1232405137
 11
2870.84051966786
 21
1553.7232405137
  0
LINE
  8
SYBOUTLINE
  6
BYLAYER
 10
2870.34051966786
 20
1529.1232405137
 11
2870.84051966786
 21
1529.1232405137
  0
LINE
  8
KCAD_ASST
  6
BYLAYER
 10
2870.84051966786
 20
1529.1232405137
 11
2874.34051966786
 21
1529.1232405137
  0
LINE
  8
SYBOUTLINE
  6
BYLAYER
 10
2870.84051966786
 20
1529.1232405137
 11
2870.84051966786
 21
1528.7232405137
  0
LINE
  8
SYBOUTLINE
  6
BYLAYER
 10
2870.84051966786
 20
1528.7232405137
 11
2873.94051966787
 21
1528.7232405137
  0
LINE
  8
SYBOUTLINE
  6
BYLAYER
 10
2873.94051966787
 20
1554.1232405137
 11
2874.34051966786
 21
1553.7232405137
  0
LINE
  8
SYBOUTLINE
  6
BYLAYER
 10
2873.94051966787
 20
1528.7232405137
 11
2874.34051966786
 21
1529.1232405137
  0
LINE
  8
SYBOUTLINE
  6
BYLAYER
 10
2874.34051966786
 20
1553.7232405137
 11
2874.34051966786
 21
1529.1232405137
  0
LINE
  8
SYBOUTLINE
  6
BYLAYER
 10
2854.34051966786
 20
1557.1232405137
 11
2854.34051966786
 21
1525.7232405137
  0
LINE
  8
SYBOUTLINE
  6
BYLAYER
 10
2854.64051966787
 20
1557.4232405137
 11
2854.64051966787
 21
1525.4232405137
  0
LINE
  8
SYBOUTLINE
  6
BYLAYER
 10
2870.04051966787
 20
1557.4232405137
 11
2870.04051966787
 21
1525.4232405137
  0
LINE
  8
SYBOUTLINE
  6
BYLAYER
 10
2870.34051966786
 20
1557.1232405137
 11
2870.34051966786
 21
1525.7232405137
  0
LINE
  8
SYBOUTLINE
  6
BYLAYER
 10
2870.84051966786
 20
1529.1232405137
 11
2870.84051966786
 21
1553.7232405137
  0
LINE
  8
SYBOUTLINE
  6
BYLAYER
 10
2873.94051966787
 20
1554.1232405137
 11
2873.94051966787
 21
1528.7232405137
  0
ENDBLK
  0
ENDSEC
  0
SECTION
  2
ENTITIES
  0
LINE
  8
0
  6
CONTINUOUS
 62
7
 10
180.554508668825
 20
21.8965533177
 11
179.054508668825
 21
19.4979426292
  0
LINE
  8
0
  6
CONTINUOUS
 62
7
 10
177.554508668825
 20
21.8965533177
 11
179.054508668825
 21
19.4979426292
  0
LINE
  8
0
  6
CONTINUOUS
 62
7
 10
167.753804012325
 20
21.8965533177
 11
166.253804012325
 21
19.4979426292
  0
LINE
  8
0
  6
CONTINUOUS
 62
7
 10
164.753804012325
 20
21.8965533177
 11
166.253804012325
 21
19.4979426292
  0
LINE
  8
0
  6
CONTINUOUS
 62
7
 10
155.389797169425
 20
21.54399829
 11
153.889797169425
 21
19.1850803655
  0
LINE
  8
0
  6
CONTINUOUS
 62
7
 10
152.389797169425
 20
21.54399829
 11
153.889797169425
 21
19.1850803655
  0
LINE
  8
0
  6
CONTINUOUS
 62
7
 10
193.032087976025
 20
22.3612920535
 11
191.532087976025
 21
19.7632158421
  0
LINE
  8
0
  6
CONTINUOUS
 62
7
 10
149.389797169425
 20
16.5943757159
 11
152.389797169425
 21
16.5943757159
  0
LINE
  8
0
  6
CONTINUOUS
 62
7
 10
152.389797169425
 20
16.5943757159
 11
150.889797169425
 21
13.9962995046
  0
LINE
  8
0
  6
CONTINUOUS
 62
7
 10
149.389797169425
 20
16.5943757159
 11
150.889797169425
 21
13.9962995046
  0
LINE
  8
0
  6
CENTER
 62
7
 10
152.389797169425
 20
16.5943757159
 11
155.389797169425
 21
16.5943757159
  0
LINE
  8
0
  6
CONTINUOUS
 62
7
 10
266.188107781925
 20
20.25
 11
262.354774448625
 21
20.25
  0
LINE
  8
0
  6
CONTINUOUS
 62
7
 10
266.188107781925
 20
13
 11
257.188107781925
 21
13
  0
LINE
  8
0
  6
CONTINUOUS
 62
7
 10
266.188107781925
 20
13
 11
266.188107781925
 21
20.25
  0
LINE
  8
0
  6
CONTINUOUS
 62
7
 10
257.188107781925
 20
20.25
 11
252.354774448625
 21
20.25
  0
LINE
  8
0
  6
CONTINUOUS
 62
7
 10
257.188107781925
 20
13
 11
236.521441115325
 21
13
  0
LINE
  8
0
  6
CONTINUOUS
 62
7
 10
257.188107781925
 20
13
 11
257.188107781925
 21
20.25
  0
LINE
  8
0
  6
CONTINUOUS
 62
7
 10
236.521441115325
 20
20.25
 11
240.854774448625
 21
20.25
  0
LINE
  8
0
  6
CONTINUOUS
 62
7
 10
236.521441115325
 20
13
 11
227.521441115325
 21
13
  0
LINE
  8
0
  6
CONTINUOUS
 62
7
 10
236.521441115325
 20
13
 11
236.521441115325
 21
20.25
  0
LINE
  8
0
  6
CONTINUOUS
 62
7
 10
227.521441115325
 20
13
 11
206.854774448625
 21
13
  0
LINE
  8
0
  6
CONTINUOUS
 62
7
 10
227.521441115325
 20
20.25
 11
230.854774448625
 21
20.25
  0
LINE
  8
0
  6
CONTINUOUS
 62
7
 10
227.521441115325
 20
20.25
 11
227.521441115325
 21
13
  0
LINE
  8
0
  6
CONTINUOUS
 62
7
 10
206.854774448625
 20
13
 11
197.854774448625
 21
13
  0
LINE
  8
0
  6
CONTINUOUS
 62
7
 10
206.854774448625
 20
20.25
 11
209.354774448625
 21
20.25
  0
LINE
  8
0
  6
CONTINUOUS
 62
7
 10
206.854774448625
 20
20.25
 11
206.854774448625
 21
13
  0
LINE
  8
0
  6
CONTINUOUS
 62
7
 10
272.854774448625
 20
20.25
 11
266.188107781925
 21
20.25
  0
LINE
  8
0
  6
CONTINUOUS
 62
7
 10
272.854774448625
 20
27.5
 11
264.854774448625
 21
27.5
  0
LINE
  8
0
  6
CONTINUOUS
 62
7
 10
272.854774448625
 20
27.5
 11
272.854774448625
 21
20.25
  0
LINE
  8
0
  6
CONTINUOUS
 62
7
 10
262.354774448625
 20
20.25
 11
257.188107781925
 21
20.25
  0
LINE
  8
0
  6
CONTINUOUS
 62
7
 10
262.354774448625
 20
27.5
 11
264.854774448625
 21
27.5
  0
LINE
  8
0
  6
CONTINUOUS
 62
7
 10
262.354774448625
 20
27.5
 11
262.354774448625
 21
20.25
  0
LINE
  8
0
  6
CONTINUOUS
 62
7
 10
252.354774448625
 20
27.5
 11
262.354774448625
 21
27.5
  0
LINE
  8
0
  6
CONTINUOUS
 62
7
 10
252.354774448625
 20
27.5
 11
252.354774448625
 21
20.25
  0
LINE
  8
0
  6
CONTINUOUS
 62
7
 10
240.854774448625
 20
20.25
 11
252.354774448625
 21
20.25
  0
LINE
  8
0
  6
CONTINUOUS
 62
7
 10
240.854774448625
 20
27.5
 11
252.354774448625
 21
27.5
  0
LINE
  8
0
  6
CONTINUOUS
 62
7
 10
240.854774448625
 20
27.5
 11
240.854774448625
 21
20.25
  0
LINE
  8
0
  6
CONTINUOUS
 62
7
 10
230.854774448625
 20
20.25
 11
236.521441115325
 21
20.25
  0
LINE
  8
0
  6
CONTINUOUS
 62
7
 10
230.854774448625
 20
27.5
 11
240.854774448625
 21
27.5
  0
LINE
  8
0
  6
CONTINUOUS
 62
7
 10
230.854774448625
 20
27.5
 11
230.854774448625
 21
20.25
  0
LINE
  8
0
  6
CONTINUOUS
 62
7
 10
219.354774448625
 20
20.25
 11
227.521441115325
 21
20.25
  0
LINE
  8
0
  6
CONTINUOUS
 62
7
 10
219.354774448625
 20
27.5
 11
230.854774448625
 21
27.5
  0
LINE
  8
0
  6
CONTINUOUS
 62
7
 10
219.354774448625
 20
27.5
 11
219.354774448625
 21
20.25
  0
LINE
  8
0
  6
CONTINUOUS
 62
7
 10
209.354774448625
 20
20.25
 11
219.354774448625
 21
20.25
  0
LINE
  8
0
  6
CONTINUOUS
 62
7
 10
209.354774448625
 20
27.5
 11
219.354774448625
 21
27.5
  0
LINE
  8
0
  6
CONTINUOUS
 62
7
 10
209.354774448625
 20
27.5
 11
209.354774448625
 21
20.25
  0
LINE
  8
0
  6
CONTINUOUS
 62
7
 10
249.454774448625
 20
27.5
 11
249.454774448625
 21
47.3
  0
LINE
  8
0
  6
CONTINUOUS
 62
7
 10
286.854774448625
 20
13
 11
286.854774448625
 21
20.25
  0
LINE
  8
0
  6
CONTINUOUS
 62
7
 10
10
 20
203.311142778765
 11
10
 21
12.9104086271514
  0
LINE
  8
0
  6
CONTINUOUS
 62
7
 10
43.8547744486254
 20
58
 11
53.8547744486254
 21
58
  0
LINE
  8
0
  6
CONTINUOUS
 62
7
 10
43.8547744486254
 20
58
 11
43.8547744486254
 21
50.5
  0
LINE
  8
0
  6
CONTINUOUS
 62
7
 10
147.854774448625
 20
58
 11
147.854774448625
 21
54
  0
LINE
  8
0
  6
CONTINUOUS
 62
7
 10
147.854774448625
 20
13
 11
160.354774448625
 21
13
  0
LINE
  8
0
  6
CONTINUOUS
 62
7
 10
147.854774448625
 20
20.5
 11
115.828328339425
 21
20.5
  0
LINE
  8
0
  6
CONTINUOUS
 62
7
 10
147.854774448625
 20
20.5
 11
147.854774448625
 21
13
  0
LINE
  8
0
  6
CONTINUOUS
 62
7
 10
43.8547744486254
 20
20.5
 11
43.8547744486254
 21
13
  0
LINE
  8
0
  6
CONTINUOUS
 62
7
 10
147.854774448625
 20
58
 11
197.854774448625
 21
58
  0
LINE
  8
0
  6
CONTINUOUS
 62
7
 10
286.854774448625
 20
58
 11
286.854774448625
 21
203.256677671635
  0
LINE
  8
0
  6
CONTINUOUS
 62
7
 10
197.854774448625
 20
58
 11
197.854774448625
 21
54
  0
LINE
  8
0
  6
CONTINUOUS
 62
7
 10
197.854774448625
 20
58
 11
286.854774448625
 21
58
  0
LINE
  8
0
  6
CONTINUOUS
 62
7
 10
128.721411862725
 20
58
 11
128.721411862725
 21
20.5
  0
LINE
  8
0
  6
CONTINUOUS
 62
7
 10
134.611681529325
 20
58
 11
147.854774448625
 21
58
  0
LINE
  8
0
  6
CONTINUOUS
 62
7
 10
73.8547744486254
 20
58
 11
73.8547744486254
 21
20.5
  0
LINE
  8
0
  6
CONTINUOUS
 62
7
 10
73.8547744486254
 20
58
 11
134.611681529325
 21
58
  0
LINE
  8
0
  6
CONTINUOUS
 62
7
 10
147.854774448625
 20
54
 11
167.354774448625
 21
54
  0
LINE
  8
0
  6
CONTINUOUS
 62
7
 10
147.854774448625
 20
54
 11
147.854774448625
 21
50.5
  0
LINE
  8
0
  6
CONTINUOUS
 62
7
 10
197.854774448625
 20
54
 11
197.854774448625
 21
50
  0
LINE
  8
0
  6
CONTINUOUS
 62
7
 10
147.854774448625
 20
30
 11
167.354774448625
 21
30
  0
LINE
  8
0
  6
CONTINUOUS
 62
7
 10
147.854774448625
 20
30
 11
147.854774448625
 21
28
  0
LINE
  8
0
  6
CONTINUOUS
 62
7
 10
197.854774448625
 20
30
 11
197.854774448625
 21
27.5
  0
LINE
  8
0
  6
CONTINUOUS
 62
7
 10
147.854774448625
 20
25.5
 11
160.354774448625
 21
25.5
  0
LINE
  8
0
  6
CONTINUOUS
 62
7
 10
147.854774448625
 20
25.5
 11
147.854774448625
 21
21
  0
LINE
  8
0
  6
CONTINUOUS
 62
7
 10
197.854774448625
 20
25.5
 11
197.854774448625
 21
21
  0
LINE
  8
0
  6
CONTINUOUS
 62
7
 10
286.854774448625
 20
47.3
 11
286.854774448625
 21
58
  0
LINE
  8
0
  6
CONTINUOUS
 62
7
 10
197.854774448625
 20
47.3
 11
197.854774448625
 21
46
  0
LINE
  8
0
  6
CONTINUOUS
 62
7
 10
147.854774448625
 20
18.5432775977
 11
197.854774448625
 21
18.5432775977
  0
LINE
  8
0
  6
CONTINUOUS
 62
7
 10
147.854774448625
 20
21
 11
147.854774448625
 21
20.5
  0
LINE
  8
0
  6
CONTINUOUS
 62
7
 10
197.854774448625
 20
21
 11
197.854774448625
 21
20.25
  0
LINE
  8
0
  6
CONTINUOUS
 62
7
 10
286.854774448625
 20
27.5
 11
286.854774448625
 21
37.4
  0
LINE
  8
0
  6
CONTINUOUS
 62
7
 10
197.854774448625
 20
27.5
 11
197.854774448625
 21
25.5
  0
LINE
  8
0
  6
CONTINUOUS
 62
7
 10
160.354774448625
 20
25.5
 11
160.354774448625
 21
13
  0
LINE
  8
0
  6
CONTINUOUS
 62
7
 10
160.354774448625
 20
25.5
 11
172.854774448625
 21
25.5
  0
LINE
  8
0
  6
CONTINUOUS
 62
7
 10
160.354774448625
 20
13
 11
172.854774448625
 21
13
  0
LINE
  8
0
  6
CONTINUOUS
 62
7
 10
172.854774448625
 20
13
 11
172.854774448625
 21
25.5
  0
LINE
  8
0
  6
CONTINUOUS
 62
7
 10
172.854774448625
 20
13
 11
185.354774448625
 21
13
  0
LINE
  8
0
  6
CONTINUOUS
 62
7
 10
172.854774448625
 20
25.5
 11
185.354774448625
 21
25.5
  0
LINE
  8
0
  6
CONTINUOUS
 62
7
 10
185.354774448625
 20
25.5
 11
185.354774448625
 21
13
  0
LINE
  8
0
  6
CONTINUOUS
 62
7
 10
185.354774448625
 20
25.5
 11
197.854774448625
 21
25.5
  0
LINE
  8
0
  6
CONTINUOUS
 62
7
 10
185.354774448625
 20
13
 11
197.854774448625
 21
13
  0
LINE
  8
0
  6
CONTINUOUS
 62
7
 10
286.854774448625
 20
20.25
 11
286.854774448625
 21
27.5
  0
LINE
  8
0
  6
CONTINUOUS
 62
7
 10
197.854774448625
 20
20.25
 11
197.854774448625
 21
13
  0
LINE
  8
0
  6
CONTINUOUS
 62
7
 10
197.854774448625
 20
37.4
 11
286.854774448625
 21
37.4
  0
LINE
  8
0
  6
CONTINUOUS
 62
7
 10
197.854774448625
 20
37.4
 11
197.854774448625
 21
34
  0
LINE
  8
0
  6
CONTINUOUS
 62
7
 10
286.854774448625
 20
37.4
 11
286.854774448625
 21
47.3
  0
LINE
  8
0
  6
CONTINUOUS
 62
7
 10
286.854774448625
 20
47.3
 11
264.854774448625
 21
47.3
  0
LINE
  8
0
  6
CONTINUOUS
 62
7
 10
286.854774448625
 20
27.5
 11
272.854774448625
 21
27.5
  0
LINE
  8
0
  6
CONTINUOUS
 62
7
 10
286.854774448625
 20
20.25
 11
272.854774448625
 21
20.25
  0
LINE
  8
0
  6
CONTINUOUS
 62
7
 10
286.854774448625
 20
13
 11
266.188107781925
 21
13
  0
LINE
  8
0
  6
CONTINUOUS
 62
7
 10
213.354774448625
 20
47.3
 11
213.354774448625
 21
27.5
  0
LINE
  8
0
  6
CONTINUOUS
 62
7
 10
213.354774448625
 20
47.3
 11
197.854774448625
 21
47.3
  0
LINE
  8
0
  6
CONTINUOUS
 62
7
 10
197.854774448625
 20
27.5
 11
209.354774448625
 21
27.5
  0
LINE
  8
0
  6
CONTINUOUS
 62
7
 10
197.854774448625
 20
20.25
 11
206.854774448625
 21
20.25
  0
LINE
  8
0
  6
CONTINUOUS
 62
7
 10
249.454774448625
 20
47.3
 11
213.354774448625
 21
47.3
  0
LINE
  8
0
  6
CONTINUOUS
 62
7
 10
264.854774448625
 20
47.3
 11
264.854774448625
 21
27.5
  0
LINE
  8
0
  6
CONTINUOUS
 62
7
 10
264.854774448625
 20
47.3
 11
249.454774448625
 21
47.3
  0
LINE
  8
0
  6
CONTINUOUS
 62
7
 10
167.354774448625
 20
54
 11
167.354774448625
 21
30
  0
LINE
  8
0
  6
CONTINUOUS
 62
7
 10
167.354774448625
 20
54
 11
177.521441115325
 21
54
  0
LINE
  8
0
  6
CONTINUOUS
 62
7
 10
167.354774448625
 20
30
 11
177.521441115325
 21
30
  0
LINE
  8
0
  6
CONTINUOUS
 62
7
 10
177.521441115325
 20
30
 11
177.521441115325
 21
54
  0
LINE
  8
0
  6
CONTINUOUS
 62
7
 10
177.521441115325
 20
30
 11
187.688107781925
 21
30
  0
LINE
  8
0
  6
CONTINUOUS
 62
7
 10
177.521441115325
 20
54
 11
187.688107781925
 21
54
  0
LINE
  8
0
  6
CONTINUOUS
 62
7
 10
187.688107781925
 20
54
 11
187.688107781925
 21
30
  0
LINE
  8
0
  6
CONTINUOUS
 62
7
 10
187.688107781925
 20
54
 11
197.854774448625
 21
54
  0
LINE
  8
0
  6
CONTINUOUS
 62
7
 10
187.688107781925
 20
30
 11
197.854774448625
 21
30
  0
LINE
  8
0
  6
CONTINUOUS
 62
7
 10
53.8547744486254
 20
58
 11
53.8547744486254
 21
20.5
  0
LINE
  8
0
  6
CONTINUOUS
 62
7
 10
53.8547744486254
 20
58
 11
73.8547744486254
 21
58
  0
LINE
  8
0
  6
CONTINUOUS
 62
7
 10
43.8547744486254
 20
13
 11
56.8051175023255
 21
13
  0
LINE
  8
0
  6
CONTINUOUS
 62
7
 10
43.8547744486254
 20
50.5
 11
147.854774448625
 21
50.5
  0
LINE
  8
0
  6
CONTINUOUS
 62
7
 10
43.8547744486254
 20
50.5
 11
43.8547744486254
 21
43
  0
LINE
  8
0
  6
CONTINUOUS
 62
7
 10
147.854774448625
 20
50.5
 11
147.854774448625
 21
50
  0
LINE
  8
0
  6
CONTINUOUS
 62
7
 10
147.854774448625
 20
43
 11
43.8547744486254
 21
43
  0
LINE
  8
0
  6
CONTINUOUS
 62
7
 10
147.854774448625
 20
43
 11
147.854774448625
 21
42
  0
LINE
  8
0
  6
CONTINUOUS
 62
7
 10
43.8547744486254
 20
43
 11
43.8547744486254
 21
35.5
  0
LINE
  8
0
  6
CONTINUOUS
 62
7
 10
43.8547744486254
 20
35.5
 11
147.854774448625
 21
35.5
  0
LINE
  8
0
  6
CONTINUOUS
 62
7
 10
43.8547744486254
 20
35.5
 11
43.8547744486254
 21
28
  0
LINE
  8
0
  6
CONTINUOUS
 62
7
 10
147.854774448625
 20
35.5
 11
147.854774448625
 21
34
  0
LINE
  8
0
  6
CONTINUOUS
 62
7
 10
43.8547744486254
 20
28
 11
147.854774448625
 21
28
  0
LINE
  8
0
  6
CONTINUOUS
 62
7
 10
43.8547744486254
 20
28
 11
43.8547744486254
 21
20.5
  0
LINE
  8
0
  6
CONTINUOUS
 62
7
 10
147.854774448625
 20
28
 11
147.854774448625
 21
25.5
  0
LINE
  8
0
  6
CONTINUOUS
 62
7
 10
197.854774448625
 20
50
 11
147.854774448625
 21
50
  0
LINE
  8
0
  6
CONTINUOUS
 62
7
 10
197.854774448625
 20
50
 11
197.854774448625
 21
47.3
  0
LINE
  8
0
  6
CONTINUOUS
 62
7
 10
147.854774448625
 20
50
 11
147.854774448625
 21
46
  0
LINE
  8
0
  6
CONTINUOUS
 62
7
 10
197.854774448625
 20
46
 11
147.854774448625
 21
46
  0
LINE
  8
0
  6
CONTINUOUS
 62
7
 10
197.854774448625
 20
46
 11
197.854774448625
 21
42
  0
LINE
  8
0
  6
CONTINUOUS
 62
7
 10
147.854774448625
 20
46
 11
147.854774448625
 21
43
  0
LINE
  8
0
  6
CONTINUOUS
 62
7
 10
147.854774448625
 20
42
 11
197.854774448625
 21
42
  0
LINE
  8
0
  6
CONTINUOUS
 62
7
 10
147.854774448625
 20
42
 11
147.854774448625
 21
38
  0
LINE
  8
0
  6
CONTINUOUS
 62
7
 10
197.854774448625
 20
42
 11
197.854774448625
 21
38
  0
LINE
  8
0
  6
CONTINUOUS
 62
7
 10
197.854774448625
 20
38
 11
147.854774448625
 21
38
  0
LINE
  8
0
  6
CONTINUOUS
 62
7
 10
197.854774448625
 20
38
 11
197.854774448625
 21
37.4
  0
LINE
  8
0
  6
CONTINUOUS
 62
7
 10
147.854774448625
 20
38
 11
147.854774448625
 21
35.5
  0
LINE
  8
0
  6
CONTINUOUS
 62
7
 10
147.854774448625
 20
34
 11
197.854774448625
 21
34
  0
LINE
  8
0
  6
CONTINUOUS
 62
7
 10
147.854774448625
 20
34
 11
147.854774448625
 21
30
  0
LINE
  8
0
  6
CONTINUOUS
 62
7
 10
197.854774448625
 20
34
 11
197.854774448625
 21
30
  0
LINE
  8
0
  6
CONTINUOUS
 62
7
 10
56.8051175023255
 20
13
 11
56.8051175023255
 21
20.5
  0
LINE
  8
0
  6
CONTINUOUS
 62
7
 10
56.8051175023255
 20
13
 11
69.6179853352255
 21
13
  0
LINE
  8
0
  6
CONTINUOUS
 62
7
 10
56.8051175023255
 20
20.5
 11
43.8547744486254
 21
20.5
  0
LINE
  8
0
  6
CONTINUOUS
 62
7
 10
69.6179853352255
 20
20.5
 11
69.6179853352255
 21
13
  0
LINE
  8
0
  6
CONTINUOUS
 62
7
 10
69.6179853352255
 20
20.5
 11
56.8051175023255
 21
20.5
  0
LINE
  8
0
  6
CONTINUOUS
 62
7
 10
69.6179853352255
 20
13
 11
104.485789602025
 21
13
  0
LINE
  8
0
  6
CONTINUOUS
 62
7
 10
104.485789602025
 20
20.5
 11
104.485789602025
 21
13
  0
LINE
  8
0
  6
CONTINUOUS
 62
7
 10
104.485789602025
 20
20.5
 11
69.6179853352255
 21
20.5
  0
LINE
  8
0
  6
CONTINUOUS
 62
7
 10
104.485789602025
 20
13
 11
115.828328339425
 21
13
  0
LINE
  8
0
  6
CONTINUOUS
 62
7
 10
115.828328339425
 20
20.5
 11
115.828328339425
 21
13
  0
LINE
  8
0
  6
CONTINUOUS
 62
7
 10
115.828328339425
 20
20.5
 11
104.485789602025
 21
20.5
  0
LINE
  8
0
  6
CONTINUOUS
 62
7
 10
115.828328339425
 20
13
 11
147.854774448625
 21
13
  0
LINE
  8
0
  6
CENTER
 62
7
 10
152.389797169425
 20
16.5943757159
 11
153.889797169425
 21
13.9962995046
  0
LINE
  8
0
  6
CENTER
 62
7
 10
155.389797169425
 20
16.5943757159
 11
153.889797169425
 21
13.9962995046
  0
LINE
  8
0
  6
CENTER
 62
7
 10
155.389797169425
 20
16.5943757159
 11
158.389797169425
 21
16.5943757159
  0
LINE
  8
0
  6
CENTER
 62
7
 10
155.389797169425
 20
16.5943757159
 11
156.889797169425
 21
13.9962995046
  0
LINE
  8
0
  6
CENTER
 62
7
 10
158.389797169425
 20
16.5943757159
 11
156.889797169425
 21
13.9962995046
  0
LINE
  8
0
  6
CONTINUOUS
 62
7
 10
163.253804012325
 20
16.6216693293
 11
166.253804012325
 21
16.6216693293
  0
LINE
  8
0
  6
CONTINUOUS
 62
7
 10
166.253804012325
 20
16.6216693293
 11
164.753804012325
 21
14.0235931179
  0
LINE
  8
0
  6
CONTINUOUS
 62
7
 10
163.253804012325
 20
16.6216693293
 11
164.753804012325
 21
14.0235931179
  0
LINE
  8
0
  6
CENTER
 62
7
 10
166.253804012325
 20
16.6216693293
 11
169.253804012325
 21
16.6216693293
  0
LINE
  8
0
  6
CENTER
 62
7
 10
169.253804012325
 20
16.6216693293
 11
167.753804012325
 21
14.0235931179
  0
LINE
  8
0
  6
CENTER
 62
7
 10
166.253804012325
 20
16.6216693293
 11
167.753804012325
 21
14.0235931179
  0
LINE
  8
0
  6
CONTINUOUS
 62
7
 10
177.554508668825
 20
16.4579076492
 11
180.554508668825
 21
16.4579076492
  0
LINE
  8
0
  6
CONTINUOUS
 62
7
 10
180.554508668825
 20
16.4579076492
 11
179.054508668825
 21
13.8598314379
  0
LINE
  8
0
  6
CONTINUOUS
 62
7
 10
177.554508668825
 20
16.4579076492
 11
179.054508668825
 21
13.8598314379
  0
LINE
  8
0
  6
CONTINUOUS
 62
7
 10
190.032087976025
 20
22.3612920535
 11
191.532087976025
 21
19.7632158421
  0
POINT
  8
1
 10
297.058665806
 20
-0.0307504175
  0
POLYLINE
  8
0
 62
5
  6
CONTINUOUS
 10
0.0
 20
0.0
 30
0.0
 66
1
 40
0.15
 41
0.15
  0
VERTEX
  8
0
 10
189.346708997582
  20
15.190762615304
  0
VERTEX
  8
0
 10
189.485139691924
  20
15.3562822828262
  0
VERTEX
  8
0
 10
189.620507359762
  20
15.514824832998
  0
VERTEX
  8
0
 10
189.752635303359
  20
15.6628757683244
  0
VERTEX
  8
0
 10
189.881346824976
  20
15.7969205913102
  0
VERTEX
  8
0
 10
190.006465226877
  20
15.9134448044605
  0
VERTEX
  8
0
 10
190.127813811323
  20
16.0089339102803
  0
VERTEX
  8
0
 10
190.245215880578
  20
16.0798734112745
  0
VERTEX
  8
0
 10
190.358494736904
  20
16.1227488099481
  0
VERTEX
  8
0
 10
190.467473682563
  20
16.134045608806
  0
VERTEX
  8
0
 10
190.572145525226
  20
16.1115397853697
  0
VERTEX
  8
0
 10
190.673181094204
  20
16.0581692172265
  0
VERTEX
  8
0
 10
190.771420724212
  20
15.9781622569799
  0
VERTEX
  8
0
 10
190.867704749969
  20
15.8757472572339
  0
VERTEX
  8
0
 10
190.962873506192
  20
15.755152570592
  0
VERTEX
  8
0
 10
191.057767327599
  20
15.620606549658
  0
VERTEX
  8
0
 10
191.153226548908
  20
15.4763375470356
  0
VERTEX
  8
0
 10
191.250091504836
  20
15.3265739153285
  0
VERTEX
  8
0
 10
191.349202530101
  20
15.1755440071404
  0
VERTEX
  8
0
 10
191.451182042898
  20
15.0272940313139
  0
VERTEX
  8
0
 10
191.555780795335
  20
14.8851416216469
  0
VERTEX
  8
0
 10
191.662531622996
  20
14.7522222681761
  0
VERTEX
  8
0
 10
191.770967361467
  20
14.6316714609383
  0
VERTEX
  8
0
 10
191.880620846331
  20
14.5266246899703
  0
VERTEX
  8
0
 10
191.991024913175
  20
14.4402174453087
  0
VERTEX
  8
0
 10
192.101712397583
  20
14.3755852169903
  0
VERTEX
  8
0
 10
192.21221613514
  20
14.3358634950519
  0
VERTEX
  8
0
 10
192.32206896143
  20
14.3241877695302
  0
VERTEX
  8
0
 10
192.430896444353
  20
14.3425854792695
  0
VERTEX
  8
0
 10
192.538695081062
  20
14.3886518583438
  0
VERTEX
  8
0
 10
192.645554101023
  20
14.4588740896349
  0
VERTEX
  8
0
 10
192.751562733703
  20
14.5497393560243
  0
VERTEX
  8
0
 10
192.856810208568
  20
14.6577348403938
  0
VERTEX
  8
0
 10
192.961385755087
  20
14.7793477256248
  0
VERTEX
  8
0
 10
193.065378602724
  20
14.9110651945991
  0
VERTEX
  8
0
 10
193.168877980948
  20
15.0493744301983
  0
VERTEX
  8
0
 10
193.271973119225
  20
15.190762615304
  0
SEQEND
100
AcDbEntity
  8
0
  0
TEXT
  8
0
 62
7
  6
BYLAYER
 62
7
 10
280.882370295625
 20
8.1176800467
 40
3.5
  1
A4
  7
Font_0
 11
280.882370295625
 21
11.6176800467
 73
3
  0
TEXT
  8
0
 62
7
  6
BYLAYER
 62
7
 10
253.413737113325
 20
8.1315990709
 40
3.5
  1
〔ｍｍ〕
  7
Font_0
 11
253.413737113325
 21
11.6315990709
 73
3
  0
TEXT
  8
0
 62
7
  6
BYLAYER
 62
7
 10
243.414649775725
 20
22.038308925
 40
3
  1
仕上
  7
Font_0
 11
243.414649775725
 21
25.038308925
 73
3
  0
TEXT
  8
0
 62
7
  6
BYLAYER
 62
7
 10
162.633461682425
 20
26.5893151497
 40
3
  1
仕         上
  7
Font_0
 11
162.633461682425
 21
29.5893151497
 73
3
  0
TEXT
  8
0
 62
7
  6
BYLAYER
 62
7
 10
45.6919605301362
 20
22.3812966666
 40
3
  1
符号
  7
Font_0
 11
45.6919605301362
 21
25.3812966666
 73
3
  0
TEXT
  8
0
 62
7
  6
BYLAYER
 62
7
 10
56.307457019176
 20
22.5204133914198
 40
3
  1
年　月　日
  7
Font_0
 11
56.307457019176
 21
25.5204133914198
 73
3
  0
TEXT
  8
0
 62
7
  6
BYLAYER
 62
7
 10
87.5353174191745
 20
22.3043950547
 40
3
  1
変   更   内   容
  7
Font_0
 11
87.5353174191745
 21
25.3043950547
 73
3
  0
TEXT
  8
0
 62
7
  6
BYLAYER
 62
7
 10
134.045130992333
 20
22.3102880661
 40
3
  1
担 当
  7
Font_0
 11
134.045130992333
 21
25.3102880661
 73
3
  0
TEXT
  8
0
 62
7
  6
BYLAYER
 62
7
 10
88.1877963361385
 20
29.808008638668
 40
3.5
  1
図  面  登  録
  7
Font_0
 11
88.1877963361385
 21
33.308008638668
 73
3
  0
TEXT
  8
0
 62
7
  6
BYLAYER
 62
7
 10
165.657458936272
 20
54.7593473392
 40
2.5
  1
一  般  公  差
  7
Font_0
 11
165.657458936272
 21
57.2593473392
 73
3
  0
TEXT
  8
0
 62
7
  6
BYLAYER
 62
7
 10
150.104774448625
 20
50.7732889271
 40
2.5
  1
呼び寸法区分
  7
Font_0
 11
150.104774448625
 21
53.2732889271
 73
3
  0
TEXT
  8
0
 62
7
  6
BYLAYER
 62
7
 10
149.882686716025
 20
38.7570923087
 40
2.5
 41
0.912991905351579
  1
30をこえ120以下
  7
Font_0
 11
149.882686716025
 21
41.2570923087
 73
3
  0
TEXT
  8
0
 62
7
  6
BYLAYER
 62
7
 10
148.642165119425
 20
34.7224660086
 40
2.5
 41
0.916447634055058
  1
120をこえ315以下
  7
Font_0
 11
148.642165119425
 21
37.2224660086
 73
3
  0
TEXT
  8
0
 62
7
  6
BYLAYER
 62
7
 10
152.192821575729
 20
42.8646934888
 40
2.5
 41
0.914780928896849
  1
6をこえ30以下
  7
Font_0
 11
152.192821575729
 21
45.3646934888
 73
3
  0
TEXT
  8
0
 62
7
  6
BYLAYER
 62
7
 10
148.511952362925
 20
30.7468206455
 40
2.5
 41
0.866727160439832
  1
315をこえ1000以下
  7
Font_0
 11
148.511952362925
 21
33.2468206455
 73
3
  0
TEXT
  8
0
 62
7
  6
BYLAYER
 62
7
 10
168.717480570178
 20
50.777150895
 40
2.5
  1
精　級
  7
Font_0
 11
168.717480570178
 21
53.277150895
 73
3
  0
TEXT
  8
0
 62
7
  6
BYLAYER
 62
7
 10
178.916139194237
 20
50.777150895
 40
2.5
  1
中　級
  7
Font_0
 11
178.916139194237
 21
53.277150895
 73
3
  0
TEXT
  8
0
 62
7
  6
BYLAYER
 62
7
 10
189.006653023004
 20
50.7807392727
 40
2.5
  1
粗　級
  7
Font_0
 11
189.006653023004
 21
53.2807392727
 73
3
  0
TEXT
  8
0
 62
7
  6
BYLAYER
 62
7
 10
200.616575237485
 20
42.9797057443
 40
3
  1
図　面
  7
Font_0
 11
200.616575237485
 21
45.9797057443
 73
3
  0
TEXT
  8
0
 62
7
  6
BYLAYER
 62
7
 10
200.616575237485
 20
38.7797057443
 40
3
  1
番  号
  7
Font_0
 11
200.616575237485
 21
41.7797057443
 73
3
  0
TEXT
  8
0
 62
7
  6
BYLAYER
 62
7
 10
200.121075994325
 20
31.1168168637
 40
3
  1
製品名
  7
Font_0
 11
200.121075994325
 21
34.1168168637
 73
3
  0
TEXT
  8
0
 62
7
  6
BYLAYER
 62
7
 10
200.218847238525
 20
22.5129473734
 40
3
  1
個数
  7
Font_0
 11
200.218847238525
 21
25.5129473734
 73
3
  0
TEXT
  8
0
 62
7
  6
BYLAYER
 62
7
 10
199.714104157791
 20
15.1400415186595
 40
3
  1
設計
  7
Font_0
 11
199.714104157791
 21
18.1400415186595
 73
3
  0
TEXT
  8
0
 62
7
  6
BYLAYER
 62
7
 10
229.201762479766
 20
15.0140258848049
 40
3
  1
製図
  7
Font_0
 11
229.201762479766
 21
18.0140258848049
 73
3
  0
TEXT
  8
0
 62
7
  6
BYLAYER
 62
7
 10
258.563405167886
 20
14.8880102509503
 40
3
  1
承認
  7
Font_0
 11
258.563405167886
 21
17.8880102509503
 73
3
  0
TEXT
  8
0
 62
7
  6
BYLAYER
 62
7
 10
254.059623574629
 20
41.0028563077
 40
3
  1
材料
  7
Font_0
 11
254.059623574629
 21
44.0028563077
 73
3
  0
TEXT
  8
0
 62
7
  6
BYLAYER
 62
7
 10
252.385377978665
 20
33.2703070027
 40
3
  1
表　面
  7
Font_0
 11
252.385377978665
 21
36.2703070027
 73
3
  0
TEXT
  8
0
 62
7
  6
BYLAYER
 62
7
 10
252.385377978665
 20
29.2703070027
 40
3
  1
処　理
  7
Font_0
 11
252.385377978665
 21
32.2703070027
 73
3
  0
TEXT
  8
0
 62
7
  6
BYLAYER
 62
7
 10
264.279964034217
 20
22.1264760024
 40
3
  1
尺度
  7
Font_0
 11
264.279964034217
 21
25.1264760024
 73
3
  0
TEXT
  8
0
 62
7
  6
BYLAYER
 62
7
 10
46.7828183532941
 20
14.795800160276
 40
3.5
  1
原型
  7
Font_0
 11
46.7828183532941
 21
18.295800160276
 73
3
  0
TEXT
  8
0
 62
7
  6
BYLAYER
 62
7
 10
59.5866755695181
 20
14.6664682692031
 40
3.5
  1
機種
  7
Font_0
 11
59.5866755695181
 21
18.1664682692031
 73
3
  0
TEXT
  8
0
 62
7
  6
BYLAYER
 62
7
 10
106.4062235598
 20
14.5875402657185
 40
3.5
  1
番号
  7
Font_0
 11
106.4062235598
 21
18.0875402657185
 73
3
  0
TEXT
  8
0
 62
7
  6
BYLAYER
 62
7
 10
153.750103275006
 20
46.7532741857
 40
2.5
 41
0.888141089685761
  1
0.2以上6以下
  7
Font_0
 11
153.750103275006
 21
49.2532741857
 73
3
  0
INSERT
  8
0
  6
CONTINUOUS
 62
7
  2
SW_NOTE_3
 10
221.533260248525
 20
23.964097704
 30
0.0
  0
TEXT
  8
0
 62
7
  6
BYLAYER
 62
7
 10
267.514283766125
 20
8.0975215342
 40
3.5
  1
三角法
  7
Font_0
 11
267.514283766125
 21
11.5975215342
 73
3
  0
TEXT
  8
0
 62
7
  6
BYLAYER
 62
7
 10
189.507469944263
 20
31.105884755
 40
1.8520833333
  1
±２.０
  7
Font_0
 11
189.507469944263
 21
32.9579680883
 73
3
  0
TEXT
  8
0
 62
7
  6
BYLAYER
 62
7
 10
189.507469944263
 20
34.9307494357
 40
1.8520833333
  1
±１.２
  7
Font_0
 11
189.507469944263
 21
36.782832769
 73
3
  0
TEXT
  8
0
 62
7
  6
BYLAYER
 62
7
 10
189.507469944263
 20
38.9351342136
 40
1.8520833333
  1
±０.８
  7
Font_0
 11
189.507469944263
 21
40.7872175469
 73
3
  0
TEXT
  8
0
 62
7
  6
BYLAYER
 62
7
 10
179.376368596218
 20
31.0470167751204
 40
1.8520833333
  1
±０.８
  7
Font_0
 11
179.376368596218
 21
32.8991001084204
 73
3
  0
TEXT
  8
0
 62
7
  6
BYLAYER
 62
7
 10
179.376368596218
 20
34.8958513771
 40
1.8520833333
  1
±０.５
  7
Font_0
 11
179.376368596218
 21
36.7479347104
 73
3
  0
TEXT
  8
0
 62
7
  6
BYLAYER
 62
7
 10
179.334714532621
 20
38.9190429648
 40
1.8520833333
  1
±０.３
  7
Font_0
 11
179.334714532621
 21
40.7711262981
 73
3
  0
TEXT
  8
0
 62
7
  6
BYLAYER
 62
7
 10
168.997829603343
 20
31.1162445498
 40
1.8520833333
  1
±０.３
  7
Font_0
 11
168.997829603343
 21
32.9683278831
 73
3
  0
TEXT
  8
0
 62
7
  6
BYLAYER
 62
7
 10
179.312825322201
 20
42.89077371
 40
1.8520833333
  1
±０.２
  7
Font_0
 11
179.312825322201
 21
44.7428570433
 73
3
  0
TEXT
  8
0
 62
7
  6
BYLAYER
 62
7
 10
168.324140761028
 20
38.9108974676
 40
1.8520833333
  1
±０.１５
  7
Font_0
 11
168.324140761028
 21
40.7629808009
 73
3
  0
TEXT
  8
0
 62
7
  6
BYLAYER
 62
7
 10
169.372153856702
 20
42.9072434321
 40
1.8520833333
  1
±０.１
  7
Font_0
 11
169.372153856702
 21
44.7593267654
 73
3
  0
TEXT
  8
0
 62
7
  6
BYLAYER
 62
7
 10
169.067225284141
 20
34.9269840288
 40
1.8520833333
  1
±０.２
  7
Font_0
 11
169.067225284141
 21
36.7790673621
 73
3
  0
TEXT
  8
0
 62
7
  6
BYLAYER
 62
7
 10
189.623268241062
 20
46.7748790879
 40
1.8520833333
  1
±０.２
  7
Font_0
 11
189.623268241062
 21
48.6269624212
 73
3
  0
TEXT
  8
0
 62
7
  6
BYLAYER
 62
7
 10
179.373811036713
 20
46.7791639463
 40
1.8520833333
  1
±０.１
  7
Font_0
 11
179.373811036713
 21
48.6312472796
 73
3
  0
TEXT
  8
0
 62
7
  6
BYLAYER
 62
7
 10
168.219255828891
 20
46.7940127226
 40
1.8520833333
  1
±０.０５
  7
Font_0
 11
168.219255828891
 21
48.6460960559
 73
3
  0
TEXT
  8
0
 62
7
  6
BYLAYER
 62
7
 10
189.623268241062
 20
42.6383640974
 40
1.8520833333
  1
±０.５
  7
Font_0
 11
189.623268241062
 21
44.4904474307
 73
3
  0
TEXT
  8
0
 62
7
  6
BYLAYER
 62
7
 10
210.793541842605
 20
50.2791031880464
 40
3.7041666667
  1
株式会社
  7
Font_0
 11
210.793541842605
 21
53.9832698547464
 73
3
  0
INSERT
  8
0
  6
CONTINUOUS
 62
7
  2
SW_NOTE_4
 10
255.167428548732
 20
26.0300664690587
 30
0.0
  0
TEXT
  8
0
 62
7
  6
BYLAYER
 62
7
 10
134.142652075369
 20
30.1129664725961
 40
3.5
  1
大塚
  7
Font_0
 11
134.142652075369
 21
33.6129664725961
 73
3
  0
TEXT
  8
0
 62
7
  6
BYLAYER
 62
7
 10
177.985144997725
 20
22.6633648232
 40
2.1166666667
  1
25
  7
Font_0
 11
177.985144997725
 21
24.7800314899
 73
3
  0
TEXT
  8
0
 62
7
  6
BYLAYER
 62
7
 10
189.976596561025
 20
22.9292402365
 40
2.1166666667
  1
100
  7
Font_0
 11
189.976596561025
 21
25.0459069032
 73
3
  0
TEXT
  8
0
 62
7
  6
BYLAYER
 62
7
 10
164.632434146025
 20
22.6910302606
 40
2.1166666667
  1
6.3
  7
Font_0
 11
164.632434146025
 21
24.8076969273
 73
3
  0
INSERT
  8
0
  6
CONTINUOUS
 62
7
  2
SW_NOTE_5
 10
151.650167869525
 20
22.1442498528
 30
0.0
  0
TEXT
  8
0
 62
7
  6
BYLAYER
 62
7
 10
213.337727733001
 20
22.0258771461428
 40
3.5
  1
1
  7
Font_0
 11
213.337727733001
 21
25.5258771461428
 73
3
  0
TEXT
  8
0
 62
7
  6
BYLAYER
 62
7
 10
277.210683638525
 20
21.8151336472213
 40
3.5
  1
1/1
  7
Font_0
 11
277.210683638525
 21
25.3151336472213
 73
3
  0
TEXT
  8
0
 62
7
  6
BYLAYER
 62
7
 10
226.521027886243
 20
49.9040401149165
 40
5.2916666667
  1
ケンコー・トキナー
  7
Font_0
 11
226.521027886243
 21
55.1957067816165
 73
3
  0
LINE
  8
KCAD_CPM_MAX_LAYER
  6
CONTINUOUS
 62
7
 10
3.6056823864281
 20
72.8638167472749
 11
3.6056823864281
 21
65.3638167472749
  0
LINE
  8
KCAD_CPM_MAX_LAYER
  6
CONTINUOUS
 62
7
 10
-6.3943176135719
 20
80.3638167472748
 11
-6.3943176135719
 21
65.3638167472749
  0
LINE
  8
KCAD_CPM_MAX_LAYER
  6
CONTINUOUS
 62
7
 10
-6.3943176135719
 20
72.8638167472749
 11
23.605682386428
 21
72.8638167472749
  0
LINE
  8
KCAD_CPM_MAX_LAYER
  6
CONTINUOUS
 62
7
 10
-6.3943176135719
 20
65.3638167472749
 11
23.605682386428
 21
65.3638167472749
  0
TEXT
  8
KCAD_CPM_MAX_LAYER
 62
7
  6
CONTINUOUS
 62
7
 10
-2.48535187567035
 20
67.4966432732965
 40
3.23999991416931
 41
0.785457128563381
  1
１
  7
Font_0
  0
TEXT
  8
KCAD_CPM_MAX_LAYER
 62
7
  6
CONTINUOUS
 62
7
 10
8.16296450291867
 20
67.8566432637597
 40
2.92895992240906
 41
1.2021378317577
  1
2000
  7
Font_0
  0
TEXT
  8
KCAD_CPM_MAX_LAYER
 62
7
  6
CONTINUOUS
 62
7
 10
7.53972135698865
 20
75.4367609849797
 40
2.92895992240906
 41
0.95484075712642
  1
L
  7
Font_0
  0
LINE
  8
0
  6
CONTINUOUS
 62
7
 10
177.521441115325
 20
54
 11
167.354774448625
 21
30
  0
LINE
  8
0
  6
CONTINUOUS
 62
7
 10
197.854774448625
 20
54
 11
187.688107781925
 21
30
  0
LINE
  8
0
  6
CONTINUOUS
 62
7
 10
43.8547744486254
 20
13
 11
10
 21
13
  0
LINE
  8
0
  6
CONTINUOUS
 62
7
 10
286.992043592468
 20
203.236935873458
 11
10
 21
203.236935873458
  0
TEXT
  8
0
 62
7
  6
CONTINUOUS
 62
7
 10
218.794691147125
 20
40.2859157044022
 40
3.5
  1
TSTM-260-100
  7
Font_1
 11
218.794691147125
 21
43.7859157044022
 73
3
  0
TEXT
  8
0
 62
7
  6
CONTINUOUS
 62
7
 10
218.675817042628
 20
30.65156140902
 40
3.5
  1
KCM-1.5D-110SR
  7
Font_1
 11
218.675817042628
 21
34.15156140902
 73
3
  0
TEXT
  8
0
 62
7
  6
CONTINUOUS
 62
7
 10
273.169436273469
 20
14.9614976022949
 40
3.5
  1
諸星
  7
Font_1
 11
273.169436273469
 21
18.4614976022949
 73
3
  0
TEXT
  8
0
 62
7
  6
CONTINUOUS
 62
7
 10
55.9671135181961
 20
30.0519831490771
 40
3.5
  1
2019/6/17
  7
Font_1
 11
55.9671135181961
 21
33.5519831490771
 73
3
  0
LINE
  8
SLD-0
  6
CONTINUOUS
 62
7
 10
248.855481680624
 20
145.582464656566
 11
273.135481680628
 21
145.582464656566
  0
LINE
  8
SLD-0
  6
CONTINUOUS
 62
7
 10
248.855481680624
 20
120.182464656566
 11
273.135481680628
 21
120.182464656566
  0
LINE
  8
SLD-0
  6
BYLAYER
 62
7
 10
272.335481680628
 20
142.582464656566
 11
272.335481680628
 21
123.182464656566
  0
TEXT
  8
SLD-0
 62
7
  6
BYLAYER
 62
7
 10
271.535481680628
 20
127.632464656567
 40
3
  1
C-Mount
  7
Font_0
 50
90
 72
1
 11
270.035481680628
 21
132.882464656567
 73
2
  0
LINE
  8
0
  6
BYBLOCK
 62
7
 10
271.531634110628
 20
142.582464656566
 11
272.335481680628
 21
145.582464656566
  0
LINE
  8
0
  6
BYBLOCK
 62
7
 10
272.335481680628
 20
145.582464656566
 11
273.139329250628
 21
142.582464656566
  0
LINE
  8
0
  6
BYBLOCK
 62
7
 10
272.335481680628
 20
145.582464656566
 11
272.335481680628
 21
142.582464656566
  0
LINE
  8
0
  6
BYBLOCK
 62
7
 10
273.139329250628
 20
123.182464656566
 11
272.335481680628
 21
120.182464656566
  0
LINE
  8
0
  6
BYBLOCK
 62
7
 10
272.335481680628
 20
120.182464656566
 11
271.531634110628
 21
123.182464656566
  0
LINE
  8
0
  6
BYBLOCK
 62
7
 10
272.335481680628
 20
120.182464656566
 11
272.335481680628
 21
123.182464656566
  0
LINE
  8
SLD-0
  6
CONTINUOUS
 62
7
 10
244.826640738492
 20
148.882464656567
 11
283.135481680628
 21
148.882464656567
  0
LINE
  8
SLD-0
  6
CONTINUOUS
 62
7
 10
244.955481680622
 20
116.882464656567
 11
283.135481680628
 21
116.882464656567
  0
LINE
  8
SLD-0
  6
BYLAYER
 62
7
 10
282.335481680628
 20
145.882464656567
 11
282.335481680628
 21
119.882464656567
  0
TEXT
  8
SLD-0
 62
7
  6
BYLAYER
 62
7
 10
281.535481680628
 20
129.882464656567
 40
3
  1
φ32
  7
Font_0
 50
90
 72
1
 11
280.035481680628
 21
132.882464656567
 73
2
  0
LINE
  8
0
  6
BYBLOCK
 62
7
 10
281.531634110628
 20
145.882464656567
 11
282.335481680628
 21
148.882464656567
  0
LINE
  8
0
  6
BYBLOCK
 62
7
 10
282.335481680628
 20
148.882464656567
 11
283.139329250628
 21
145.882464656567
  0
LINE
  8
0
  6
BYBLOCK
 62
7
 10
282.335481680628
 20
148.882464656567
 11
282.335481680628
 21
145.882464656567
  0
LINE
  8
0
  6
BYBLOCK
 62
7
 10
283.139329250628
 20
119.882464656567
 11
282.335481680628
 21
116.882464656567
  0
LINE
  8
0
  6
BYBLOCK
 62
7
 10
282.335481680628
 20
116.882464656567
 11
281.531634110628
 21
119.882464656567
  0
LINE
  8
0
  6
BYBLOCK
 62
7
 10
282.335481680628
 20
116.882464656567
 11
282.335481680628
 21
119.882464656567
  0
LINE
  8
SLD-0
  6
CONTINUOUS
 62
7
 10
94.6449893220561
 20
151.882464656565
 11
117.694993323164
 21
151.882464656565
  0
LINE
  8
SLD-0
  6
CONTINUOUS
 62
7
 10
94.6449893220561
 20
113.882464656567
 11
117.694993323164
 21
113.882464656567
  0
LINE
  8
SLD-0
  6
BYLAYER
 62
7
 10
116.894993323164
 20
148.882464656567
 11
116.894993323164
 21
116.882464656567
  0
LINE
  8
SLD-0
  6
BYLAYER
 62
7
 10
116.894993323164
 20
113.882464656567
 11
116.894993323164
 21
103.099268270675
  0
TEXT
  8
SLD-0
 62
7
  6
BYLAYER
 62
7
 10
116.094993323163
 20
103.592125413533
 40
3
  1
φ38
  7
Font_0
 50
90
 72
1
 11
114.594993323163
 21
106.592125413533
 73
2
  0
LINE
  8
0
  6
BYBLOCK
 62
7
 10
116.091145753164
 20
148.882464656565
 11
116.894993323164
 21
151.882464656565
  0
LINE
  8
0
  6
BYBLOCK
 62
7
 10
116.894993323164
 20
151.882464656565
 11
117.698840893164
 21
148.882464656565
  0
LINE
  8
0
  6
BYBLOCK
 62
7
 10
116.894993323164
 20
151.882464656565
 11
116.894993323164
 21
148.882464656565
  0
LINE
  8
0
  6
BYBLOCK
 62
7
 10
117.698840893164
 20
116.882464656567
 11
116.894993323164
 21
113.882464656567
  0
LINE
  8
0
  6
BYBLOCK
 62
7
 10
116.894993323164
 20
113.882464656567
 11
116.091145753164
 21
116.882464656567
  0
LINE
  8
0
  6
BYBLOCK
 62
7
 10
116.894993323164
 20
113.882464656567
 11
116.894993323164
 21
116.882464656567
  0
LINE
  8
SLD-0
  6
CONTINUOUS
 62
7
 10
93.8949893220583
 20
152.032464656565
 11
93.8949893220583
 21
162.682464656566
  0
LINE
  8
SLD-0
  6
CONTINUOUS
 62
7
 10
139.894989322059
 20
152.032464656566
 11
139.894989322059
 21
162.682464656566
  0
LINE
  8
SLD-0
  6
BYLAYER
 62
7
 10
96.8949893220574
 20
161.882464656567
 11
136.894989322059
 21
161.882464656567
  0
TEXT
  8
SLD-0
 62
7
  6
BYLAYER
 62
7
 10
115.394989322058
 20
162.682464656566
 40
3
  1
46
  7
Font_0
 72
1
 11
116.894989322058
 21
164.182464656566
 73
2
  0
LINE
  8
0
  6
BYBLOCK
 62
7
 10
96.8949893220583
 20
161.078617086566
 11
93.8949893220583
 21
161.882464656567
  0
LINE
  8
0
  6
BYBLOCK
 62
7
 10
93.8949893220583
 20
161.882464656567
 11
96.8949893220583
 21
162.686312226567
  0
LINE
  8
0
  6
BYBLOCK
 62
7
 10
93.8949893220583
 20
161.882464656567
 11
96.8949893220583
 21
161.882464656567
  0
LINE
  8
0
  6
BYBLOCK
 62
7
 10
136.894989322059
 20
162.686312226567
 11
139.894989322059
 21
161.882464656567
  0
LINE
  8
0
  6
BYBLOCK
 62
7
 10
139.894989322059
 20
161.882464656567
 11
136.894989322059
 21
161.078617086566
  0
LINE
  8
0
  6
BYBLOCK
 62
7
 10
139.894989322059
 20
161.882464656567
 11
136.894989322059
 21
161.882464656567
  0
LINE
  8
SLD-0
  6
CONTINUOUS
 62
7
 10
139.894989322065
 20
152.032464656566
 11
139.894989322065
 21
162.682464656566
  0
LINE
  8
SLD-0
  6
CONTINUOUS
 62
7
 10
166.89498932206
 20
152.032464656566
 11
166.89498932206
 21
162.682464656566
  0
LINE
  8
SLD-0
  6
CONTINUOUS
 62
7
 10
142.894989322065
 20
161.882464656567
 11
163.89498932206
 21
161.882464656567
  0
TEXT
  8
SLD-0
 62
7
  6
BYLAYER
 62
7
 10
148.894989322062
 20
162.682464656566
 40
3
  1
（27）
  7
Font_0
 72
1
 11
153.394989322062
 21
164.182464656566
 73
2
  0
LINE
  8
0
  6
BYBLOCK
 62
7
 10
142.894989322065
 20
161.078617086566
 11
139.894989322065
 21
161.882464656567
  0
LINE
  8
0
  6
BYBLOCK
 62
7
 10
139.894989322065
 20
161.882464656567
 11
142.894989322065
 21
162.686312226567
  0
LINE
  8
0
  6
BYBLOCK
 62
7
 10
139.894989322065
 20
161.882464656567
 11
142.894989322065
 21
161.882464656567
  0
LINE
  8
0
  6
BYBLOCK
 62
7
 10
163.89498932206
 20
162.686312226567
 11
166.89498932206
 21
161.882464656567
  0
LINE
  8
0
  6
BYBLOCK
 62
7
 10
166.89498932206
 20
161.882464656567
 11
163.89498932206
 21
161.078617086566
  0
LINE
  8
0
  6
BYBLOCK
 62
7
 10
166.89498932206
 20
161.882464656567
 11
163.89498932206
 21
161.882464656567
  0
LINE
  8
SLD-0
  6
CONTINUOUS
 62
7
 10
166.89498932206
 20
152.032464656566
 11
166.89498932206
 21
172.682464656566
  0
LINE
  8
SLD-0
  6
CONTINUOUS
 62
7
 10
93.8949893220583
 20
152.032464656565
 11
93.8949893220583
 21
172.682464656566
  0
LINE
  8
SLD-0
  6
BYLAYER
 62
7
 10
163.89498932206
 20
171.882464656567
 11
96.8949893220574
 21
171.882464656567
  0
TEXT
  8
SLD-0
 62
7
  6
BYLAYER
 62
7
 10
128.894989322059
 20
172.682464656566
 40
3
  1
73
  7
Font_0
 72
1
 11
130.394989322059
 21
174.182464656566
 73
2
  0
LINE
  8
0
  6
BYBLOCK
 62
7
 10
163.89498932206
 20
172.686312226567
 11
166.89498932206
 21
171.882464656567
  0
LINE
  8
0
  6
BYBLOCK
 62
7
 10
166.89498932206
 20
171.882464656567
 11
163.89498932206
 21
171.078617086566
  0
LINE
  8
0
  6
BYBLOCK
 62
7
 10
166.89498932206
 20
171.882464656567
 11
163.89498932206
 21
171.882464656567
  0
LINE
  8
0
  6
BYBLOCK
 62
7
 10
96.8949893220583
 20
171.078617086566
 11
93.8949893220583
 21
171.882464656567
  0
LINE
  8
0
  6
BYBLOCK
 62
7
 10
93.8949893220583
 20
171.882464656567
 11
96.8949893220583
 21
172.686312226567
  0
LINE
  8
0
  6
BYBLOCK
 62
7
 10
93.8949893220583
 20
171.882464656567
 11
96.8949893220583
 21
171.882464656567
  0
LINE
  8
SLD-0
  6
CONTINUOUS
 62
7
 10
166.89498932206
 20
152.032464656566
 11
166.89498932206
 21
172.682464656566
  0
LINE
  8
SLD-0
  6
CONTINUOUS
 62
7
 10
244.805481680622
 20
149.032464656566
 11
244.805481680622
 21
172.682464656566
  0
LINE
  8
SLD-0
  6
BYLAYER
 62
7
 10
169.89498932206
 20
171.882464656567
 11
241.805481680622
 21
171.882464656567
  0
TEXT
  8
SLD-0
 62
7
  6
BYLAYER
 62
7
 10
197.843561951773
 20
172.682464656566
 40
3
  1
77.91
  7
Font_0
 72
1
 11
201.593561951773
 21
174.182464656566
 73
2
  0
LINE
  8
0
  6
BYBLOCK
 62
7
 10
169.89498932206
 20
171.078617086566
 11
166.89498932206
 21
171.882464656567
  0
LINE
  8
0
  6
BYBLOCK
 62
7
 10
166.89498932206
 20
171.882464656567
 11
169.89498932206
 21
172.686312226567
  0
LINE
  8
0
  6
BYBLOCK
 62
7
 10
166.89498932206
 20
171.882464656567
 11
169.89498932206
 21
171.882464656567
  0
LINE
  8
0
  6
BYBLOCK
 62
7
 10
241.805481680622
 20
172.686312226567
 11
244.805481680622
 21
171.882464656567
  0
LINE
  8
0
  6
BYBLOCK
 62
7
 10
244.805481680622
 20
171.882464656567
 11
241.805481680622
 21
171.078617086566
  0
LINE
  8
0
  6
BYBLOCK
 62
7
 10
244.805481680622
 20
171.882464656567
 11
241.805481680622
 21
171.882464656567
  0
LINE
  8
SLD-0
  6
CONTINUOUS
 62
7
 10
181.394989322056
 20
149.0324646566
 11
181.394989322056
 21
162.682464656566
  0
LINE
  8
SLD-0
  6
CONTINUOUS
 62
7
 10
188.894989322057
 20
149.032464656589
 11
188.894989322057
 21
162.682464656566
  0
LINE
  8
SLD-0
  6
BYLAYER
 62
7
 10
178.394989322056
 20
161.882464656567
 11
175.394989322056
 21
161.882464656567
  0
LINE
  8
SLD-0
  6
BYLAYER
 62
7
 10
191.894989322057
 20
161.882464656567
 11
194.894989322057
 21
161.882464656567
  0
LINE
  8
SLD-0
  6
BYLAYER
 62
7
 10
181.394989322056
 20
161.882464656567
 11
188.894989322057
 21
161.882464656567
  0
TEXT
  8
SLD-0
 62
7
  6
BYLAYER
 62
7
 10
182.894989322056
 20
162.682464656566
 40
3
  1
7.5
  7
Font_0
 72
1
 11
185.144989322056
 21
164.182464656566
 73
2
  0
LINE
  8
0
  6
BYBLOCK
 62
7
 10
178.394989322056
 20
162.686312226567
 11
181.394989322056
 21
161.882464656567
  0
LINE
  8
0
  6
BYBLOCK
 62
7
 10
181.394989322056
 20
161.882464656567
 11
178.394989322056
 21
161.078617086566
  0
LINE
  8
0
  6
BYBLOCK
 62
7
 10
181.394989322056
 20
161.882464656567
 11
178.394989322056
 21
161.882464656567
  0
LINE
  8
0
  6
BYBLOCK
 62
7
 10
191.894989322057
 20
161.078617086566
 11
188.894989322057
 21
161.882464656567
  0
LINE
  8
0
  6
BYBLOCK
 62
7
 10
188.894989322057
 20
161.882464656567
 11
191.894989322057
 21
162.686312226567
  0
LINE
  8
0
  6
BYBLOCK
 62
7
 10
188.894989322057
 20
161.882464656567
 11
191.894989322057
 21
161.882464656567
  0
LINE
  8
SLD-0
  6
CONTINUOUS
 62
7
 10
188.894989322057
 20
149.032464656565
 11
188.894989322057
 21
162.682464656566
  0
LINE
  8
SLD-0
  6
CONTINUOUS
 62
7
 10
220.305481682161
 20
149.132464874829
 11
220.305481682161
 21
162.682464656566
  0
LINE
  8
SLD-0
  6
BYLAYER
 62
7
 10
191.894989322057
 20
161.882464656567
 11
217.305481682161
 21
161.882464656567
  0
TEXT
  8
SLD-0
 62
7
  6
BYLAYER
 62
7
 10
200.850235502109
 20
162.682464656566
 40
3
  1
31.41
  7
Font_0
 72
1
 11
204.600235502109
 21
164.182464656566
 73
2
  0
LINE
  8
0
  6
BYBLOCK
 62
7
 10
191.894989322057
 20
161.078617086566
 11
188.894989322057
 21
161.882464656567
  0
LINE
  8
0
  6
BYBLOCK
 62
7
 10
188.894989322057
 20
161.882464656567
 11
191.894989322057
 21
162.686312226567
  0
LINE
  8
0
  6
BYBLOCK
 62
7
 10
188.894989322057
 20
161.882464656567
 11
191.894989322057
 21
161.882464656567
  0
LINE
  8
0
  6
BYBLOCK
 62
7
 10
217.305481682161
 20
162.686312226567
 11
220.305481682161
 21
161.882464656567
  0
LINE
  8
0
  6
BYBLOCK
 62
7
 10
220.305481682161
 20
161.882464656567
 11
217.305481682161
 21
161.078617086566
  0
LINE
  8
0
  6
BYBLOCK
 62
7
 10
220.305481682161
 20
161.882464656567
 11
217.305481682161
 21
161.882464656567
  0
LINE
  8
SLD-0
  6
CONTINUOUS
 62
7
 10
228.805481680622
 20
149.032464656566
 11
228.805481680622
 21
162.682464656566
  0
LINE
  8
SLD-0
  6
CONTINUOUS
 62
7
 10
244.805481680622
 20
149.032464656566
 11
244.805481680622
 21
162.682464656566
  0
LINE
  8
SLD-0
  6
CONTINUOUS
 62
7
 10
231.805481680622
 20
161.882464656567
 11
241.805481680622
 21
161.882464656567
  0
TEXT
  8
SLD-0
 62
7
  6
BYLAYER
 62
7
 10
232.305481680622
 20
162.682464656566
 40
3
  1
（16）
  7
Font_0
 72
1
 11
236.805481680622
 21
164.182464656566
 73
2
  0
LINE
  8
0
  6
BYBLOCK
 62
7
 10
231.805481680622
 20
161.078617086566
 11
228.805481680622
 21
161.882464656567
  0
LINE
  8
0
  6
BYBLOCK
 62
7
 10
228.805481680622
 20
161.882464656567
 11
231.805481680622
 21
162.686312226567
  0
LINE
  8
0
  6
BYBLOCK
 62
7
 10
228.805481680622
 20
161.882464656567
 11
231.805481680622
 21
161.882464656567
  0
LINE
  8
0
  6
BYBLOCK
 62
7
 10
241.805481680622
 20
162.686312226567
 11
244.805481680622
 21
161.882464656567
  0
LINE
  8
0
  6
BYBLOCK
 62
7
 10
244.805481680622
 20
161.882464656567
 11
241.805481680622
 21
161.078617086566
  0
LINE
  8
0
  6
BYBLOCK
 62
7
 10
244.805481680622
 20
161.882464656567
 11
241.805481680622
 21
161.882464656567
  0
LINE
  8
SLD-0
  6
CONTINUOUS
 62
7
 10
93.8949893220583
 20
152.032464656565
 11
93.8949893220583
 21
182.682464656566
  0
LINE
  8
SLD-0
  6
CONTINUOUS
 62
7
 10
244.805481680622
 20
149.032464656566
 11
244.805481680622
 21
182.682464656566
  0
LINE
  8
SLD-0
  6
BYLAYER
 62
7
 10
96.8949893220574
 20
181.882464656567
 11
241.805481680622
 21
181.882464656567
  0
TEXT
  8
SLD-0
 62
7
  6
BYLAYER
 62
7
 10
164.85023550134
 20
182.682464656565
 40
3
  1
150.91
  7
Font_0
 72
1
 11
169.35023550134
 21
184.182464656565
 73
2
  0
LINE
  8
0
  6
BYBLOCK
 62
7
 10
96.8949893220583
 20
181.078617086566
 11
93.8949893220583
 21
181.882464656567
  0
LINE
  8
0
  6
BYBLOCK
 62
7
 10
93.8949893220583
 20
181.882464656567
 11
96.8949893220583
 21
182.686312226567
  0
LINE
  8
0
  6
BYBLOCK
 62
7
 10
93.8949893220583
 20
181.882464656567
 11
96.8949893220583
 21
181.882464656567
  0
LINE
  8
0
  6
BYBLOCK
 62
7
 10
241.805481680622
 20
182.686312226567
 11
244.805481680622
 21
181.882464656567
  0
LINE
  8
0
  6
BYBLOCK
 62
7
 10
244.805481680622
 20
181.882464656567
 11
241.805481680622
 21
181.078617086566
  0
LINE
  8
0
  6
BYBLOCK
 62
7
 10
244.805481680622
 20
181.882464656567
 11
241.805481680622
 21
181.882464656567
  0
LINE
  8
SLD-0
  6
CONTINUOUS
 62
7
 10
244.805481680622
 20
149.032464656566
 11
244.805481680622
 21
182.682464656566
  0
LINE
  8
SLD-0
  6
CONTINUOUS
 62
7
 10
262.335481680628
 20
135.832464656566
 11
262.335481680628
 21
182.682464656566
  0
LINE
  8
SLD-0
  6
BYLAYER
 62
7
 10
247.805481680622
 20
181.882464656567
 11
259.335481680628
 21
181.882464656567
  0
TEXT
  8
SLD-0
 62
7
  6
BYLAYER
 62
7
 10
249.820481680625
 20
182.682464656565
 40
3
  1
17.53
  7
Font_0
 72
1
 11
253.570481680625
 21
184.182464656565
 73
2
  0
LINE
  8
0
  6
BYBLOCK
 62
7
 10
247.805481680622
 20
181.078617086566
 11
244.805481680622
 21
181.882464656567
  0
LINE
  8
0
  6
BYBLOCK
 62
7
 10
244.805481680622
 20
181.882464656567
 11
247.805481680622
 21
182.686312226567
  0
LINE
  8
0
  6
BYBLOCK
 62
7
 10
244.805481680622
 20
181.882464656567
 11
247.805481680622
 21
181.882464656567
  0
LINE
  8
0
  6
BYBLOCK
 62
7
 10
259.335481680628
 20
182.686312226567
 11
262.335481680628
 21
181.882464656567
  0
LINE
  8
0
  6
BYBLOCK
 62
7
 10
262.335481680628
 20
181.882464656567
 11
259.335481680628
 21
181.078617086566
  0
LINE
  8
0
  6
BYBLOCK
 62
7
 10
262.335481680628
 20
181.882464656567
 11
259.335481680628
 21
181.882464656567
  0
LINE
  8
SLD-0
  6
CONTINUOUS
 62
7
 10
13.7049893220583
 20
135.832464656566
 11
13.7049893220583
 21
182.682464656566
  0
LINE
  8
SLD-0
  6
CONTINUOUS
 62
7
 10
93.8949893220583
 20
152.032464656565
 11
93.8949893220583
 21
182.682464656566
  0
LINE
  8
SLD-0
  6
BYLAYER
 62
7
 10
16.7049893220574
 20
181.882464656567
 11
26.9651499610882
 21
181.882464656567
  0
LINE
  8
SLD-0
  6
BYLAYER
 62
7
 10
26.9651499610882
 20
181.882464656567
 11
28.4651499610882
 21
184.132464656567
  0
LINE
  8
SLD-0
  6
BYLAYER
 62
7
 10
28.4651499610882
 20
184.132464656567
 11
29.9651499610882
 21
179.632464656567
  0
LINE
  8
SLD-0
  6
BYLAYER
 62
7
 10
29.9651499610882
 20
179.632464656567
 11
31.4651499610882
 21
181.882464656567
  0
LINE
  8
SLD-0
  6
BYLAYER
 62
7
 10
31.4651499610882
 20
181.882464656567
 11
90.8949893220583
 21
181.882464656567
  0
TEXT
  8
SLD-0
 62
7
  6
BYLAYER
 62
7
 10
45.5499893220572
 20
182.682464656565
 40
3
  1
W.D. 110.19
  7
Font_0
 72
1
 11
53.7999893220572
 21
184.182464656565
 73
2
  0
LINE
  8
0
  6
BYBLOCK
 62
7
 10
16.7049893220583
 20
181.078617086566
 11
13.7049893220583
 21
181.882464656567
  0
LINE
  8
0
  6
BYBLOCK
 62
7
 10
13.7049893220583
 20
181.882464656567
 11
16.7049893220583
 21
182.686312226567
  0
LINE
  8
0
  6
BYBLOCK
 62
7
 10
13.7049893220583
 20
181.882464656567
 11
16.7049893220583
 21
181.882464656567
  0
LINE
  8
0
  6
BYBLOCK
 62
7
 10
90.8949893220583
 20
182.686312226567
 11
93.8949893220583
 21
181.882464656567
  0
LINE
  8
0
  6
BYBLOCK
 62
7
 10
93.8949893220583
 20
181.882464656567
 11
90.8949893220583
 21
181.078617086566
  0
LINE
  8
0
  6
BYBLOCK
 62
7
 10
93.8949893220583
 20
181.882464656567
 11
90.8949893220583
 21
181.882464656567
  0
LINE
  8
SLD-0
  6
CONTINUOUS
 62
7
 10
13.7049893220583
 20
135.832464656566
 11
13.7049893220583
 21
192.682464656566
  0
LINE
  8
SLD-0
  6
CONTINUOUS
 62
7
 10
262.335481680628
 20
135.832464656566
 11
262.335481680628
 21
192.682464656566
  0
LINE
  8
SLD-0
  6
BYLAYER
 62
7
 10
16.7049893220574
 20
191.882464656567
 11
26.8340854232092
 21
191.882464656567
  0
LINE
  8
SLD-0
  6
BYLAYER
 62
7
 10
26.8340854232092
 20
191.882464656567
 11
28.3340854232092
 21
194.132464656567
  0
LINE
  8
SLD-0
  6
BYLAYER
 62
7
 10
28.3340854232092
 20
194.132464656567
 11
29.8340854232092
 21
189.632464656567
  0
LINE
  8
SLD-0
  6
BYLAYER
 62
7
 10
29.8340854232092
 20
189.632464656567
 11
31.3340854232092
 21
191.882464656567
  0
LINE
  8
SLD-0
  6
BYLAYER
 62
7
 10
31.3340854232092
 20
191.882464656567
 11
259.335481680628
 21
191.882464656567
  0
TEXT
  8
SLD-0
 62
7
  6
BYLAYER
 62
7
 10
147.850171412172
 20
193.46817894228
 40
3
  1
（O/I 278.63）
  7
Font_0
 72
1
 11
158.350171412172
 21
194.96817894228
 73
2
  0
LINE
  8
0
  6
BYBLOCK
 62
7
 10
16.7049893220583
 20
191.078617086566
 11
13.7049893220583
 21
191.882464656567
  0
LINE
  8
0
  6
BYBLOCK
 62
7
 10
13.7049893220583
 20
191.882464656567
 11
16.7049893220583
 21
192.686312226567
  0
LINE
  8
0
  6
BYBLOCK
 62
7
 10
13.7049893220583
 20
191.882464656567
 11
16.7049893220583
 21
191.882464656567
  0
LINE
  8
0
  6
BYBLOCK
 62
7
 10
259.335481680628
 20
192.686312226567
 11
262.335481680628
 21
191.882464656567
  0
LINE
  8
0
  6
BYBLOCK
 62
7
 10
262.335481680628
 20
191.882464656567
 11
259.335481680628
 21
191.078617086566
  0
LINE
  8
0
  6
BYBLOCK
 62
7
 10
262.335481680628
 20
191.882464656567
 11
259.335481680628
 21
191.882464656567
  0
LINE
  8
SLD-0
  6
CONTINUOUS
 62
7
 10
166.89498932206
 20
152.032464656566
 11
166.89498932206
 21
162.682464656566
  0
LINE
  8
SLD-0
  6
CONTINUOUS
 62
7
 10
181.394989322056
 20
149.0324646566
 11
181.394989322056
 21
162.682464656566
  0
LINE
  8
SLD-0
  6
BYLAYER
 62
7
 10
169.89498932206
 20
161.882464656567
 11
178.394989322056
 21
161.882464656567
  0
TEXT
  8
SLD-0
 62
7
  6
BYLAYER
 62
7
 10
171.144989322058
 20
162.682464656566
 40
3
  1
14.5
  7
Font_0
 72
1
 11
174.144989322058
 21
164.182464656566
 73
2
  0
LINE
  8
0
  6
BYBLOCK
 62
7
 10
169.89498932206
 20
161.078617086566
 11
166.89498932206
 21
161.882464656567
  0
LINE
  8
0
  6
BYBLOCK
 62
7
 10
166.89498932206
 20
161.882464656567
 11
169.89498932206
 21
162.686312226567
  0
LINE
  8
0
  6
BYBLOCK
 62
7
 10
166.89498932206
 20
161.882464656567
 11
169.89498932206
 21
161.882464656567
  0
LINE
  8
0
  6
BYBLOCK
 62
7
 10
178.394989322056
 20
162.686312226567
 11
181.394989322056
 21
161.882464656567
  0
LINE
  8
0
  6
BYBLOCK
 62
7
 10
181.394989322056
 20
161.882464656567
 11
178.394989322056
 21
161.078617086566
  0
LINE
  8
0
  6
BYBLOCK
 62
7
 10
181.394989322056
 20
161.882464656567
 11
178.394989322056
 21
161.882464656567
  0
LINE
  8
SLD-0
  6
CONTINUOUS
 62
7
 10
93.8949893220583
 20
113.732464656566
 11
93.8949893220583
 21
65.0824646565675
  0
LINE
  8
SLD-0
  6
CONTINUOUS
 62
7
 10
151.40548168061
 20
92.9324646565665
 11
151.40548168061
 21
65.0824646565675
  0
LINE
  8
SLD-0
  6
BYLAYER
 62
7
 10
96.8949893220574
 20
65.8824646565674
 11
148.40548168061
 21
65.8824646565674
  0
TEXT
  8
SLD-0
 62
7
  6
BYLAYER
 62
7
 10
118.900235501334
 20
66.6824646565674
 40
3
  1
57.51
  7
Font_0
 72
1
 11
122.650235501334
 21
68.1824646565674
 73
2
  0
LINE
  8
0
  6
BYBLOCK
 62
7
 10
96.8949893220583
 20
65.0786170865674
 11
93.8949893220583
 21
65.8824646565674
  0
LINE
  8
0
  6
BYBLOCK
 62
7
 10
93.8949893220583
 20
65.8824646565674
 11
96.8949893220583
 21
66.6863122265674
  0
LINE
  8
0
  6
BYBLOCK
 62
7
 10
93.8949893220583
 20
65.8824646565674
 11
96.8949893220583
 21
65.8824646565674
  0
LINE
  8
0
  6
BYBLOCK
 62
7
 10
148.40548168061
 20
66.6863122265674
 11
151.40548168061
 21
65.8824646565674
  0
LINE
  8
0
  6
BYBLOCK
 62
7
 10
151.40548168061
 20
65.8824646565674
 11
148.40548168061
 21
65.0786170865674
  0
LINE
  8
0
  6
BYBLOCK
 62
7
 10
151.40548168061
 20
65.8824646565674
 11
148.40548168061
 21
65.8824646565674
  0
LINE
  8
SLD-0
  6
CONTINUOUS
 62
7
 10
147.40548168061
 20
95.7324646565664
 11
147.40548168061
 21
85.0824646565684
  0
LINE
  8
SLD-0
  6
CONTINUOUS
 62
7
 10
155.40548168061
 20
95.7324646565664
 11
155.40548168061
 21
85.0824646565684
  0
LINE
  8
SLD-0
  6
BYLAYER
 62
7
 10
152.40548168061
 20
85.8824646565683
 11
150.40548168061
 21
85.8824646565683
  0
LINE
  8
SLD-0
  6
BYLAYER
 62
7
 10
147.40548168061
 20
85.8824646565683
 11
134.464415801587
 21
85.8824646565683
  0
TEXT
  8
SLD-0
 62
7
  6
BYLAYER
 62
7
 10
134.778701515873
 20
86.6824646565685
 40
3
  1
φ8
  7
Font_0
 72
1
 11
137.028701515873
 21
88.1824646565685
 73
2
  0
LINE
  8
0
  6
BYBLOCK
 62
7
 10
152.40548168061
 20
86.6863122265684
 11
155.40548168061
 21
85.8824646565683
  0
LINE
  8
0
  6
BYBLOCK
 62
7
 10
155.40548168061
 20
85.8824646565683
 11
152.40548168061
 21
85.0786170865683
  0
LINE
  8
0
  6
BYBLOCK
 62
7
 10
155.40548168061
 20
85.8824646565683
 11
152.40548168061
 21
85.8824646565683
  0
LINE
  8
0
  6
BYBLOCK
 62
7
 10
150.40548168061
 20
85.0786170865683
 11
147.40548168061
 21
85.8824646565683
  0
LINE
  8
0
  6
BYBLOCK
 62
7
 10
147.40548168061
 20
85.8824646565683
 11
150.40548168061
 21
86.6863122265684
  0
LINE
  8
0
  6
BYBLOCK
 62
7
 10
147.40548168061
 20
85.8824646565683
 11
150.40548168061
 21
85.8824646565683
  0
LINE
  8
SLD-0
  6
CONTINUOUS
 62
7
 10
143.405481680609
 20
95.7324646565673
 11
143.405481680609
 21
75.0824646565675
  0
LINE
  8
SLD-0
  6
CONTINUOUS
 62
7
 10
159.40548168061
 20
95.7324646565673
 11
159.40548168061
 21
75.0824646565675
  0
LINE
  8
SLD-0
  6
BYLAYER
 62
7
 10
146.405481680609
 20
75.8824646565683
 11
156.405481680609
 21
75.8824646565683
  0
LINE
  8
SLD-0
  6
BYLAYER
 62
7
 10
132.644515001783
 20
75.8824646565683
 11
143.405481680609
 21
75.8824646565683
  0
TEXT
  8
SLD-0
 62
7
  6
BYLAYER
 62
7
 10
133.137372144641
 20
76.6824646565674
 40
3
  1
φ16
  7
Font_0
 72
1
 11
136.137372144641
 21
78.1824646565674
 73
2
  0
LINE
  8
0
  6
BYBLOCK
 62
7
 10
146.405481680609
 20
75.0786170865683
 11
143.405481680609
 21
75.8824646565683
  0
LINE
  8
0
  6
BYBLOCK
 62
7
 10
143.405481680609
 20
75.8824646565683
 11
146.405481680609
 21
76.6863122265684
  0
LINE
  8
0
  6
BYBLOCK
 62
7
 10
143.405481680609
 20
75.8824646565683
 11
146.405481680609
 21
75.8824646565683
  0
LINE
  8
0
  6
BYBLOCK
 62
7
 10
156.40548168061
 20
76.6863122265684
 11
159.40548168061
 21
75.8824646565683
  0
LINE
  8
0
  6
BYBLOCK
 62
7
 10
159.40548168061
 20
75.8824646565683
 11
156.40548168061
 21
75.0786170865683
  0
LINE
  8
0
  6
BYBLOCK
 62
7
 10
159.40548168061
 20
75.8824646565683
 11
156.40548168061
 21
75.8824646565683
  0
LINE
  8
SLD-0
  6
CONTINUOUS
 62
7
 10
143.255481680608
 20
95.8824646565683
 11
83.0949893220572
 21
95.8824646565683
  0
LINE
  8
SLD-0
  6
BYLAYER
 62
7
 10
83.8949893220574
 20
129.882464656567
 11
83.8949893220574
 21
98.8824646565683
  0
TEXT
  8
SLD-0
 62
7
  6
BYLAYER
 62
7
 10
83.0949893220572
 20
112.882464656567
 40
3
  1
37
  7
Font_0
 50
90
 72
1
 11
81.5949893220572
 21
114.382464656567
 73
2
  0
LINE
  8
0
  6
BYBLOCK
 62
7
 10
83.0911417520574
 20
129.882464656567
 11
83.8949893220574
 21
132.882464656567
  0
LINE
  8
0
  6
BYBLOCK
 62
7
 10
83.8949893220574
 20
132.882464656567
 11
84.6988368920574
 21
129.882464656567
  0
LINE
  8
0
  6
BYBLOCK
 62
7
 10
83.8949893220574
 20
132.882464656567
 11
83.8949893220574
 21
129.882464656567
  0
LINE
  8
0
  6
BYBLOCK
 62
7
 10
84.6988368920574
 20
98.8824646565683
 11
83.8949893220574
 21
95.8824646565683
  0
LINE
  8
0
  6
BYBLOCK
 62
7
 10
83.8949893220574
 20
95.8824646565683
 11
83.0911417520574
 21
98.8824646565683
  0
LINE
  8
0
  6
BYBLOCK
 62
7
 10
83.8949893220574
 20
95.8824646565683
 11
83.8949893220574
 21
98.8824646565683
  0
LINE
  8
KCAD_UIR_TMP_LAYER_
  6
BYLAYER
 62
7
 10
262.335481680628
 20
135.382464656567
 11
262.335481680628
 21
130.382464656567
  0
LINE
  8
KCAD_UIR_TMP_LAYER_
  6
BYLAYER
 62
7
 10
11.2049893220574
 20
132.882464656567
 11
264.835481680628
 21
132.882464656567
  0
LINE
  8
SLD-0
  6
CONTINUOUS
 62
7
 10
220.305481682161
 20
149.132464874829
 11
220.305481682161
 21
162.682464656566
  0
LINE
  8
SLD-0
  6
CONTINUOUS
 62
7
 10
228.805481682161
 20
149.132464874829
 11
228.805481682161
 21
162.682464656566
  0
LINE
  8
SLD-0
  6
BYLAYER
 62
7
 10
223.305481682161
 20
161.882464656567
 11
225.805481682161
 21
161.882464656567
  0
LINE
  8
SLD-0
  6
BYLAYER
 62
7
 10
217.305481682161
 20
161.882464656567
 11
214.305481682161
 21
161.882464656567
  0
LINE
  8
SLD-0
  6
BYLAYER
 62
7
 10
220.305481682161
 20
161.882464656567
 11
223.305481682161
 21
161.882464656567
  0
LINE
  8
SLD-0
  6
BYLAYER
 62
7
 10
231.805481682161
 20
161.882464656567
 11
234.805481682161
 21
161.882464656567
  0
LINE
  8
SLD-0
  6
BYLAYER
 62
7
 10
228.805481682161
 20
161.882464656567
 11
225.805481682161
 21
161.882464656567
  0
TEXT
  8
SLD-0
 62
7
  6
BYLAYER
 62
7
 10
222.305481682161
 20
162.682464656566
 40
3
  1
8.5
  7
Font_0
 72
1
 11
224.555481682161
 21
164.182464656566
 73
2
  0
LINE
  8
0
  6
BYBLOCK
 62
7
 10
217.305481682161
 20
162.686312226567
 11
220.305481682161
 21
161.882464656567
  0
LINE
  8
0
  6
BYBLOCK
 62
7
 10
220.305481682161
 20
161.882464656567
 11
217.305481682161
 21
161.078617086566
  0
LINE
  8
0
  6
BYBLOCK
 62
7
 10
220.305481682161
 20
161.882464656567
 11
217.305481682161
 21
161.882464656567
  0
LINE
  8
0
  6
BYBLOCK
 62
7
 10
231.805481682161
 20
161.078617086566
 11
228.805481682161
 21
161.882464656567
  0
LINE
  8
0
  6
BYBLOCK
 62
7
 10
228.805481682161
 20
161.882464656567
 11
231.805481682161
 21
162.686312226567
  0
LINE
  8
0
  6
BYBLOCK
 62
7
 10
228.805481682161
 20
161.882464656567
 11
231.805481682161
 21
161.882464656567
  0
LINE
  8
KCAD_UIR_TMP_LAYER_
  6
BYLAYER
 62
7
 10
13.7049893220583
 20
130.382464656567
 11
13.7049893220583
 21
135.382464656567
  0
CIRCLE
  8
KCAD_ASST
  6
BYLAYER
 62
7
 10
13.7049893220583
 20
132.882464656567
 40
0.5
  0
CIRCLE
  8
KCAD_ASST
  6
BYLAYER
 62
7
 10
262.335481680628
 20
132.882464656567
 40
0.5
  0
LINE
  8
SYBOUTLINE
  6
BYLAYER
 62
7
 10
139.594989322059
 20
151.882464656567
 11
94.1949893220585
 21
151.882464656567
  0
LINE
  8
SYBOUTLINE
  6
BYLAYER
 62
7
 10
93.8949893220579
 20
151.582464656566
 11
94.1949893220585
 21
151.882464656567
  0
LINE
  8
SYBOUTLINE
  6
BYLAYER
 62
7
 10
139.594989322059
 20
151.882464656567
 11
139.89498932206
 21
151.582464656566
  0
LINE
  8
SYBOUTLINE
  6
BYLAYER
 62
7
 10
139.594989322059
 20
113.882464656567
 11
94.1949893220585
 21
113.882464656567
  0
LINE
  8
SYBOUTLINE
  6
BYLAYER
 62
7
 10
93.8949893220579
 20
114.182464656565
 11
94.1949893220585
 21
113.882464656567
  0
LINE
  8
SYBOUTLINE
  6
BYLAYER
 62
7
 10
139.594989322059
 20
113.882464656567
 11
139.89498932206
 21
114.182464656565
  0
LINE
  8
SYBOUTLINE
  6
BYLAYER
 62
7
 10
93.8949893220579
 20
151.582464656566
 11
93.8949893220579
 21
114.182464656565
  0
LINE
  8
SYBOUTLINE
  6
BYLAYER
 62
7
 10
94.1949893220585
 20
151.882464656567
 11
94.1949893220585
 21
113.882464656567
  0
LINE
  8
SYBOUTLINE
  6
BYLAYER
 62
7
 10
139.594989322059
 20
151.882464656567
 11
139.594989322059
 21
113.882464656567
  0
LINE
  8
SYBOUTLINE
  6
BYLAYER
 62
7
 10
139.89498932206
 20
151.582464656566
 11
139.89498932206
 21
114.182464656565
  0
LINE
  8
SYBOUTLINE
  6
BYLAYER
 62
7
 10
140.194989322058
 20
151.882464656559
 11
139.894989322059
 21
151.58246465656
  0
LINE
  8
SYBOUTLINE
  6
BYLAYER
 62
7
 10
140.194989322058
 20
113.882464656572
 11
139.894989322059
 21
114.182464656574
  0
LINE
  8
SYBOUTLINE
  6
BYLAYER
 62
7
 10
140.194989322066
 20
151.882464656567
 11
166.594989322061
 21
151.882464656567
  0
LINE
  8
SYBOUTLINE
  6
BYLAYER
 62
7
 10
181.094989322057
 20
148.882464656565
 11
166.89498932206
 21
148.882464656565
  0
LINE
  8
SYBOUTLINE
  6
BYLAYER
 62
7
 10
166.594989322061
 20
151.882464656567
 11
166.89498932206
 21
151.582464656566
  0
LINE
  8
SYBOUTLINE
  6
BYLAYER
 62
7
 10
181.094989322057
 20
148.882464656565
 11
181.394989322057
 21
148.582464656565
  0
LINE
  8
SYBOUTLINE
  6
BYLAYER
 62
7
 10
181.094989322057
 20
116.882464656567
 11
166.89498932206
 21
116.882464656567
  0
LINE
  8
SYBOUTLINE
  6
BYLAYER
 62
7
 10
166.594989322061
 20
113.882464656567
 11
166.89498932206
 21
114.182464656565
  0
LINE
  8
SYBOUTLINE
  6
BYLAYER
 62
7
 10
181.094989322057
 20
116.882464656567
 11
181.394989322057
 21
117.182464656566
  0
LINE
  8
SYBOUTLINE
  6
BYLAYER
 62
7
 10
140.194989322058
 20
113.882464656572
 11
166.594989322064
 21
113.882464656572
  0
LINE
  8
SYBOUTLINE
  6
BYLAYER
 62
7
 10
139.894989322059
 20
151.58246465656
 11
139.894989322059
 21
114.182464656574
  0
LINE
  8
SYBOUTLINE
  6
BYLAYER
 62
7
 10
140.194989322058
 20
113.882464656572
 11
140.194989322066
 21
151.882464656567
  0
LINE
  8
SYBOUTLINE
  6
BYLAYER
 62
7
 10
166.594989322061
 20
151.882464656567
 11
166.594989322064
 21
113.882464656572
  0
LINE
  8
SYBOUTLINE
  6
BYLAYER
 62
7
 10
166.89498932206
 20
114.182464656565
 11
166.89498932206
 21
151.582464656566
  0
LINE
  8
SYBOUTLINE
  6
BYLAYER
 62
7
 10
181.094989322057
 20
148.882464656565
 11
181.094989322057
 21
116.882464656567
  0
LINE
  8
SYBOUTLINE
  6
BYLAYER
 62
7
 10
181.394989322057
 20
117.182464656566
 11
181.394989322057
 21
148.582464656565
  0
LINE
  8
KCAD_UIR_TMP_LAYER_
  6
BYLAYER
 62
7
 10
151.40548168061
 20
93.3824646565674
 11
151.40548168061
 21
132.882464656567
  0
LINE
  8
SYBOUTLINE
  6
BYLAYER
 62
7
 10
151.405481664457
 20
105.402079890567
 11
150.955481672534
 21
105.142272270567
  0
LINE
  8
SYBOUTLINE
  6
BYLAYER
 62
7
 10
150.955481672534
 20
104.622657042567
 11
151.405481664457
 21
104.362849422567
  0
CIRCLE
  8
SYBOUTLINE
  6
BYLAYER
 62
7
 10
151.405481672533
 20
104.882464656567
 40
1
  0
CIRCLE
  8
KCAD_ASST
  6
BYLAYER
 62
7
 10
151.405481672533
 20
104.882464656567
 40
0.819666733333333
  0
LINE
  8
KCAD_UIR_TMP_LAYER_
  6
BYLAYER
 62
7
 10
149.405481672533
 20
104.882464656567
 11
153.405481672534
 21
104.882464656567
  0
LINE
  8
SYBOUTLINE
  6
BYLAYER
 62
7
 10
150.955481672534
 20
105.142272270567
 11
150.955481672534
 21
104.622657042567
  0
LINE
  8
SYBOUTLINE
  6
BYLAYER
 62
7
 10
151.855481672534
 20
104.622657042567
 11
151.855481672534
 21
105.142272270567
  0
LINE
  8
SYBOUTLINE
  6
BYLAYER
 62
7
 10
151.40548168061
 20
104.362849422567
 11
151.855481672534
 21
104.622657042567
  0
LINE
  8
SYBOUTLINE
  6
BYLAYER
 62
7
 10
151.855481672534
 20
105.142272270567
 11
151.40548168061
 21
105.402079890567
  0
LINE
  8
1
  6
BYLAYER
 62
7
 10
150.539456290609
 20
98.8824646431053
 11
150.972468990608
 21
98.1324646565686
  0
LINE
  8
1
  6
BYLAYER
 62
7
 10
151.838494370609
 20
98.1324646565686
 11
152.271507070609
 21
98.8824646431053
  0
CIRCLE
  8
1
  6
BYLAYER
 62
7
 10
151.405481680609
 20
98.8824646565686
 40
1.5
  0
CIRCLE
  8
KCAD_ASST
  6
BYLAYER
 62
7
 10
151.405481680609
 20
98.8824646565686
 40
1.2295001
  0
LINE
  8
1
  6
BYLAYER
 62
7
 10
150.972468990608
 20
98.1324646565686
 11
151.838494370609
 21
98.1324646565686
  0
LINE
  8
KCAD_UIR_TMP_LAYER_
  6
BYLAYER
 62
7
 10
148.905481680609
 20
98.8824646565686
 11
153.905481680609
 21
98.8824646565686
  0
LINE
  8
1
  6
BYLAYER
 62
7
 10
151.838494370609
 20
99.6324646565686
 11
150.972468990608
 21
99.6324646565686
  0
LINE
  8
1
  6
BYLAYER
 62
7
 10
152.271507070609
 20
98.8824646700282
 11
151.838494370609
 21
99.6324646565686
  0
LINE
  8
1
  6
BYLAYER
 62
7
 10
150.972468990608
 20
99.6324646565686
 11
150.539456290609
 21
98.8824646700282
  0
LINE
  8
SYBOUTLINE
  6
BYLAYER
 62
7
 10
143.405481680609
 20
113.882464656567
 11
143.405481680609
 21
102.182464656566
  0
LINE
  8
SYBOUTLINE
  6
BYLAYER
 62
7
 10
159.40548168061
 20
113.882464656567
 11
159.40548168061
 21
102.182464656566
  0
LINE
  8
SYBOUTLINE
  6
BYLAYER
 62
7
 10
159.10548168061
 20
101.882464656567
 11
159.40548168061
 21
102.182464656566
  0
LINE
  8
SYBOUTLINE
  6
BYLAYER
 62
7
 10
143.405481680609
 20
102.182464656566
 11
143.705481680608
 21
101.882464656567
  0
LINE
  8
SYBOUTLINE
  6
BYLAYER
 62
7
 10
143.405481680609
 20
113.882464656567
 11
159.40548168061
 21
113.882464656567
  0
LINE
  8
SYBOUTLINE
  6
BYLAYER
 62
7
 10
143.405481680609
 20
102.182464656566
 11
159.40548168061
 21
102.182464656566
  0
LINE
  8
SYBOUTLINE
  6
BYLAYER
 62
7
 10
143.705481680608
 20
101.882464656567
 11
159.10548168061
 21
101.882464656567
  0
LINE
  8
SYBOUTLINE
  6
BYLAYER
 62
7
 10
143.405481680609
 20
96.1824646565674
 11
143.405481680609
 21
101.582464656567
  0
LINE
  8
SYBOUTLINE
  6
BYLAYER
 62
7
 10
143.705481680608
 20
101.882464656567
 11
143.405481680609
 21
101.582464656567
  0
LINE
  8
SYBOUTLINE
  6
BYLAYER
 62
7
 10
159.40548168061
 20
101.582464656567
 11
159.40548168061
 21
96.1824646565653
  0
LINE
  8
SYBOUTLINE
  6
BYLAYER
 62
7
 10
159.10548168061
 20
95.8824646565665
 11
159.40548168061
 21
96.1824646565653
  0
LINE
  8
SYBOUTLINE
  6
BYLAYER
 62
7
 10
159.10548168061
 20
101.882464656567
 11
159.40548168061
 21
101.582464656567
  0
LINE
  8
SYBOUTLINE
  6
BYLAYER
 62
7
 10
143.405481680609
 20
96.1824646565674
 11
143.705481680608
 21
95.8824646565674
  0
LINE
  8
SYBOUTLINE
  6
BYLAYER
 62
7
 10
143.705481680608
 20
95.8824646565674
 11
159.10548168061
 21
95.8824646565665
  0
LINE
  8
SYBOUTLINE
  6
BYLAYER
 62
7
 10
143.405481680609
 20
96.1824646565674
 11
159.40548168061
 21
96.1824646565653
  0
LINE
  8
SYBOUTLINE
  6
BYLAYER
 62
7
 10
143.405481680609
 20
101.582464656567
 11
159.40548168061
 21
101.582464656567
  0
LINE
  8
SYBOUTLINE
  6
BYLAYER
 62
7
 10
143.705481680608
 20
101.882464656567
 11
159.10548168061
 21
101.882464656567
  0
LINE
  8
SYBTHRHID
  6
BYLAYER
 62
7
 10
155.40548168061
 20
101.238534010189
 11
155.40548168061
 21
96.1824646565665
  0
LINE
  8
SYBTHRHID
  6
BYLAYER
 62
7
 10
147.40548168061
 20
101.031344104093
 11
147.40548168061
 21
96.1824646565665
  0
LINE
  8
SYBTHRHID
  6
BYLAYER
 62
7
 10
147.40548168061
 20
96.1824646565665
 11
147.10548168061
 21
95.8824646565654
  0
LINE
  8
SYBTHRHID
  6
BYLAYER
 62
7
 10
155.40548168061
 20
96.1824646565665
 11
155.705481680612
 21
95.8824646565674
  0
POLYLINE
  8
KCAD_ASST
 62
7
  6
BYLAYER
 10
0.0
 20
0.0
 30
0.0
 66
1
 40
-1
 41
-1
  0
VERTEX
  8
KCAD_ASST
 10
145.435906218464
  20
101.350029036998
  0
VERTEX
  8
KCAD_ASST
 10
145.880112579739
  20
101.318364140073
  0
VERTEX
  8
KCAD_ASST
 10
146.336552707761
  20
101.252131338092
  0
VERTEX
  8
KCAD_ASST
 10
146.802851954068
  20
101.160638554935
  0
VERTEX
  8
KCAD_ASST
 10
147.276635670195
  20
101.053193714486
  0
VERTEX
  8
KCAD_ASST
 10
147.755529207678
  20
100.939104740627
  0
VERTEX
  8
KCAD_ASST
 10
148.237157918053
  20
100.82767955724
  0
VERTEX
  8
KCAD_ASST
 10
148.719147152855
  20
100.728226088207
  0
VERTEX
  8
KCAD_ASST
 10
149.199122263622
  20
100.650052257412
  0
VERTEX
  8
KCAD_ASST
 10
149.674708601889
  20
100.602465988736
  0
VERTEX
  8
KCAD_ASST
 10
150.144047427673
  20
100.592105412579
  0
VERTEX
  8
KCAD_ASST
 10
150.607343634918
  20
100.614929485402
  0
VERTEX
  8
KCAD_ASST
 10
151.065318026048
  20
100.664227370186
  0
VERTEX
  8
KCAD_ASST
 10
151.518691403488
  20
100.73328822991
  0
VERTEX
  8
KCAD_ASST
 10
151.968184569662
  20
100.815401227553
  0
VERTEX
  8
KCAD_ASST
 10
152.414518326995
  20
100.903855526094
  0
VERTEX
  8
KCAD_ASST
 10
152.858413477912
  20
100.991940288512
  0
VERTEX
  8
KCAD_ASST
 10
153.300590824837
  20
101.072944677787
  0
VERTEX
  8
KCAD_ASST
 10
153.741771170195
  20
101.140157856898
  0
VERTEX
  8
KCAD_ASST
 10
154.182142464617
  20
101.188280055914
  0
VERTEX
  8
KCAD_ASST
 10
154.61976125156
  20
101.217655773267
  0
VERTEX
  8
KCAD_ASST
 10
155.052151222689
  20
101.230040574476
  0
VERTEX
  8
KCAD_ASST
 10
155.476836069667
  20
101.227190025065
  0
VERTEX
  8
KCAD_ASST
 10
155.891339484158
  20
101.210859690552
  0
VERTEX
  8
KCAD_ASST
 10
156.293185157826
  20
101.182805136461
  0
VERTEX
  8
KCAD_ASST
 10
156.679896782335
  20
101.14478192831
  0
VERTEX
  8
KCAD_ASST
 10
157.048998049348
  20
101.098545631623
  0
VERTEX
  8
KCAD_ASST
 10
157.39801265053
  20
101.045851811919
  0
SEQEND
100
AcDbEntity
  8
KCAD_ASST
  0
LINE
  8
SLD-0
  6
CONTINUOUS
 62
7
 10
244.805481680622
 20
149.032464656566
 11
244.805481680622
 21
172.682464656566
  0
LINE
  8
SLD-0
  6
CONTINUOUS
 62
7
 10
248.805481680622
 20
145.632464656567
 11
248.805481680622
 21
172.682464656566
  0
LINE
  8
SLD-0
  6
CONTINUOUS
 62
7
 10
241.805481680622
 20
171.882464656567
 11
238.805481680622
 21
171.882464656567
  0
LINE
  8
SLD-0
  6
CONTINUOUS
 62
7
 10
251.805481680622
 20
171.882464656567
 11
260.472624537765
 21
171.882464656567
  0
LINE
  8
SLD-0
  6
CONTINUOUS
 62
7
 10
244.805481680622
 20
171.882464656567
 11
248.805481680622
 21
171.882464656567
  0
TEXT
  8
SLD-0
 62
7
  6
BYLAYER
 62
7
 10
253.889053109193
 20
172.682464656566
 40
3
  1
（4）
  7
Font_0
 72
1
 11
257.639053109193
 21
174.182464656566
 73
2
  0
LINE
  8
0
  6
BYBLOCK
 62
7
 10
241.805481680622
 20
172.686312226567
 11
244.805481680622
 21
171.882464656567
  0
LINE
  8
0
  6
BYBLOCK
 62
7
 10
244.805481680622
 20
171.882464656567
 11
241.805481680622
 21
171.078617086566
  0
LINE
  8
0
  6
BYBLOCK
 62
7
 10
244.805481680622
 20
171.882464656567
 11
241.805481680622
 21
171.882464656567
  0
LINE
  8
0
  6
BYBLOCK
 62
7
 10
251.805481680622
 20
171.078617086566
 11
248.805481680622
 21
171.882464656567
  0
LINE
  8
0
  6
BYBLOCK
 62
7
 10
248.805481680622
 20
171.882464656567
 11
251.805481680622
 21
172.686312226567
  0
LINE
  8
0
  6
BYBLOCK
 62
7
 10
248.805481680622
 20
171.882464656567
 11
251.805481680622
 21
171.882464656567
  0
LINE
  8
SYBOUTLINE
  6
BYLAYER
 62
7
 10
189.194989323595
 20
148.88246465659
 11
220.005481682162
 21
148.88246465659
  0
LINE
  8
SYBOUTLINE
  6
BYLAYER
 62
7
 10
188.894989323595
 20
148.58246465659
 11
189.194989323595
 21
148.88246465659
  0
LINE
  8
SYBOUTLINE
  6
BYLAYER
 62
7
 10
220.005481682162
 20
148.88246465659
 11
220.305481682161
 21
148.58246465659
  0
LINE
  8
SYBOUTLINE
  6
BYLAYER
 62
7
 10
189.194989323595
 20
148.88246465659
 11
220.005481682162
 21
148.88246465659
  0
LINE
  8
SYBOUTLINE
  6
BYLAYER
 62
7
 10
188.894989323595
 20
148.58246465659
 11
189.194989323595
 21
148.88246465659
  0
LINE
  8
SYBOUTLINE
  6
BYLAYER
 62
7
 10
220.005481682162
 20
148.88246465659
 11
220.305481682161
 21
148.58246465659
  0
LINE
  8
SYBOUTLINE
  6
BYLAYER
 62
7
 10
189.194989323595
 20
116.882464656542
 11
220.005481682162
 21
116.882464656542
  0
LINE
  8
SYBOUTLINE
  6
BYLAYER
 62
7
 10
188.894989323595
 20
117.182464656542
 11
189.194989323595
 21
116.882464656542
  0
LINE
  8
SYBOUTLINE
  6
BYLAYER
 62
7
 10
220.005481682162
 20
116.882464656542
 11
220.305481682161
 21
117.182464656542
  0
LINE
  8
SYBOUTLINE
  6
BYLAYER
 62
7
 10
188.894989323595
 20
148.58246465659
 11
188.894989323595
 21
117.182464656542
  0
LINE
  8
SYBOUTLINE
  6
BYLAYER
 62
7
 10
220.305481682161
 20
148.58246465659
 11
220.305481682161
 21
117.182464656542
  0
LINE
  8
SYBOUTLINE
  6
BYLAYER
 62
7
 10
189.194989323595
 20
148.88246465659
 11
189.194989323595
 21
116.882464656542
  0
LINE
  8
SYBOUTLINE
  6
BYLAYER
 62
7
 10
220.005481682162
 20
148.88246465659
 11
220.005481682162
 21
116.882464656542
  0
LINE
  8
SYBOUTLINE
  6
BYLAYER
 62
7
 10
181.694989322019
 20
148.882464656565
 11
188.594989322021
 21
148.882464656566
  0
LINE
  8
SYBOUTLINE
  6
BYLAYER
 62
7
 10
181.39498932202
 20
148.582464656565
 11
181.694989322019
 21
148.882464656565
  0
LINE
  8
SYBOUTLINE
  6
BYLAYER
 62
7
 10
188.594989322021
 20
148.882464656565
 11
188.894989322024
 21
148.582464656565
  0
LINE
  8
SYBOUTLINE
  6
BYLAYER
 62
7
 10
181.694989322019
 20
116.882464656567
 11
188.594989322021
 21
116.882464656566
  0
LINE
  8
SYBOUTLINE
  6
BYLAYER
 62
7
 10
181.39498932202
 20
117.182464656567
 11
181.694989322019
 21
116.882464656567
  0
LINE
  8
SYBOUTLINE
  6
BYLAYER
 62
7
 10
188.594989322021
 20
116.882464656566
 11
188.894989322024
 21
117.182464656566
  0
LINE
  8
SYBOUTLINE
  6
BYLAYER
 62
7
 10
181.39498932202
 20
148.582464656565
 11
181.39498932202
 21
117.182464656567
  0
LINE
  8
SYBOUTLINE
  6
BYLAYER
 62
7
 10
181.694989322019
 20
148.882464656565
 11
181.694989322019
 21
116.882464656567
  0
LINE
  8
SYBOUTLINE
  6
BYLAYER
 62
7
 10
188.594989322021
 20
148.882464656566
 11
188.594989322021
 21
116.882464656565
  0
LINE
  8
SYBOUTLINE
  6
BYLAYER
 62
7
 10
188.894989322024
 20
148.582464656565
 11
188.894989322024
 21
117.182464656566
  0
LINE
  8
SYBOUTLINE
  6
BYLAYER
 62
7
 10
228.605481682161
 20
148.882464874829
 11
220.505481682162
 21
148.882464874829
  0
LINE
  8
SYBOUTLINE
  6
BYLAYER
 62
7
 10
228.805481682161
 20
148.68246487483
 11
228.605481682161
 21
148.882464874829
  0
LINE
  8
SYBOUTLINE
  6
BYLAYER
 62
7
 10
220.505481682162
 20
148.882464874829
 11
220.305481682161
 21
148.68246487483
  0
LINE
  8
SYBOUTLINE
  6
BYLAYER
 62
7
 10
228.605481682161
 20
116.882464367612
 11
220.505481682162
 21
116.882464367612
  0
LINE
  8
SYBOUTLINE
  6
BYLAYER
 62
7
 10
228.805481682161
 20
117.082464367611
 11
228.605481682161
 21
116.882464367612
  0
LINE
  8
SYBOUTLINE
  6
BYLAYER
 62
7
 10
220.505481682162
 20
116.882464367612
 11
220.305481682161
 21
117.082464367611
  0
TEXT
  8
SYBOUTLINE
 62
7
  6
BYLAYER
 62
7
 10
223.131307528952
 20
141.505293750713
 40
3
  1
OPTART
  7
Font_2
 50
-90
 11
226.131307528952
 21
141.505293750713
 73
3
  0
LINE
  8
SYBOUTLINE
  6
BYLAYER
 62
7
 10
220.305481682161
 20
148.68246487483
 11
220.305481682161
 21
117.082464367611
  0
LINE
  8
SYBOUTLINE
  6
BYLAYER
 62
7
 10
220.505481682162
 20
116.882464367612
 11
220.505481682162
 21
148.882464874829
  0
LINE
  8
SYBOUTLINE
  6
BYLAYER
 62
7
 10
228.605481682161
 20
148.882464874829
 11
228.605481682161
 21
116.882464367612
  0
LINE
  8
SYBOUTLINE
  6
BYLAYER
 62
7
 10
228.805481682161
 20
117.082464367611
 11
228.805481682161
 21
148.68246487483
  0
LINE
  8
1
  6
BYLAYER
 62
7
 10
234.80548166716
 20
133.748490046566
 11
234.055481680623
 21
133.315477346566
  0
LINE
  8
1
  6
BYLAYER
 62
7
 10
234.055481680623
 20
132.449451966566
 11
234.80548166716
 21
132.016439266566
  0
CIRCLE
  8
1
  6
BYLAYER
 62
7
 10
234.805481680623
 20
132.882464656566
 40
1.5
  0
CIRCLE
  8
KCAD_ASST
  6
BYLAYER
 62
7
 10
234.805481680623
 20
132.882464656566
 40
1.2295001
  0
LINE
  8
1
  6
BYLAYER
 62
7
 10
234.055481680623
 20
133.315477346566
 11
234.055481680623
 21
132.449451966566
  0
LINE
  8
KCAD_UIR_TMP_LAYER_
  6
BYLAYER
 62
7
 10
234.805481680623
 20
135.382464656566
 11
234.805481680623
 21
130.382464656566
  0
LINE
  8
1
  6
BYLAYER
 62
7
 10
235.555481680623
 20
132.449451966566
 11
235.555481680623
 21
133.315477346566
  0
LINE
  8
1
  6
BYLAYER
 62
7
 10
234.805481694083
 20
132.016439266566
 11
235.555481680623
 21
132.449451966566
  0
LINE
  8
1
  6
BYLAYER
 62
7
 10
235.555481680623
 20
133.315477346566
 11
234.805481694083
 21
133.748490046566
  0
LINE
  8
SYBOUTLINE
  6
BYLAYER
 62
7
 10
229.105481680622
 20
148.882464656566
 11
244.505481680623
 21
148.882464656566
  0
LINE
  8
SYBOUTLINE
  6
BYLAYER
 62
7
 10
228.805481680622
 20
148.582464656566
 11
229.105481680622
 21
148.882464656566
  0
LINE
  8
SYBOUTLINE
  6
BYLAYER
 62
7
 10
229.105481680622
 20
116.882464656566
 11
244.505481680623
 21
116.882464656566
  0
LINE
  8
SYBOUTLINE
  6
BYLAYER
 62
7
 10
244.805481680622
 20
117.182464656566
 11
244.505481680623
 21
116.882464656566
  0
LINE
  8
SYBOUTLINE
  6
BYLAYER
 62
7
 10
228.805481680622
 20
117.182464656566
 11
229.105481680622
 21
116.882464656566
  0
LINE
  8
SYBOUTLINE
  6
BYLAYER
 62
7
 10
244.505481680623
 20
148.882464656566
 11
244.805481680622
 21
148.582464656566
  0
LINE
  8
SYBOUTLINE
  6
BYLAYER
 62
7
 10
244.805481680622
 20
145.182464656566
 11
245.305481680622
 21
145.182464656566
  0
LINE
  8
KCAD_ASST
  6
BYLAYER
 62
7
 10
245.305481680622
 20
145.182464656566
 11
248.805481680622
 21
145.182464656566
  0
LINE
  8
SYBOUTLINE
  6
BYLAYER
 62
7
 10
248.405481680624
 20
145.582464656566
 11
245.305481680622
 21
145.582464656566
  0
LINE
  8
SYBOUTLINE
  6
BYLAYER
 62
7
 10
245.305481680622
 20
145.582464656566
 11
245.305481680622
 21
145.182464656566
  0
LINE
  8
SYBOUTLINE
  6
BYLAYER
 62
7
 10
244.805481680622
 20
120.582464656566
 11
245.305481680622
 21
120.582464656566
  0
LINE
  8
KCAD_ASST
  6
BYLAYER
 62
7
 10
245.305481680622
 20
120.582464656566
 11
248.805481680622
 21
120.582464656566
  0
LINE
  8
SYBOUTLINE
  6
BYLAYER
 62
7
 10
245.305481680622
 20
120.582464656566
 11
245.305481680622
 21
120.182464656566
  0
LINE
  8
SYBOUTLINE
  6
BYLAYER
 62
7
 10
245.305481680622
 20
120.182464656566
 11
248.405481680624
 21
120.182464656566
  0
LINE
  8
SYBOUTLINE
  6
BYLAYER
 62
7
 10
248.405481680624
 20
145.582464656566
 11
248.805481680622
 21
145.182464656566
  0
LINE
  8
SYBOUTLINE
  6
BYLAYER
 62
7
 10
248.405481680624
 20
120.182464656566
 11
248.805481680622
 21
120.582464656566
  0
LINE
  8
SYBOUTLINE
  6
BYLAYER
 62
7
 10
248.805481680622
 20
145.182464656566
 11
248.805481680622
 21
120.582464656566
  0
LINE
  8
SYBOUTLINE
  6
BYLAYER
 62
7
 10
228.805481680622
 20
148.582464656566
 11
228.805481680622
 21
117.182464656566
  0
LINE
  8
SYBOUTLINE
  6
BYLAYER
 62
7
 10
229.105481680622
 20
148.882464656566
 11
229.105481680622
 21
116.882464656566
  0
LINE
  8
SYBOUTLINE
  6
BYLAYER
 62
7
 10
244.505481680623
 20
148.882464656566
 11
244.505481680623
 21
116.882464656566
  0
LINE
  8
SYBOUTLINE
  6
BYLAYER
 62
7
 10
244.805481680622
 20
148.582464656566
 11
244.805481680622
 21
117.182464656566
  0
LINE
  8
SYBOUTLINE
  6
BYLAYER
 62
7
 10
245.305481680622
 20
120.582464656566
 11
245.305481680622
 21
145.182464656566
  0
LINE
  8
SYBOUTLINE
  6
BYLAYER
 62
7
 10
248.405481680624
 20
145.582464656566
 11
248.405481680624
 21
120.182464656566
  0
ENDSEC
  0
EOF
