999
Outputted By AR_CAD Ver.1.7.0
  0
SECTION
  2
HEADER
  9
$ACADVER
  1
AC1009
  9
$DWGCODEPAGE
  3
DOS932
  9
$EXTMIN
 10
0
 20
0
  9
$EXTMAX
 10
891
 20
630
  9
$INSBASE
 10
0.0
 20
0.0
 30
0.0
  9
$HANDLING
 70
     1
  9
$LTSCALE
 40
1
  0
ENDSEC
  0
SECTION
  2
TABLES
  0
TABLE
  2
LTYPE
 70
     12
  0
LTYPE
  2
BYBLOCK
 70
    64
 3

 72
    65
 73
    0
 40
    0
  0
LTYPE
  2
BYLAYER
 70
    64
 3

 72
    65
 73
    0
 40
    0
  0
LTYPE
  2
CONTINUOUS
 70
    64
 3
CONTINUOUS
 72
    65
 73
    0
 40
    0
  0
LTYPE
  2
DASHED
 70
    64
 3

 72
    65
 73
    2
 40
    3.5
 49
    2.91666666666667
 49
    -0.583333333333333
  0
LTYPE
  2
DOT
 70
    64
 3

 72
    65
 73
    2
 40
    0.5
 49
    0.25
 49
    -0.25
  0
LTYPE
  2
DASHDOT
 70
    64
 3

 72
    65
 73
    4
 40
    3.5
 49
    1.84210526315789
 49
    -0.552631578947368
 49
    0.552631578947368
 49
    -0.552631578947368
  0
LTYPE
  2
DIVIDE
 70
    64
 3

 72
    65
 73
    6
 40
    3.5
 49
    1.4
 49
    -0.42
 49
    0.42
 49
    -0.42
 49
    0.42
 49
    -0.42
  0
LTYPE
  2
HIDDEN
 70
    64
 3

 72
    65
 73
    2
 40
    1.905
 49
    1.27
 49
    -0.635
  0
LTYPE
  2
PHANTOM
 70
    64
 3

 72
    65
 73
    6
 40
    12.7
 49
    6.35
 49
    -1.27
 49
    1.27
 49
    -1.27
 49
    1.27
 49
    -1.27
  0
LTYPE
  2
CENTER
 70
    64
 3

 72
    65
 73
    4
 40
    10.16
 49
    6.35
 49
    -1.27
 49
    1.27
 49
    -1.27
  0
LTYPE
  2
CENTERX2
 70
    64
 3

 72
    65
 73
    4
 40
    20.32
 49
    12.7
 49
    -2.54
 49
    2.54
 49
    -2.54
  0
LTYPE
  2
DOT2
 70
    64
 3

 72
    65
 73
    2
 40
    0.635
 49
    0
 49
    -0.635
  0
ENDTAB
  0
TABLE
  2
LAYER
 70
   257
  0
LAYER
  2
0
 70
    0
 62
7
  6
CONTINUOUS
  0
LAYER
  2
SLD-0
 70
    0
 62
179
  6
CONTINUOUS
  0
LAYER
  2
$DDT_AUDIT_GENERATED__27_
 70
    0
 62
179
  6
CONTINUOUS
  0
LAYER
  2
ﾌﾟﾘ_ﾞﾑ
 70
    0
 62
179
  6
CONTINUOUS
  0
LAYER
  2
DIMENSION
 70
    0
 62
179
  6
CONTINUOUS
  0
LAYER
  2
KCM-1
 70
    0
 62
179
  6
CONTINUOUS
  0
LAYER
  2
CCDｶﾒﾗ_XC-ES50_
 70
    0
 62
179
  6
CONTINUOUS
  0
LAYER
  2
$DDT_AUDIT_GENERATED__9C_
 70
    0
 62
179
  6
CONTINUOUS
  0
LAYER
  2
LAYER1
 70
    0
 62
179
  6
CONTINUOUS
  0
LAYER
  2
LAYER2
 70
    0
 62
179
  6
CONTINUOUS
  0
LAYER
  2
KCM-1-75SR
 70
    0
 62
179
  6
CONTINUOUS
  0
LAYER
  2
$DDT_AUDIT_GENERATED__30_
 70
    0
 62
7
  6
CONTINUOUS
  0
LAYER
  2
シリズムカグ_
 70
    0
 62
7
  6
CONTINUOUS
  0
LAYER
  2
ﾌﾟﾘ_ﾞﾑﾎﾙﾀﾞ_
 70
    0
 62
7
  6
CONTINUOUS
  0
LAYER
  2
シリズム2
 70
    0
 62
7
  6
CONTINUOUS
  0
LAYER
  2
光源_LED_
 70
    0
 62
7
  6
CONTINUOUS
  0
LAYER
  2
$DDT_AUDIT_GENERATED__36_
 70
    0
 62
7
  6
CONTINUOUS
  0
LAYER
  2
カグ_板
 70
    0
 62
7
  6
CONTINUOUS
  0
LAYER
  2
$DDT_AUDIT_GENERATED__39_
 70
    0
 62
7
  6
CONTINUOUS
  0
LAYER
  2
KCM-4
 70
    0
 62
7
  6
CONTINUOUS
  0
LAYER
  2
LAYER7
 70
    0
 62
7
  6
CONTINUOUS
  0
LAYER
  2
LAYER4
 70
    0
 62
7
  6
CONTINUOUS
  0
LAYER
  2
LAYER6
 70
    0
 62
7
  6
CONTINUOUS
  0
LAYER
  2
LAYER5
 70
    0
 62
7
  6
CONTINUOUS
  0
LAYER
  2
LAYER11
 70
    0
 62
7
  6
CONTINUOUS
  0
LAYER
  2
LAYER12
 70
    0
 62
7
  6
CONTINUOUS
  0
LAYER
  2
LAYER9
 70
    0
 62
7
  6
CONTINUOUS
  0
LAYER
  2
LAYER3
 70
    0
 62
7
  6
CONTINUOUS
  0
LAYER
  2
$CONSTRUCTION
 70
    0
 62
-9
  6
CONTINUOUS
  0
LAYER
  2
SLD-DEFPOINTS
 70
    0
 62
7
  6
CONTINUOUS
  0
LAYER
  2
99
 70
    0
 62
-3
  6
CONTINUOUS
  0
LAYER
  2
LED-RDW_8-14_L
 70
    0
 62
179
  6
CONTINUOUS
  0
LAYER
  2
シリズム
 70
    0
 62
179
  6
CONTINUOUS
  0
LAYER
  2
$DDT_AUDIT_GENERATED__327_
 70
    0
 62
179
  6
CONTINUOUS
  0
LAYER
  2
$DDT_AUDIT_GENERATED__380_
 70
    0
 62
179
  6
CONTINUOUS
  0
LAYER
  2
CSCX30BC3
 70
    0
 62
179
  6
CONTINUOUS
  0
LAYER
  2
KCM-4D-65C_8_
 70
    0
 62
179
  6
CONTINUOUS
  0
LAYER
  2
KCM-4D-110C
 70
    0
 62
179
  6
CONTINUOUS
  0
LAYER
  2
画層38
 70
    0
 62
250
  6
CONTINUOUS
  0
LAYER
  2
画層39
 70
    0
 62
250
  6
CONTINUOUS
  0
LAYER
  2
画層40
 70
    0
 62
250
  6
CONTINUOUS
  0
LAYER
  2
画層41
 70
    0
 62
250
  6
CONTINUOUS
  0
LAYER
  2
画層42
 70
    0
 62
250
  6
CONTINUOUS
  0
LAYER
  2
画層43
 70
    0
 62
250
  6
CONTINUOUS
  0
LAYER
  2
画層44
 70
    0
 62
250
  6
CONTINUOUS
  0
LAYER
  2
画層45
 70
    0
 62
250
  6
CONTINUOUS
  0
LAYER
  2
画層46
 70
    0
 62
250
  6
CONTINUOUS
  0
LAYER
  2
画層47
 70
    0
 62
250
  6
CONTINUOUS
  0
LAYER
  2
画層48
 70
    0
 62
250
  6
CONTINUOUS
  0
LAYER
  2
画層49
 70
    0
 62
250
  6
CONTINUOUS
  0
LAYER
  2
画層50
 70
    0
 62
250
  6
CONTINUOUS
  0
LAYER
  2
画層51
 70
    0
 62
250
  6
CONTINUOUS
  0
LAYER
  2
画層52
 70
    0
 62
250
  6
CONTINUOUS
  0
LAYER
  2
画層53
 70
    0
 62
250
  6
CONTINUOUS
  0
LAYER
  2
画層54
 70
    0
 62
250
  6
CONTINUOUS
  0
LAYER
  2
画層55
 70
    0
 62
250
  6
CONTINUOUS
  0
LAYER
  2
画層56
 70
    0
 62
250
  6
CONTINUOUS
  0
LAYER
  2
画層57
 70
    0
 62
250
  6
CONTINUOUS
  0
LAYER
  2
画層58
 70
    0
 62
250
  6
CONTINUOUS
  0
LAYER
  2
画層59
 70
    0
 62
250
  6
CONTINUOUS
  0
LAYER
  2
画層60
 70
    0
 62
250
  6
CONTINUOUS
  0
LAYER
  2
画層61
 70
    0
 62
250
  6
CONTINUOUS
  0
LAYER
  2
画層62
 70
    0
 62
250
  6
CONTINUOUS
  0
LAYER
  2
画層63
 70
    0
 62
250
  6
CONTINUOUS
  0
LAYER
  2
画層64
 70
    0
 62
250
  6
CONTINUOUS
  0
LAYER
  2
画層65
 70
    0
 62
250
  6
CONTINUOUS
  0
LAYER
  2
画層66
 70
    0
 62
250
  6
CONTINUOUS
  0
LAYER
  2
画層67
 70
    0
 62
250
  6
CONTINUOUS
  0
LAYER
  2
画層68
 70
    0
 62
250
  6
CONTINUOUS
  0
LAYER
  2
画層69
 70
    0
 62
250
  6
CONTINUOUS
  0
LAYER
  2
画層70
 70
    0
 62
250
  6
CONTINUOUS
  0
LAYER
  2
画層71
 70
    0
 62
250
  6
CONTINUOUS
  0
LAYER
  2
画層72
 70
    0
 62
250
  6
CONTINUOUS
  0
LAYER
  2
画層73
 70
    0
 62
250
  6
CONTINUOUS
  0
LAYER
  2
画層74
 70
    0
 62
250
  6
CONTINUOUS
  0
LAYER
  2
画層75
 70
    0
 62
250
  6
CONTINUOUS
  0
LAYER
  2
画層76
 70
    0
 62
250
  6
CONTINUOUS
  0
LAYER
  2
画層77
 70
    0
 62
250
  6
CONTINUOUS
  0
LAYER
  2
画層78
 70
    0
 62
250
  6
CONTINUOUS
  0
LAYER
  2
画層79
 70
    0
 62
250
  6
CONTINUOUS
  0
LAYER
  2
画層80
 70
    0
 62
250
  6
CONTINUOUS
  0
LAYER
  2
画層81
 70
    0
 62
250
  6
CONTINUOUS
  0
LAYER
  2
画層82
 70
    0
 62
250
  6
CONTINUOUS
  0
LAYER
  2
画層83
 70
    0
 62
250
  6
CONTINUOUS
  0
LAYER
  2
画層84
 70
    0
 62
250
  6
CONTINUOUS
  0
LAYER
  2
画層85
 70
    0
 62
250
  6
CONTINUOUS
  0
LAYER
  2
画層86
 70
    0
 62
250
  6
CONTINUOUS
  0
LAYER
  2
画層87
 70
    0
 62
250
  6
CONTINUOUS
  0
LAYER
  2
画層88
 70
    0
 62
250
  6
CONTINUOUS
  0
LAYER
  2
画層89
 70
    0
 62
250
  6
CONTINUOUS
  0
LAYER
  2
画層90
 70
    0
 62
250
  6
CONTINUOUS
  0
LAYER
  2
画層91
 70
    0
 62
250
  6
CONTINUOUS
  0
LAYER
  2
画層92
 70
    0
 62
250
  6
CONTINUOUS
  0
LAYER
  2
画層93
 70
    0
 62
250
  6
CONTINUOUS
  0
LAYER
  2
画層94
 70
    0
 62
250
  6
CONTINUOUS
  0
LAYER
  2
画層95
 70
    0
 62
250
  6
CONTINUOUS
  0
LAYER
  2
画層96
 70
    0
 62
250
  6
CONTINUOUS
  0
LAYER
  2
画層97
 70
    0
 62
250
  6
CONTINUOUS
  0
LAYER
  2
画層98
 70
    0
 62
250
  6
CONTINUOUS
  0
LAYER
  2
画層99
 70
    0
 62
250
  6
CONTINUOUS
  0
LAYER
  2
画層100
 70
    0
 62
250
  6
CONTINUOUS
  0
LAYER
  2
画層101
 70
    0
 62
250
  6
CONTINUOUS
  0
LAYER
  2
画層102
 70
    0
 62
250
  6
CONTINUOUS
  0
LAYER
  2
画層103
 70
    0
 62
250
  6
CONTINUOUS
  0
LAYER
  2
画層104
 70
    0
 62
250
  6
CONTINUOUS
  0
LAYER
  2
画層105
 70
    0
 62
250
  6
CONTINUOUS
  0
LAYER
  2
画層106
 70
    0
 62
250
  6
CONTINUOUS
  0
LAYER
  2
画層107
 70
    0
 62
250
  6
CONTINUOUS
  0
LAYER
  2
画層108
 70
    0
 62
250
  6
CONTINUOUS
  0
LAYER
  2
画層109
 70
    0
 62
250
  6
CONTINUOUS
  0
LAYER
  2
画層110
 70
    0
 62
250
  6
CONTINUOUS
  0
LAYER
  2
画層111
 70
    0
 62
250
  6
CONTINUOUS
  0
LAYER
  2
画層112
 70
    0
 62
250
  6
CONTINUOUS
  0
LAYER
  2
画層113
 70
    0
 62
250
  6
CONTINUOUS
  0
LAYER
  2
画層114
 70
    0
 62
250
  6
CONTINUOUS
  0
LAYER
  2
画層115
 70
    0
 62
250
  6
CONTINUOUS
  0
LAYER
  2
画層116
 70
    0
 62
250
  6
CONTINUOUS
  0
LAYER
  2
画層117
 70
    0
 62
250
  6
CONTINUOUS
  0
LAYER
  2
画層118
 70
    0
 62
250
  6
CONTINUOUS
  0
LAYER
  2
画層119
 70
    0
 62
250
  6
CONTINUOUS
  0
LAYER
  2
画層120
 70
    0
 62
250
  6
CONTINUOUS
  0
LAYER
  2
画層121
 70
    0
 62
250
  6
CONTINUOUS
  0
LAYER
  2
画層122
 70
    0
 62
250
  6
CONTINUOUS
  0
LAYER
  2
画層123
 70
    0
 62
250
  6
CONTINUOUS
  0
LAYER
  2
画層124
 70
    0
 62
250
  6
CONTINUOUS
  0
LAYER
  2
画層125
 70
    0
 62
250
  6
CONTINUOUS
  0
LAYER
  2
画層126
 70
    0
 62
250
  6
CONTINUOUS
  0
LAYER
  2
画層127
 70
    0
 62
250
  6
CONTINUOUS
  0
LAYER
  2
画層128
 70
    0
 62
250
  6
CONTINUOUS
  0
LAYER
  2
画層129
 70
    0
 62
250
  6
CONTINUOUS
  0
LAYER
  2
画層130
 70
    0
 62
250
  6
CONTINUOUS
  0
LAYER
  2
画層131
 70
    0
 62
250
  6
CONTINUOUS
  0
LAYER
  2
画層132
 70
    0
 62
250
  6
CONTINUOUS
  0
LAYER
  2
画層133
 70
    0
 62
250
  6
CONTINUOUS
  0
LAYER
  2
画層134
 70
    0
 62
250
  6
CONTINUOUS
  0
LAYER
  2
画層135
 70
    0
 62
250
  6
CONTINUOUS
  0
LAYER
  2
画層136
 70
    0
 62
250
  6
CONTINUOUS
  0
LAYER
  2
画層137
 70
    0
 62
250
  6
CONTINUOUS
  0
LAYER
  2
画層138
 70
    0
 62
250
  6
CONTINUOUS
  0
LAYER
  2
画層139
 70
    0
 62
250
  6
CONTINUOUS
  0
LAYER
  2
画層140
 70
    0
 62
250
  6
CONTINUOUS
  0
LAYER
  2
画層141
 70
    0
 62
250
  6
CONTINUOUS
  0
LAYER
  2
画層142
 70
    0
 62
250
  6
CONTINUOUS
  0
LAYER
  2
画層143
 70
    0
 62
250
  6
CONTINUOUS
  0
LAYER
  2
画層144
 70
    0
 62
250
  6
CONTINUOUS
  0
LAYER
  2
画層145
 70
    0
 62
250
  6
CONTINUOUS
  0
LAYER
  2
画層146
 70
    0
 62
250
  6
CONTINUOUS
  0
LAYER
  2
画層147
 70
    0
 62
250
  6
CONTINUOUS
  0
LAYER
  2
画層148
 70
    0
 62
250
  6
CONTINUOUS
  0
LAYER
  2
画層149
 70
    0
 62
250
  6
CONTINUOUS
  0
LAYER
  2
画層150
 70
    0
 62
250
  6
CONTINUOUS
  0
LAYER
  2
画層151
 70
    0
 62
250
  6
CONTINUOUS
  0
LAYER
  2
画層152
 70
    0
 62
250
  6
CONTINUOUS
  0
LAYER
  2
画層153
 70
    0
 62
250
  6
CONTINUOUS
  0
LAYER
  2
画層154
 70
    0
 62
250
  6
CONTINUOUS
  0
LAYER
  2
画層155
 70
    0
 62
250
  6
CONTINUOUS
  0
LAYER
  2
画層156
 70
    0
 62
250
  6
CONTINUOUS
  0
LAYER
  2
画層157
 70
    0
 62
250
  6
CONTINUOUS
  0
LAYER
  2
画層158
 70
    0
 62
250
  6
CONTINUOUS
  0
LAYER
  2
画層159
 70
    0
 62
250
  6
CONTINUOUS
  0
LAYER
  2
画層160
 70
    0
 62
250
  6
CONTINUOUS
  0
LAYER
  2
画層161
 70
    0
 62
250
  6
CONTINUOUS
  0
LAYER
  2
画層162
 70
    0
 62
250
  6
CONTINUOUS
  0
LAYER
  2
画層163
 70
    0
 62
250
  6
CONTINUOUS
  0
LAYER
  2
画層164
 70
    0
 62
250
  6
CONTINUOUS
  0
LAYER
  2
画層165
 70
    0
 62
250
  6
CONTINUOUS
  0
LAYER
  2
画層166
 70
    0
 62
250
  6
CONTINUOUS
  0
LAYER
  2
画層167
 70
    0
 62
250
  6
CONTINUOUS
  0
LAYER
  2
画層168
 70
    0
 62
250
  6
CONTINUOUS
  0
LAYER
  2
画層169
 70
    0
 62
250
  6
CONTINUOUS
  0
LAYER
  2
画層170
 70
    0
 62
250
  6
CONTINUOUS
  0
LAYER
  2
画層171
 70
    0
 62
250
  6
CONTINUOUS
  0
LAYER
  2
画層172
 70
    0
 62
250
  6
CONTINUOUS
  0
LAYER
  2
画層173
 70
    0
 62
250
  6
CONTINUOUS
  0
LAYER
  2
画層174
 70
    0
 62
250
  6
CONTINUOUS
  0
LAYER
  2
画層175
 70
    0
 62
250
  6
CONTINUOUS
  0
LAYER
  2
画層176
 70
    0
 62
250
  6
CONTINUOUS
  0
LAYER
  2
画層177
 70
    0
 62
250
  6
CONTINUOUS
  0
LAYER
  2
画層178
 70
    0
 62
250
  6
CONTINUOUS
  0
LAYER
  2
画層179
 70
    0
 62
250
  6
CONTINUOUS
  0
LAYER
  2
画層180
 70
    0
 62
250
  6
CONTINUOUS
  0
LAYER
  2
画層181
 70
    0
 62
250
  6
CONTINUOUS
  0
LAYER
  2
画層182
 70
    0
 62
250
  6
CONTINUOUS
  0
LAYER
  2
画層183
 70
    0
 62
250
  6
CONTINUOUS
  0
LAYER
  2
画層184
 70
    0
 62
250
  6
CONTINUOUS
  0
LAYER
  2
画層185
 70
    0
 62
250
  6
CONTINUOUS
  0
LAYER
  2
画層186
 70
    0
 62
250
  6
CONTINUOUS
  0
LAYER
  2
画層187
 70
    0
 62
250
  6
CONTINUOUS
  0
LAYER
  2
画層188
 70
    0
 62
250
  6
CONTINUOUS
  0
LAYER
  2
画層189
 70
    0
 62
250
  6
CONTINUOUS
  0
LAYER
  2
画層190
 70
    0
 62
250
  6
CONTINUOUS
  0
LAYER
  2
画層191
 70
    0
 62
250
  6
CONTINUOUS
  0
LAYER
  2
画層192
 70
    0
 62
250
  6
CONTINUOUS
  0
LAYER
  2
画層193
 70
    0
 62
250
  6
CONTINUOUS
  0
LAYER
  2
画層194
 70
    0
 62
250
  6
CONTINUOUS
  0
LAYER
  2
画層195
 70
    0
 62
250
  6
CONTINUOUS
  0
LAYER
  2
画層196
 70
    0
 62
250
  6
CONTINUOUS
  0
LAYER
  2
画層197
 70
    0
 62
250
  6
CONTINUOUS
  0
LAYER
  2
画層198
 70
    0
 62
250
  6
CONTINUOUS
  0
LAYER
  2
画層199
 70
    0
 62
250
  6
CONTINUOUS
  0
LAYER
  2
画層200
 70
    0
 62
250
  6
CONTINUOUS
  0
LAYER
  2
画層201
 70
    0
 62
250
  6
CONTINUOUS
  0
LAYER
  2
画層202
 70
    0
 62
250
  6
CONTINUOUS
  0
LAYER
  2
画層203
 70
    0
 62
250
  6
CONTINUOUS
  0
LAYER
  2
画層204
 70
    0
 62
250
  6
CONTINUOUS
  0
LAYER
  2
画層205
 70
    0
 62
250
  6
CONTINUOUS
  0
LAYER
  2
画層206
 70
    0
 62
250
  6
CONTINUOUS
  0
LAYER
  2
画層207
 70
    0
 62
250
  6
CONTINUOUS
  0
LAYER
  2
画層208
 70
    0
 62
250
  6
CONTINUOUS
  0
LAYER
  2
画層209
 70
    0
 62
250
  6
CONTINUOUS
  0
LAYER
  2
画層210
 70
    0
 62
250
  6
CONTINUOUS
  0
LAYER
  2
画層211
 70
    0
 62
250
  6
CONTINUOUS
  0
LAYER
  2
画層212
 70
    0
 62
250
  6
CONTINUOUS
  0
LAYER
  2
画層213
 70
    0
 62
250
  6
CONTINUOUS
  0
LAYER
  2
画層214
 70
    0
 62
250
  6
CONTINUOUS
  0
LAYER
  2
画層215
 70
    0
 62
250
  6
CONTINUOUS
  0
LAYER
  2
画層216
 70
    0
 62
250
  6
CONTINUOUS
  0
LAYER
  2
画層217
 70
    0
 62
250
  6
CONTINUOUS
  0
LAYER
  2
画層218
 70
    0
 62
250
  6
CONTINUOUS
  0
LAYER
  2
画層219
 70
    0
 62
250
  6
CONTINUOUS
  0
LAYER
  2
画層220
 70
    0
 62
250
  6
CONTINUOUS
  0
LAYER
  2
画層221
 70
    0
 62
250
  6
CONTINUOUS
  0
LAYER
  2
画層222
 70
    0
 62
250
  6
CONTINUOUS
  0
LAYER
  2
画層223
 70
    0
 62
250
  6
CONTINUOUS
  0
LAYER
  2
画層224
 70
    0
 62
250
  6
CONTINUOUS
  0
LAYER
  2
画層225
 70
    0
 62
250
  6
CONTINUOUS
  0
LAYER
  2
画層226
 70
    0
 62
250
  6
CONTINUOUS
  0
LAYER
  2
画層227
 70
    0
 62
250
  6
CONTINUOUS
  0
LAYER
  2
画層228
 70
    0
 62
250
  6
CONTINUOUS
  0
LAYER
  2
画層229
 70
    0
 62
250
  6
CONTINUOUS
  0
LAYER
  2
画層230
 70
    0
 62
250
  6
CONTINUOUS
  0
LAYER
  2
画層231
 70
    0
 62
250
  6
CONTINUOUS
  0
LAYER
  2
画層232
 70
    0
 62
250
  6
CONTINUOUS
  0
LAYER
  2
画層233
 70
    0
 62
250
  6
CONTINUOUS
  0
LAYER
  2
画層234
 70
    0
 62
250
  6
CONTINUOUS
  0
LAYER
  2
画層235
 70
    0
 62
250
  6
CONTINUOUS
  0
LAYER
  2
画層236
 70
    0
 62
250
  6
CONTINUOUS
  0
LAYER
  2
画層237
 70
    0
 62
250
  6
CONTINUOUS
  0
LAYER
  2
画層238
 70
    0
 62
250
  6
CONTINUOUS
  0
LAYER
  2
画層239
 70
    0
 62
250
  6
CONTINUOUS
  0
LAYER
  2
画層240
 70
    0
 62
250
  6
CONTINUOUS
  0
LAYER
  2
画層241
 70
    0
 62
250
  6
CONTINUOUS
  0
LAYER
  2
画層242
 70
    0
 62
250
  6
CONTINUOUS
  0
LAYER
  2
画層243
 70
    0
 62
250
  6
CONTINUOUS
  0
LAYER
  2
画層244
 70
    0
 62
250
  6
CONTINUOUS
  0
LAYER
  2
画層245
 70
    0
 62
250
  6
CONTINUOUS
  0
LAYER
  2
画層246
 70
    0
 62
250
  6
CONTINUOUS
  0
LAYER
  2
画層247
 70
    0
 62
250
  6
CONTINUOUS
  0
LAYER
  2
画層248
 70
    0
 62
250
  6
CONTINUOUS
  0
LAYER
  2
画層249
 70
    0
 62
250
  6
CONTINUOUS
  0
LAYER
  2
画層250
 70
    0
 62
250
  6
CONTINUOUS
  0
LAYER
  2
画層251
 70
    0
 62
250
  6
CONTINUOUS
  0
LAYER
  2
画層252
 70
    0
 62
250
  6
CONTINUOUS
  0
LAYER
  2
画層253
 70
    0
 62
250
  6
CONTINUOUS
  0
LAYER
  2
画層254
 70
    0
 62
250
  6
CONTINUOUS
  0
LAYER
  2
画層255
 70
    0
 62
250
  6
CONTINUOUS
  0
ENDTAB
  0
TABLE
  2
STYLE
 70
     1
  0
STYLE
  2
Standard
 70
     0
 40
0.0
 41
1.0
 50
0.0
 71
     0
 42
3.2
  3
TXT
  4
BIGFONT
  0
STYLE
  2
Font_0
 70
     0
 40
0.0
 41
1.0
 50
0.0
 71
     0
 42
3.2
  3
txt
  4
BIGFONT
  0
ENDTAB
  0
ENDSEC
  0
SECTION
  2
ENTITIES
  0
LINE
  8
0
  6
CONTINUOUS
 62
7
 10
1203.97096452945
 20
51.6829702074739
 11
55.125576866925
 21
51.6829702074739
  0
LINE
  8
0
  6
CONTINUOUS
 62
7
 10
55.125576866925
 20
51.6829702074739
 11
55.125576866925
 21
833.182970207474
  0
LINE
  8
0
  6
CONTINUOUS
 62
7
 10
1204.12557686692
 20
833.182970207474
 11
55.125576866925
 21
833.182970207474
  0
LINE
  8
0
  6
CONTINUOUS
 62
7
 10
1204.12557686692
 20
51.7011869558813
 11
1204.12557686692
 21
833.182970207474
  0
TEXT
  8
0
 62
7
  6
BYLAYER
 62
7
 10
1186.60758316042
 20
37.7042695020739
 40
10.5
  1
A3
  7
Font_0
 11
1186.60758316042
 21
48.2042695020739
 73
3
  0
TEXT
  8
0
 62
7
  6
BYLAYER
 62
7
 10
1103.80246486103
 20
37.0777674201739
 40
10.5
  1
〔ｍｍ〕
  7
Font_0
 11
1103.80246486103
 21
47.5777674201739
 73
3
  0
TEXT
  8
0
 62
7
  6
BYLAYER
 62
7
 10
1146.10410481942
 20
37.0777674201739
 40
10.5
  1
三角法
  7
Font_0
 11
1146.10410481942
 21
47.5777674201739
 73
3
  0
LINE
  8
0
  6
CONTINUOUS
 62
7
 10
885.070167190048
 20
78.3726301605739
 11
880.570167190048
 21
71.1767980950739
  0
LINE
  8
0
  6
CONTINUOUS
 62
7
 10
876.070167190048
 20
78.3726301605739
 11
880.570167190048
 21
71.1767980950739
  0
LINE
  8
0
  6
CONTINUOUS
 62
7
 10
846.668053220548
 20
78.3726301605739
 11
842.168053220548
 21
71.1767980950739
  0
LINE
  8
0
  6
CONTINUOUS
 62
7
 10
837.668053220548
 20
78.3726301605739
 11
842.168053220548
 21
71.1767980950739
  0
LINE
  8
0
  6
CONTINUOUS
 62
7
 10
809.576032691848
 20
77.3149650774738
 11
805.076032691848
 21
70.238211303974
  0
LINE
  8
0
  6
CONTINUOUS
 62
7
 10
800.576032691848
 20
77.3149650774738
 11
805.076032691848
 21
70.238211303974
  0
LINE
  8
0
  6
CONTINUOUS
 62
7
 10
922.502905111648
 20
79.7668463679738
 11
918.002905111648
 21
71.9726177337739
  0
LINE
  8
0
  6
CONTINUOUS
 62
7
 10
791.576032691848
 20
62.4660973551739
 11
800.576032691848
 21
62.4660973551739
  0
LINE
  8
0
  6
CONTINUOUS
 62
7
 10
800.576032691848
 20
62.4660973551739
 11
796.076032691848
 21
54.6718687212739
  0
LINE
  8
0
  6
CONTINUOUS
 62
7
 10
791.576032691848
 20
62.4660973551739
 11
796.076032691848
 21
54.6718687212739
  0
LINE
  8
0
  6
CENTER
 62
7
 10
800.576032691848
 20
62.4660973551739
 11
809.576032691848
 21
62.4660973551739
  0
LINE
  8
0
  6
CONTINUOUS
 62
7
 10
1141.97096452935
 20
73.4329702074739
 11
1130.47096452945
 21
73.4329702074739
  0
LINE
  8
0
  6
CONTINUOUS
 62
7
 10
1141.97096452935
 20
51.6829702074739
 11
1114.97096452935
 21
51.6829702074739
  0
LINE
  8
0
  6
CONTINUOUS
 62
7
 10
1141.97096452935
 20
51.6829702074739
 11
1141.97096452935
 21
73.4329702074739
  0
LINE
  8
0
  6
CONTINUOUS
 62
7
 10
1114.97096452935
 20
73.4329702074739
 11
1100.47096452945
 21
73.4329702074739
  0
LINE
  8
0
  6
CONTINUOUS
 62
7
 10
1114.97096452935
 20
51.6829702074739
 11
1052.97096452955
 21
51.6829702074739
  0
LINE
  8
0
  6
CONTINUOUS
 62
7
 10
1114.97096452935
 20
51.6829702074739
 11
1114.97096452935
 21
73.4329702074739
  0
LINE
  8
0
  6
CONTINUOUS
 62
7
 10
1052.97096452955
 20
73.4329702074739
 11
1065.97096452945
 21
73.4329702074739
  0
LINE
  8
0
  6
CONTINUOUS
 62
7
 10
1052.97096452955
 20
51.6829702074739
 11
1025.97096452955
 21
51.6829702074739
  0
LINE
  8
0
  6
CONTINUOUS
 62
7
 10
1052.97096452955
 20
51.6829702074739
 11
1052.97096452955
 21
73.4329702074739
  0
LINE
  8
0
  6
CONTINUOUS
 62
7
 10
1025.97096452955
 20
51.6829702074739
 11
963.970964529447
 21
51.6829702074739
  0
LINE
  8
0
  6
CONTINUOUS
 62
7
 10
1025.97096452955
 20
73.4329702074739
 11
1035.97096452945
 21
73.4329702074739
  0
LINE
  8
0
  6
CONTINUOUS
 62
7
 10
1025.97096452955
 20
73.4329702074739
 11
1025.97096452955
 21
51.6829702074739
  0
LINE
  8
0
  6
CONTINUOUS
 62
7
 10
963.970964529447
 20
51.6829702074739
 11
936.970964529447
 21
51.6829702074739
  0
LINE
  8
0
  6
CONTINUOUS
 62
7
 10
963.970964529447
 20
73.4329702074739
 11
971.470964529447
 21
73.4329702074739
  0
LINE
  8
0
  6
CONTINUOUS
 62
7
 10
963.970964529447
 20
73.4329702074739
 11
963.970964529447
 21
51.6829702074739
  0
LINE
  8
0
  6
CONTINUOUS
 62
7
 10
1161.97096452945
 20
73.4329702074739
 11
1141.97096452935
 21
73.4329702074739
  0
LINE
  8
0
  6
CONTINUOUS
 62
7
 10
1161.97096452945
 20
95.1829702074739
 11
1137.97096452945
 21
95.1829702074739
  0
LINE
  8
0
  6
CONTINUOUS
 62
7
 10
1161.97096452945
 20
95.1829702074739
 11
1161.97096452945
 21
73.4329702074739
  0
LINE
  8
0
  6
CONTINUOUS
 62
7
 10
1130.47096452945
 20
73.4329702074739
 11
1114.97096452935
 21
73.4329702074739
  0
LINE
  8
0
  6
CONTINUOUS
 62
7
 10
1130.47096452945
 20
95.1829702074739
 11
1137.97096452945
 21
95.1829702074739
  0
LINE
  8
0
  6
CONTINUOUS
 62
7
 10
1130.47096452945
 20
95.1829702074739
 11
1130.47096452945
 21
73.4329702074739
  0
LINE
  8
0
  6
CONTINUOUS
 62
7
 10
1100.47096452945
 20
95.1829702074739
 11
1130.47096452945
 21
95.1829702074739
  0
LINE
  8
0
  6
CONTINUOUS
 62
7
 10
1100.47096452945
 20
95.1829702074739
 11
1100.47096452945
 21
73.4329702074739
  0
LINE
  8
0
  6
CONTINUOUS
 62
7
 10
1065.97096452945
 20
73.4329702074739
 11
1100.47096452945
 21
73.4329702074739
  0
LINE
  8
0
  6
CONTINUOUS
 62
7
 10
1065.97096452945
 20
95.1829702074739
 11
1100.47096452945
 21
95.1829702074739
  0
LINE
  8
0
  6
CONTINUOUS
 62
7
 10
1065.97096452945
 20
95.1829702074739
 11
1065.97096452945
 21
73.4329702074739
  0
LINE
  8
0
  6
CONTINUOUS
 62
7
 10
1035.97096452945
 20
73.4329702074739
 11
1052.97096452955
 21
73.4329702074739
  0
LINE
  8
0
  6
CONTINUOUS
 62
7
 10
1035.97096452945
 20
95.1829702074739
 11
1065.97096452945
 21
95.1829702074739
  0
LINE
  8
0
  6
CONTINUOUS
 62
7
 10
1035.97096452945
 20
95.1829702074739
 11
1035.97096452945
 21
73.4329702074739
  0
LINE
  8
0
  6
CONTINUOUS
 62
7
 10
1001.47096452945
 20
73.4329702074739
 11
1025.97096452955
 21
73.4329702074739
  0
LINE
  8
0
  6
CONTINUOUS
 62
7
 10
1001.47096452945
 20
95.1829702074739
 11
1035.97096452945
 21
95.1829702074739
  0
LINE
  8
0
  6
CONTINUOUS
 62
7
 10
1001.47096452945
 20
95.1829702074739
 11
1001.47096452945
 21
73.4329702074739
  0
LINE
  8
0
  6
CONTINUOUS
 62
7
 10
971.470964529447
 20
73.4329702074739
 11
1001.47096452945
 21
73.4329702074739
  0
LINE
  8
0
  6
CONTINUOUS
 62
7
 10
971.470964529447
 20
95.1829702074739
 11
1001.47096452945
 21
95.1829702074739
  0
LINE
  8
0
  6
CONTINUOUS
 62
7
 10
971.470964529447
 20
95.1829702074739
 11
971.470964529447
 21
73.4329702074739
  0
LINE
  8
0
  6
CONTINUOUS
 62
7
 10
1091.77096452945
 20
95.1829702074739
 11
1091.77096452945
 21
154.582970207474
  0
LINE
  8
0
  6
CONTINUOUS
 62
7
 10
1203.97096452945
 20
51.6829702074739
 11
1203.97096452945
 21
73.4329702074739
  0
LINE
  8
0
  6
CONTINUOUS
 62
7
 10
474.970964529447
 20
186.682970207474
 11
504.970964529447
 21
186.682970207474
  0
LINE
  8
0
  6
CONTINUOUS
 62
7
 10
474.970964529447
 20
186.682970207474
 11
474.970964529447
 21
164.182970207474
  0
LINE
  8
0
  6
CONTINUOUS
 62
7
 10
786.970964529447
 20
186.682970207474
 11
786.970964529447
 21
174.682970207474
  0
LINE
  8
0
  6
CONTINUOUS
 62
7
 10
786.970964529447
 20
51.6829702074739
 11
824.470964529447
 21
51.6829702074739
  0
LINE
  8
0
  6
CONTINUOUS
 62
7
 10
786.970964529447
 20
74.1829702074739
 11
690.891626201847
 21
74.1829702074739
  0
LINE
  8
0
  6
CONTINUOUS
 62
7
 10
786.970964529447
 20
74.1829702074739
 11
786.970964529447
 21
51.6829702074739
  0
LINE
  8
0
  6
CONTINUOUS
 62
7
 10
474.970964529447
 20
74.1829702074739
 11
474.970964529447
 21
51.6829702074739
  0
LINE
  8
0
  6
CONTINUOUS
 62
7
 10
786.970964529447
 20
186.682970207474
 11
936.970964529447
 21
186.682970207474
  0
LINE
  8
0
  6
CONTINUOUS
 62
7
 10
936.970964529447
 20
186.682970207474
 11
936.970964529447
 21
174.682970207474
  0
LINE
  8
0
  6
CONTINUOUS
 62
7
 10
936.970964529447
 20
186.682970207474
 11
1203.97096452945
 21
186.682970207474
  0
LINE
  8
0
  6
CONTINUOUS
 62
7
 10
729.570876771747
 20
186.682970207474
 11
729.570876771747
 21
74.1829702074739
  0
LINE
  8
0
  6
CONTINUOUS
 62
7
 10
747.241685771547
 20
186.682970207474
 11
786.970964529447
 21
186.682970207474
  0
LINE
  8
0
  6
CONTINUOUS
 62
7
 10
564.970964529447
 20
186.682970207474
 11
564.970964529447
 21
74.1829702074739
  0
LINE
  8
0
  6
CONTINUOUS
 62
7
 10
564.970964529447
 20
186.682970207474
 11
747.241685771547
 21
186.682970207474
  0
LINE
  8
0
  6
CONTINUOUS
 62
7
 10
786.970964529447
 20
174.682970207474
 11
845.470964529447
 21
174.682970207474
  0
LINE
  8
0
  6
CONTINUOUS
 62
7
 10
786.970964529447
 20
174.682970207474
 11
786.970964529447
 21
164.182970207474
  0
LINE
  8
0
  6
CONTINUOUS
 62
7
 10
936.970964529447
 20
174.682970207474
 11
936.970964529447
 21
162.682970207474
  0
LINE
  8
0
  6
CONTINUOUS
 62
7
 10
786.970964529447
 20
102.682970207474
 11
845.470964529447
 21
102.682970207474
  0
LINE
  8
0
  6
CONTINUOUS
 62
7
 10
786.970964529447
 20
102.682970207474
 11
786.970964529447
 21
96.6829702074739
  0
LINE
  8
0
  6
CONTINUOUS
 62
7
 10
936.970964529447
 20
102.682970207474
 11
936.970964529447
 21
95.1829702074739
  0
LINE
  8
0
  6
CONTINUOUS
 62
7
 10
786.970964529447
 20
89.1829702074739
 11
824.470964529447
 21
89.1829702074739
  0
LINE
  8
0
  6
CONTINUOUS
 62
7
 10
786.970964529447
 20
89.1829702074739
 11
786.970964529447
 21
75.6829702074739
  0
LINE
  8
0
  6
CONTINUOUS
 62
7
 10
936.970964529447
 20
89.1829702074739
 11
936.970964529447
 21
75.6829702074739
  0
LINE
  8
0
  6
CONTINUOUS
 62
7
 10
1203.97096452945
 20
154.582970207474
 11
1203.97096452945
 21
186.682970207474
  0
LINE
  8
0
  6
CONTINUOUS
 62
7
 10
936.970964529447
 20
154.582970207474
 11
936.970964529447
 21
150.682970207474
  0
LINE
  8
0
  6
CONTINUOUS
 62
7
 10
786.970964529447
 20
68.3128030005739
 11
936.970964529447
 21
68.3128030005739
  0
LINE
  8
0
  6
CONTINUOUS
 62
7
 10
786.970964529447
 20
75.6829702074739
 11
786.970964529447
 21
74.1829702074739
  0
LINE
  8
0
  6
CONTINUOUS
 62
7
 10
936.970964529447
 20
75.6829702074739
 11
936.970964529447
 21
73.4329702074739
  0
LINE
  8
0
  6
CONTINUOUS
 62
7
 10
1203.97096452945
 20
95.1829702074739
 11
1203.97096452945
 21
124.882970207474
  0
LINE
  8
0
  6
CONTINUOUS
 62
7
 10
936.970964529447
 20
95.1829702074739
 11
936.970964529447
 21
89.1829702074739
  0
LINE
  8
0
  6
CONTINUOUS
 62
7
 10
824.470964529447
 20
89.1829702074739
 11
824.470964529447
 21
51.6829702074739
  0
LINE
  8
0
  6
CONTINUOUS
 62
7
 10
824.470964529447
 20
89.1829702074739
 11
861.970964529447
 21
89.1829702074739
  0
LINE
  8
0
  6
CONTINUOUS
 62
7
 10
824.470964529447
 20
51.6829702074739
 11
861.970964529447
 21
51.6829702074739
  0
LINE
  8
0
  6
CONTINUOUS
 62
7
 10
861.970964529447
 20
51.6829702074739
 11
861.970964529447
 21
89.1829702074739
  0
LINE
  8
0
  6
CONTINUOUS
 62
7
 10
861.970964529447
 20
51.6829702074739
 11
899.470964529447
 21
51.6829702074739
  0
LINE
  8
0
  6
CONTINUOUS
 62
7
 10
861.970964529447
 20
89.1829702074739
 11
899.470964529447
 21
89.1829702074739
  0
LINE
  8
0
  6
CONTINUOUS
 62
7
 10
899.470964529447
 20
89.1829702074739
 11
899.470964529447
 21
51.6829702074739
  0
LINE
  8
0
  6
CONTINUOUS
 62
7
 10
899.470964529447
 20
89.1829702074739
 11
936.970964529447
 21
89.1829702074739
  0
LINE
  8
0
  6
CONTINUOUS
 62
7
 10
899.470964529447
 20
51.6829702074739
 11
936.970964529447
 21
51.6829702074739
  0
LINE
  8
0
  6
CONTINUOUS
 62
7
 10
1203.97096452945
 20
73.4329702074739
 11
1203.97096452945
 21
95.1829702074739
  0
LINE
  8
0
  6
CONTINUOUS
 62
7
 10
936.970964529447
 20
73.4329702074739
 11
936.970964529447
 21
51.6829702074739
  0
LINE
  8
0
  6
CONTINUOUS
 62
7
 10
936.970964529447
 20
124.882970207474
 11
1203.97096452945
 21
124.882970207474
  0
LINE
  8
0
  6
CONTINUOUS
 62
7
 10
936.970964529447
 20
124.882970207474
 11
936.970964529447
 21
114.682970207474
  0
LINE
  8
0
  6
CONTINUOUS
 62
7
 10
1203.97096452945
 20
124.882970207474
 11
1203.97096452945
 21
154.582970207474
  0
LINE
  8
0
  6
CONTINUOUS
 62
7
 10
1203.97096452945
 20
154.582970207474
 11
1137.97096452945
 21
154.582970207474
  0
LINE
  8
0
  6
CONTINUOUS
 62
7
 10
1203.97096452945
 20
95.1829702074739
 11
1161.97096452945
 21
95.1829702074739
  0
LINE
  8
0
  6
CONTINUOUS
 62
7
 10
1203.97096452945
 20
73.4329702074739
 11
1161.97096452945
 21
73.4329702074739
  0
LINE
  8
0
  6
CONTINUOUS
 62
7
 10
1203.97096452945
 20
51.6829702074739
 11
1141.97096452935
 21
51.6829702074739
  0
LINE
  8
0
  6
CONTINUOUS
 62
7
 10
983.470964529447
 20
154.582970207474
 11
983.470964529447
 21
95.1829702074739
  0
LINE
  8
0
  6
CONTINUOUS
 62
7
 10
983.470964529447
 20
154.582970207474
 11
936.970964529447
 21
154.582970207474
  0
LINE
  8
0
  6
CONTINUOUS
 62
7
 10
936.970964529447
 20
95.1829702074739
 11
971.470964529447
 21
95.1829702074739
  0
LINE
  8
0
  6
CONTINUOUS
 62
7
 10
936.970964529447
 20
73.4329702074739
 11
963.970964529447
 21
73.4329702074739
  0
LINE
  8
0
  6
CONTINUOUS
 62
7
 10
1091.77096452945
 20
154.582970207474
 11
983.470964529447
 21
154.582970207474
  0
LINE
  8
0
  6
CONTINUOUS
 62
7
 10
1137.97096452945
 20
154.582970207474
 11
1137.97096452945
 21
95.1829702074739
  0
LINE
  8
0
  6
CONTINUOUS
 62
7
 10
1137.97096452945
 20
154.582970207474
 11
1091.77096452945
 21
154.582970207474
  0
LINE
  8
0
  6
CONTINUOUS
 62
7
 10
845.470964529447
 20
174.682970207474
 11
845.470964529447
 21
102.682970207474
  0
LINE
  8
0
  6
CONTINUOUS
 62
7
 10
845.470964529447
 20
174.682970207474
 11
875.970964529548
 21
174.682970207474
  0
LINE
  8
0
  6
CONTINUOUS
 62
7
 10
845.470964529447
 20
102.682970207474
 11
875.970964529548
 21
102.682970207474
  0
LINE
  8
0
  6
CONTINUOUS
 62
7
 10
875.970964529548
 20
102.682970207474
 11
875.970964529548
 21
174.682970207474
  0
LINE
  8
0
  6
CONTINUOUS
 62
7
 10
875.970964529548
 20
102.682970207474
 11
906.470964529348
 21
102.682970207474
  0
LINE
  8
0
  6
CONTINUOUS
 62
7
 10
875.970964529548
 20
174.682970207474
 11
906.470964529348
 21
174.682970207474
  0
LINE
  8
0
  6
CONTINUOUS
 62
7
 10
906.470964529348
 20
174.682970207474
 11
906.470964529348
 21
102.682970207474
  0
LINE
  8
0
  6
CONTINUOUS
 62
7
 10
906.470964529348
 20
174.682970207474
 11
936.970964529447
 21
174.682970207474
  0
LINE
  8
0
  6
CONTINUOUS
 62
7
 10
906.470964529348
 20
102.682970207474
 11
936.970964529447
 21
102.682970207474
  0
LINE
  8
0
  6
CONTINUOUS
 62
7
 10
504.970964529447
 20
186.682970207474
 11
504.970964529447
 21
74.1829702074739
  0
LINE
  8
0
  6
CONTINUOUS
 62
7
 10
504.970964529447
 20
186.682970207474
 11
564.970964529447
 21
186.682970207474
  0
LINE
  8
0
  6
CONTINUOUS
 62
7
 10
474.970964529447
 20
51.6829702074739
 11
513.821993690548
 21
51.6829702074739
  0
LINE
  8
0
  6
CONTINUOUS
 62
7
 10
474.970964529447
 20
164.182970207474
 11
786.970964529447
 21
164.182970207474
  0
LINE
  8
0
  6
CONTINUOUS
 62
7
 10
474.970964529447
 20
164.182970207474
 11
474.970964529447
 21
141.682970207474
  0
LINE
  8
0
  6
CONTINUOUS
 62
7
 10
786.970964529447
 20
164.182970207474
 11
786.970964529447
 21
162.682970207474
  0
LINE
  8
0
  6
CONTINUOUS
 62
7
 10
786.970964529447
 20
141.682970207474
 11
474.970964529447
 21
141.682970207474
  0
LINE
  8
0
  6
CONTINUOUS
 62
7
 10
786.970964529447
 20
141.682970207474
 11
786.970964529447
 21
138.682970207474
  0
LINE
  8
0
  6
CONTINUOUS
 62
7
 10
474.970964529447
 20
141.682970207474
 11
474.970964529447
 21
119.182970207474
  0
LINE
  8
0
  6
CONTINUOUS
 62
7
 10
474.970964529447
 20
119.182970207474
 11
786.970964529447
 21
119.182970207474
  0
LINE
  8
0
  6
CONTINUOUS
 62
7
 10
474.970964529447
 20
119.182970207474
 11
474.970964529447
 21
96.6829702074739
  0
LINE
  8
0
  6
CONTINUOUS
 62
7
 10
786.970964529447
 20
119.182970207474
 11
786.970964529447
 21
114.682970207474
  0
LINE
  8
0
  6
CONTINUOUS
 62
7
 10
474.970964529447
 20
96.6829702074739
 11
786.970964529447
 21
96.6829702074739
  0
LINE
  8
0
  6
CONTINUOUS
 62
7
 10
474.970964529447
 20
96.6829702074739
 11
474.970964529447
 21
74.1829702074739
  0
LINE
  8
0
  6
CONTINUOUS
 62
7
 10
786.970964529447
 20
96.6829702074739
 11
786.970964529447
 21
89.1829702074739
  0
LINE
  8
0
  6
CONTINUOUS
 62
7
 10
936.970964529447
 20
162.682970207474
 11
786.970964529447
 21
162.682970207474
  0
LINE
  8
0
  6
CONTINUOUS
 62
7
 10
936.970964529447
 20
162.682970207474
 11
936.970964529447
 21
154.582970207474
  0
LINE
  8
0
  6
CONTINUOUS
 62
7
 10
786.970964529447
 20
162.682970207474
 11
786.970964529447
 21
150.682970207474
  0
LINE
  8
0
  6
CONTINUOUS
 62
7
 10
936.970964529447
 20
150.682970207474
 11
786.970964529447
 21
150.682970207474
  0
LINE
  8
0
  6
CONTINUOUS
 62
7
 10
936.970964529447
 20
150.682970207474
 11
936.970964529447
 21
138.682970207474
  0
LINE
  8
0
  6
CONTINUOUS
 62
7
 10
786.970964529447
 20
150.682970207474
 11
786.970964529447
 21
141.682970207474
  0
LINE
  8
0
  6
CONTINUOUS
 62
7
 10
786.970964529447
 20
138.682970207474
 11
936.970964529447
 21
138.682970207474
  0
LINE
  8
0
  6
CONTINUOUS
 62
7
 10
786.970964529447
 20
138.682970207474
 11
786.970964529447
 21
126.682970207474
  0
LINE
  8
0
  6
CONTINUOUS
 62
7
 10
936.970964529447
 20
138.682970207474
 11
936.970964529447
 21
126.682970207474
  0
LINE
  8
0
  6
CONTINUOUS
 62
7
 10
936.970964529447
 20
126.682970207474
 11
786.970964529447
 21
126.682970207474
  0
LINE
  8
0
  6
CONTINUOUS
 62
7
 10
936.970964529447
 20
126.682970207474
 11
936.970964529447
 21
124.882970207474
  0
LINE
  8
0
  6
CONTINUOUS
 62
7
 10
786.970964529447
 20
126.682970207474
 11
786.970964529447
 21
119.182970207474
  0
LINE
  8
0
  6
CONTINUOUS
 62
7
 10
786.970964529447
 20
114.682970207474
 11
936.970964529447
 21
114.682970207474
  0
LINE
  8
0
  6
CONTINUOUS
 62
7
 10
786.970964529447
 20
114.682970207474
 11
786.970964529447
 21
102.682970207474
  0
LINE
  8
0
  6
CONTINUOUS
 62
7
 10
936.970964529447
 20
114.682970207474
 11
936.970964529447
 21
102.682970207474
  0
LINE
  8
0
  6
CONTINUOUS
 62
7
 10
513.821993690548
 20
51.6829702074739
 11
513.821993690548
 21
74.1829702074739
  0
LINE
  8
0
  6
CONTINUOUS
 62
7
 10
513.821993690548
 20
51.6829702074739
 11
552.260597189247
 21
51.6829702074739
  0
LINE
  8
0
  6
CONTINUOUS
 62
7
 10
513.821993690548
 20
74.1829702074739
 11
474.970964529447
 21
74.1829702074739
  0
LINE
  8
0
  6
CONTINUOUS
 62
7
 10
552.260597189247
 20
74.1829702074739
 11
552.260597189247
 21
51.6829702074739
  0
LINE
  8
0
  6
CONTINUOUS
 62
7
 10
552.260597189247
 20
74.1829702074739
 11
513.821993690548
 21
74.1829702074739
  0
LINE
  8
0
  6
CONTINUOUS
 62
7
 10
552.260597189247
 20
51.6829702074739
 11
656.864009989647
 21
51.6829702074739
  0
LINE
  8
0
  6
CONTINUOUS
 62
7
 10
656.864009989647
 20
74.1829702074739
 11
656.864009989647
 21
51.6829702074739
  0
LINE
  8
0
  6
CONTINUOUS
 62
7
 10
656.864009989647
 20
74.1829702074739
 11
552.260597189247
 21
74.1829702074739
  0
LINE
  8
0
  6
CONTINUOUS
 62
7
 10
656.864009989647
 20
51.6829702074739
 11
690.891626201847
 21
51.6829702074739
  0
LINE
  8
0
  6
CONTINUOUS
 62
7
 10
690.891626201847
 20
74.1829702074739
 11
690.891626201847
 21
51.6829702074739
  0
LINE
  8
0
  6
CONTINUOUS
 62
7
 10
690.891626201847
 20
74.1829702074739
 11
656.864009989647
 21
74.1829702074739
  0
LINE
  8
0
  6
CONTINUOUS
 62
7
 10
690.891626201847
 20
51.6829702074739
 11
786.970964529447
 21
51.6829702074739
  0
LINE
  8
0
  6
CENTER
 62
7
 10
800.576032691848
 20
62.4660973551739
 11
805.076032691848
 21
54.6718687212739
  0
LINE
  8
0
  6
CENTER
 62
7
 10
809.576032691848
 20
62.4660973551739
 11
805.076032691848
 21
54.6718687212739
  0
LINE
  8
0
  6
CENTER
 62
7
 10
809.576032691848
 20
62.4660973551739
 11
818.576032691848
 21
62.4660973551739
  0
LINE
  8
0
  6
CENTER
 62
7
 10
809.576032691848
 20
62.4660973551739
 11
814.076032691848
 21
54.6718687212739
  0
LINE
  8
0
  6
CENTER
 62
7
 10
818.576032691848
 20
62.4660973551739
 11
814.076032691848
 21
54.6718687212739
  0
LINE
  8
0
  6
CONTINUOUS
 62
7
 10
833.168053220548
 20
62.5479781953739
 11
842.168053220548
 21
62.5479781953739
  0
LINE
  8
0
  6
CONTINUOUS
 62
7
 10
842.168053220548
 20
62.5479781953739
 11
837.668053220548
 21
54.7537495611739
  0
LINE
  8
0
  6
CONTINUOUS
 62
7
 10
833.168053220548
 20
62.5479781953739
 11
837.668053220548
 21
54.7537495611739
  0
LINE
  8
0
  6
CENTER
 62
7
 10
842.168053220548
 20
62.5479781953739
 11
851.168053220548
 21
62.5479781953739
  0
LINE
  8
0
  6
CENTER
 62
7
 10
851.168053220548
 20
62.5479781953739
 11
846.668053220548
 21
54.7537495611739
  0
LINE
  8
0
  6
CENTER
 62
7
 10
842.168053220548
 20
62.5479781953739
 11
846.668053220548
 21
54.7537495611739
  0
LINE
  8
0
  6
CONTINUOUS
 62
7
 10
876.070167190048
 20
62.0566931550739
 11
885.070167190048
 21
62.0566931550739
  0
LINE
  8
0
  6
CONTINUOUS
 62
7
 10
885.070167190048
 20
62.0566931550739
 11
880.570167190048
 21
54.262464521174
  0
LINE
  8
0
  6
CONTINUOUS
 62
7
 10
876.070167190048
 20
62.0566931550739
 11
880.570167190048
 21
54.262464521174
  0
LINE
  8
0
  6
CONTINUOUS
 62
7
 10
913.502905111648
 20
79.7668463679738
 11
918.002905111648
 21
71.9726177337739
  0
POLYLINE
  8
0
 62
5
  6
CONTINUOUS
 10
0.0
 20
0.0
 30
0.0
 66
1
 40
0.15
 41
0.15
  0
VERTEX
  8
0
 10
911.446768176317
  20
58.2552580533858
  0
VERTEX
  8
0
 10
911.862060259343
  20
58.7518170559525
  0
VERTEX
  8
0
 10
912.268163262858
  20
59.2274447064679
  0
VERTEX
  8
0
 10
912.664547093647
  20
59.6715975124469
  0
VERTEX
  8
0
 10
913.050681658499
  20
60.0737319814045
  0
VERTEX
  8
0
 10
913.426036864201
  20
60.4233046208554
  0
VERTEX
  8
0
 10
913.790082617541
  20
60.7097719383148
  0
VERTEX
  8
0
 10
914.142288825305
  20
60.9225904412974
  0
VERTEX
  8
0
 10
914.482125394282
  20
61.0512166373181
  0
VERTEX
  8
0
 10
914.809062231259
  20
61.0851070338918
  0
VERTEX
  8
0
 10
915.12307775925
  20
61.017589563583
  0
VERTEX
  8
0
 10
915.426184466182
  20
60.8574778591532
  0
VERTEX
  8
0
 10
915.720903356207
  20
60.6174569784137
  0
VERTEX
  8
0
 10
916.009755433477
  20
60.3102119791755
  0
VERTEX
  8
0
 10
916.295261702147
  20
59.9484279192499
  0
VERTEX
  8
0
 10
916.579943166368
  20
59.5447898564479
  0
VERTEX
  8
0
 10
916.866320830295
  20
59.1119828485807
  0
VERTEX
  8
0
 10
917.156915698079
  20
58.6626919534594
  0
VERTEX
  8
0
 10
917.454248773874
  20
58.2096022288952
  0
VERTEX
  8
0
 10
917.760187312266
  20
57.7648523014157
  0
VERTEX
  8
0
 10
918.073983569576
  20
57.3383950724146
  0
VERTEX
  8
0
 10
918.39423605256
  20
56.9396370120023
  0
VERTEX
  8
0
 10
918.719543267971
  20
56.5779845902889
  0
VERTEX
  8
0
 10
919.048503722565
  20
56.2628442773846
  0
VERTEX
  8
0
 10
919.379715923097
  20
56.0036225433999
  0
VERTEX
  8
0
 10
919.71177837632
  20
55.8097258584447
  0
VERTEX
  8
0
 10
920.04328958899
  20
55.6905606926295
  0
VERTEX
  8
0
 10
920.372848067862
  20
55.6555335160644
  0
VERTEX
  8
0
 10
920.699330516631
  20
55.7107266452822
  0
VERTEX
  8
0
 10
921.022726426757
  20
55.8489257825053
  0
VERTEX
  8
0
 10
921.343303486639
  20
56.0595924763785
  0
VERTEX
  8
0
 10
921.661329384679
  20
56.3321882755469
  0
VERTEX
  8
0
 10
921.977071809276
  20
56.6561747286552
  0
VERTEX
  8
0
 10
922.290798448831
  20
57.0210133843483
  0
VERTEX
  8
0
 10
922.602776991744
  20
57.4161657912712
  0
VERTEX
  8
0
 10
922.913275126415
  20
57.8310934980688
  0
VERTEX
  8
0
 10
923.222560541245
  20
58.2552580533858
  0
SEQEND
100
AcDbEntity
  8
0
  0
TEXT
  8
0
 62
7
  6
BYLAYER
 62
7
 10
1073.65059051075
 20
78.7978969824739
 40
9
  1
仕上
  7
Font_0
 11
1073.65059051075
 21
87.7978969824739
 73
3
  0
TEXT
  8
0
 62
7
  6
BYLAYER
 62
7
 10
831.307026230848
 20
92.4509156565738
 40
9
  1
仕         上
  7
Font_0
 11
831.307026230848
 21
101.450915656574
 73
3
  0
TEXT
  8
0
 62
7
  6
BYLAYER
 62
7
 10
480.48252277398
 20
79.8268602072739
 40
9
  1
符号
  7
Font_0
 11
480.48252277398
 21
88.8268602072739
 73
3
  0
TEXT
  8
0
 62
7
  6
BYLAYER
 62
7
 10
512.329012241099
 20
80.2442103817333
 40
9
  1
年　月　日
  7
Font_0
 11
512.329012241099
 21
89.2442103817333
 73
3
  0
TEXT
  8
0
 62
7
  6
BYLAYER
 62
7
 10
606.012593441094
 20
79.5961553715739
 40
9
  1
変   更   内   容
  7
Font_0
 11
606.012593441094
 21
88.5961553715739
 73
3
  0
TEXT
  8
0
 62
7
  6
BYLAYER
 62
7
 10
745.54203416057
 20
79.6138344057738
 40
9
  1
担 当
  7
Font_0
 11
745.54203416057
 21
88.6138344057738
 73
3
  0
TEXT
  8
0
 62
7
  6
BYLAYER
 62
7
 10
607.970030191987
 20
102.106996123478
 40
10.5
  1
図  面  登  録
  7
Font_0
 11
607.970030191987
 21
112.606996123478
 73
3
  0
TEXT
  8
0
 62
7
  6
BYLAYER
 62
7
 10
840.379017992387
 20
176.961012225074
 40
7.5
  1
一  般  公  差
  7
Font_0
 11
840.379017992387
 21
184.461012225074
 73
3
  0
TEXT
  8
0
 62
7
  6
BYLAYER
 62
7
 10
793.720964529447
 20
165.002836988774
 40
7.5
  1
呼び寸法区分
  7
Font_0
 11
793.720964529447
 21
172.502836988774
 73
3
  0
TEXT
  8
0
 62
7
  6
BYLAYER
 62
7
 10
793.054701331648
 20
128.954247133574
 40
7.5
 41
0.912991905351579
  1
30をこえ120以下
  7
Font_0
 11
793.054701331648
 21
136.454247133574
 73
3
  0
TEXT
  8
0
 62
7
  6
BYLAYER
 62
7
 10
789.333136541848
 20
116.850368233274
 40
7.5
 41
0.916447634055058
  1
120をこえ315以下
  7
Font_0
 11
789.333136541848
 21
124.350368233274
 73
3
  0
TEXT
  8
0
 62
7
  6
BYLAYER
 62
7
 10
799.985105910758
 20
141.277050673874
 40
7.5
 41
0.914780928896849
  1
6をこえ30以下
  7
Font_0
 11
799.985105910758
 21
148.777050673874
 73
3
  0
TEXT
  8
0
 62
7
  6
BYLAYER
 62
7
 10
788.942498272348
 20
104.923432143974
 40
7.5
 41
0.866727160439832
  1
315をこえ1000以下
  7
Font_0
 11
788.942498272348
 21
112.423432143974
 73
3
  0
TEXT
  8
0
 62
7
  6
BYLAYER
 62
7
 10
849.559082894105
 20
165.014422892474
 40
7.5
  1
精　級
  7
Font_0
 11
849.559082894105
 21
172.514422892474
 73
3
  0
TEXT
  8
0
 62
7
  6
BYLAYER
 62
7
 10
880.155058766281
 20
165.014422892474
 40
7.5
  1
中　級
  7
Font_0
 11
880.155058766281
 21
172.514422892474
 73
3
  0
TEXT
  8
0
 62
7
  6
BYLAYER
 62
7
 10
910.426600252582
 20
165.025188025574
 40
7.5
  1
粗　級
  7
Font_0
 11
910.426600252582
 21
172.525188025574
 73
3
  0
TEXT
  8
0
 62
7
  6
BYLAYER
 62
7
 10
946.447791526091
 20
141.622087440374
 40
9
  1
図　面
  7
Font_0
 11
946.447791526091
 21
150.622087440374
 73
3
  0
TEXT
  8
0
 62
7
  6
BYLAYER
 62
7
 10
946.447791526091
 20
129.022087440374
 40
9
  1
番  号
  7
Font_0
 11
946.447791526091
 21
138.022087440374
 73
3
  0
TEXT
  8
0
 62
7
  6
BYLAYER
 62
7
 10
946.601115473652
 20
106.033420798574
 40
9
  1
製品名
  7
Font_0
 11
946.601115473652
 21
115.033420798574
 73
3
  0
TEXT
  8
0
 62
7
  6
BYLAYER
 62
7
 10
944.063182899148
 20
80.2218123276738
 40
9
  1
個数
  7
Font_0
 11
944.063182899148
 21
89.2218123276738
 73
3
  0
TEXT
  8
0
 62
7
  6
BYLAYER
 62
7
 10
942.548953656943
 20
58.1030947634523
 40
9
  1
設計
  7
Font_0
 11
942.548953656943
 21
67.1030947634523
 73
3
  0
TEXT
  8
0
 62
7
  6
BYLAYER
 62
7
 10
1031.01192862287
 20
57.7250478618885
 40
9
  1
製図
  7
Font_0
 11
1031.01192862287
 21
66.7250478618885
 73
3
  0
TEXT
  8
0
 62
7
  6
BYLAYER
 62
7
 10
1119.09685668723
 20
57.3470009603247
 40
9
  1
承認
  7
Font_0
 11
1119.09685668723
 21
66.3470009603247
 73
3
  0
TEXT
  8
0
 62
7
  6
BYLAYER
 62
7
 10
1105.58551190746
 20
135.691539130574
 40
9
  1
材料
  7
Font_0
 11
1105.58551190746
 21
144.691539130574
 73
3
  0
TEXT
  8
0
 62
7
  6
BYLAYER
 62
7
 10
1100.56277511957
 20
112.493891215574
 40
9
  1
表　面
  7
Font_0
 11
1100.56277511957
 21
121.493891215574
 73
3
  0
TEXT
  8
0
 62
7
  6
BYLAYER
 62
7
 10
1100.56277511957
 20
100.493891215574
 40
9
  1
処　理
  7
Font_0
 11
1100.56277511957
 21
109.493891215574
 73
3
  0
TEXT
  8
0
 62
7
  6
BYLAYER
 62
7
 10
1136.24653328622
 20
79.0623982146739
 40
9
  1
尺度
  7
Font_0
 11
1136.24653328622
 21
88.0623982146739
 73
3
  0
TEXT
  8
0
 62
7
  6
BYLAYER
 62
7
 10
483.755096243453
 20
57.070370688302
 40
10.5
  1
原型
  7
Font_0
 11
483.755096243453
 21
67.570370688302
 73
3
  0
TEXT
  8
0
 62
7
  6
BYLAYER
 62
7
 10
522.166667892126
 20
56.682375015083
 40
10.5
  1
機種
  7
Font_0
 11
522.166667892126
 21
67.182375015083
 73
3
  0
TEXT
  8
0
 62
7
  6
BYLAYER
 62
7
 10
662.62531186297
 20
56.4455910046293
 40
10.5
  1
番号
  7
Font_0
 11
662.62531186297
 21
66.9455910046293
 73
3
  0
TEXT
  8
0
 62
7
  6
BYLAYER
 62
7
 10
804.656951008589
 20
152.942792764574
 40
7.5
 41
0.888141089685761
  1
0.2以上6以下
  7
Font_0
 11
804.656951008589
 21
160.442792764574
 73
3
  0
TEXT
  8
0
 62
7
  6
CONTINUOUS
 62
7
 10
1008.00642192915
 20
86.0479905921738
 40
9
  1
一般
  7
Font_0
 11
1008.00642192915
 21
95.0479905921738
 73
3
  0
TEXT
  8
0
 62
7
  6
CONTINUOUS
 62
7
 10
1008.00642192915
 20
74.9479905888738
 40
9
  1
公差
  7
Font_0
 11
1008.00642192915
 21
83.9479905888738
 73
3
  0
TEXT
  8
0
 62
7
  6
BYLAYER
 62
7
 10
911.92905101636
 20
106.000624472474
 40
5.5562499999
  1
±２.０
  7
Font_0
 11
911.92905101636
 21
111.556874472374
 73
3
  0
TEXT
  8
0
 62
7
  6
BYLAYER
 62
7
 10
911.92905101636
 20
117.475218514574
 40
5.5562499999
  1
±１.２
  7
Font_0
 11
911.92905101636
 21
123.031468514474
 73
3
  0
TEXT
  8
0
 62
7
  6
BYLAYER
 62
7
 10
911.92905101636
 20
129.488372848274
 40
5.5562499999
  1
±０.８
  7
Font_0
 11
911.92905101636
 21
135.044622848174
 73
3
  0
TEXT
  8
0
 62
7
  6
BYLAYER
 62
7
 10
881.535746972226
 20
105.824020532835
 40
5.5562499999
  1
±０.８
  7
Font_0
 11
881.535746972226
 21
111.380270532735
 73
3
  0
TEXT
  8
0
 62
7
  6
BYLAYER
 62
7
 10
881.535746972226
 20
117.370524338774
 40
5.5562499999
  1
±０.５
  7
Font_0
 11
881.535746972226
 21
122.926774338674
 73
3
  0
TEXT
  8
0
 62
7
  6
BYLAYER
 62
7
 10
881.410784781435
 20
129.440099101874
 40
5.5562499999
  1
±０.３
  7
Font_0
 11
881.410784781435
 21
134.996349101774
 73
3
  0
TEXT
  8
0
 62
7
  6
BYLAYER
 62
7
 10
850.4001299936
 20
106.031703856874
 40
5.5562499999
  1
±０.３
  7
Font_0
 11
850.4001299936
 21
111.587953856774
 73
3
  0
TEXT
  8
0
 62
7
  6
BYLAYER
 62
7
 10
881.345117150174
 20
141.355291337474
 40
5.5562499999
  1
±０.２
  7
Font_0
 11
881.345117150174
 21
146.911541337374
 73
3
  0
TEXT
  8
0
 62
7
  6
BYLAYER
 62
7
 10
848.379063466655
 20
129.415662610274
 40
5.5562499999
  1
±０.１５
  7
Font_0
 11
848.379063466655
 21
134.971912610174
 73
3
  0
TEXT
  8
0
 62
7
  6
BYLAYER
 62
7
 10
851.523102753678
 20
141.404700503774
 40
5.5562499999
  1
±０.１
  7
Font_0
 11
851.523102753678
 21
146.960950503674
 73
3
  0
TEXT
  8
0
 62
7
  6
BYLAYER
 62
7
 10
850.608317035994
 20
117.463922293874
 40
5.5562499999
  1
±０.２
  7
Font_0
 11
850.608317035994
 21
123.020172293774
 73
3
  0
TEXT
  8
0
 62
7
  6
BYLAYER
 62
7
 10
912.276445906758
 20
153.007607471174
 40
5.5562499999
  1
±０.２
  7
Font_0
 11
912.276445906758
 21
158.563857471074
 73
3
  0
TEXT
  8
0
 62
7
  6
BYLAYER
 62
7
 10
881.528074293711
 20
153.020462046374
 40
5.5562499999
  1
±０.１
  7
Font_0
 11
881.528074293711
 21
158.576712046274
 73
3
  0
TEXT
  8
0
 62
7
  6
BYLAYER
 62
7
 10
848.064408670243
 20
153.065008375274
 40
5.5562499999
  1
±０.０５
  7
Font_0
 11
848.064408670243
 21
158.621258375174
 73
3
  0
TEXT
  8
0
 62
7
  6
BYLAYER
 62
7
 10
912.276445906758
 20
140.598062499674
 40
5.5562499999
  1
±０.５
  7
Font_0
 11
912.276445906758
 21
146.154312499574
 73
3
  0
TEXT
  8
0
 62
7
  6
BYLAYER
 62
7
 10
975.787266711388
 20
163.520279771613
 40
11.1125000001
  1
株式会社
  7
Font_0
 11
975.787266711388
 21
174.632779771713
 73
3
  0
LINE
  8
0
  6
CONTINUOUS
 62
7
 10
1108.90892682977
 20
90.7731696146501
 11
1108.90892682977
 21
77.2767438536501
  0
LINE
  8
0
  6
CONTINUOUS
 62
7
 10
1108.90892682977
 20
77.2767438536501
 11
1121.12129839427
 21
77.2767438536501
  0
LINE
  8
0
  6
CONTINUOUS
 62
7
 10
1121.12129839427
 20
77.2767438536501
 11
1121.12129839427
 21
90.7731696146501
  0
LINE
  8
0
  6
CONTINUOUS
 62
7
 10
1121.12129839427
 20
90.7731696146501
 11
1108.90892682977
 21
90.7731696146501
  0
LINE
  8
0
  6
CONTINUOUS
 62
7
 10
1108.90892682977
 20
90.7731696146501
 11
1121.12129839427
 21
77.2767438536501
  0
LINE
  8
0
  6
CONTINUOUS
 62
7
 10
1108.90892682977
 20
77.2767438536501
 11
1121.12129839427
 21
90.7731696146501
  0
TEXT
  8
0
 62
7
  6
BYLAYER
 62
7
 10
745.834597409678
 20
103.021869625262
 40
10.5
  1
大塚
  7
Font_0
 11
745.834597409678
 21
113.521869625262
 73
3
  0
TEXT
  8
0
 62
7
  6
BYLAYER
 62
7
 10
877.362076176747
 20
80.6730646770739
 40
6.3500000001
  1
25
  7
Font_0
 11
877.362076176747
 21
87.0230646771739
 73
3
  0
TEXT
  8
0
 62
7
  6
BYLAYER
 62
7
 10
913.336430866648
 20
81.4706909169738
 40
6.3500000001
  1
100
  7
Font_0
 11
913.336430866648
 21
87.8206909170738
 73
3
  0
TEXT
  8
0
 62
7
  6
BYLAYER
 62
7
 10
837.303943621648
 20
80.7560609892739
 40
6.3500000001
  1
6.3
  7
Font_0
 11
837.303943621648
 21
87.1060609893739
 73
3
  0
TEXT
  8
0
 62
7
  6
CONTINUOUS
 62
7
 10
798.357144792148
 20
80.1548106747738
 40
6.3500000001
  1
1
  7
Font_0
 11
798.357144792148
 21
86.5048106748738
 73
3
  0
TEXT
  8
0
 62
7
  6
CONTINUOUS
 62
7
 10
802.590478074448
 20
80.1548106747738
 40
6.3500000001
  1
.6
  7
Font_0
 11
802.590478074448
 21
86.5048106748738
 73
3
  0
TEXT
  8
0
 62
7
  6
BYLAYER
 62
7
 10
983.419824382573
 20
78.7606016459023
 40
10.5
  1
1
  7
Font_0
 11
983.419824382573
 21
89.2606016459023
 73
3
  0
TEXT
  8
0
 62
7
  6
BYLAYER
 62
7
 10
1175.03869209915
 20
78.1283711491377
 40
10.5
  1
1/3
  7
Font_0
 11
1175.03869209915
 21
88.6283711491377
 73
3
  0
TEXT
  8
0
 62
7
  6
BYLAYER
 62
7
 10
1022.9697248423
 20
162.395090552223
 40
15.8750000001
  1
ケンコー・トキナー
  7
Font_0
 11
1022.9697248423
 21
178.270090552323
 73
3
  0
LINE
  8
0
  6
CONTINUOUS
 62
250
 10
875.970964529548
 20
174.682970207474
 11
845.470964529447
 21
102.682970207474
  0
LINE
  8
0
  6
CONTINUOUS
 62
250
 10
936.970964529447
 20
174.682970207474
 11
906.470964529348
 21
102.682970207474
  0
LINE
  8
LAYER11
  6
DASHED
 62
3
 10
899.154893113086
 20
304.945663452829
 11
904.787020113085
 21
295.96656845282
  0
LINE
  8
LAYER11
  6
DASHED
 62
3
 10
919.893206113086
 20
304.945663452829
 11
914.261080113085
 21
295.96656845282
  0
LINE
  8
LAYER11
  6
DASHED
 62
3
 10
899.154893113086
 20
330.006077452829
 11
904.787020113085
 21
338.985172452843
  0
LINE
  8
LAYER11
  6
DASHED
 62
3
 10
919.893206113086
 20
330.006077452829
 11
914.261080113085
 21
338.985172452843
  0
LINE
  8
LAYER11
  6
CONTINUOUS
 62
3
 10
901.274050113085
 20
326.47587045283
 11
901.274050113085
 21
308.47587045283
  0
LINE
  8
LAYER11
  6
DASHED
 62
3
 10
900.274050113085
 20
308.47587045283
 11
900.274050113085
 21
326.47587045283
  0
LINE
  8
LAYER11
  6
DASHED
 62
3
 10
898.274050113085
 20
327.17190245284
 11
898.274050113085
 21
307.779838452841
  0
LINE
  8
LAYER11
  6
DASHED
 62
3
 10
918.774050113085
 20
308.47587045283
 11
918.774050113085
 21
326.47587045283
  0
LINE
  8
LAYER11
  6
DASHED
 62
3
 10
920.774050113085
 20
327.17190245284
 11
920.774050113085
 21
307.779838452841
  0
LINE
  8
LAYER11
  6
DASHED
 62
3
 10
917.824050113084
 20
323.275870452833
 11
917.824050113084
 21
311.67587045283
  0
LINE
  8
LAYER11
  6
CONTINUOUS
 62
3
 10
901.274050113085
 20
326.47587045283
 11
901.274050113085
 21
308.47587045283
  0
LINE
  8
LAYER11
  6
CONTINUOUS
 62
3
 10
908.524050113085
 20
310.22587045283
 11
909.524050113085
 21
309.47587045283
  0
LINE
  8
LAYER11
  6
CONTINUOUS
 62
3
 10
909.524050113085
 20
311.47587045283
 11
909.524050113085
 21
309.47587045283
  0
LINE
  8
LAYER11
  6
CONTINUOUS
 62
3
 10
904.524050113085
 20
309.47587045283
 11
905.524050113085
 21
310.22587045283
  0
LINE
  8
LAYER11
  6
CONTINUOUS
 62
3
 10
904.524050113085
 20
311.47587045283
 11
904.524050113085
 21
309.47587045283
  0
LINE
  8
LAYER11
  6
CONTINUOUS
 62
3
 10
909.524050113085
 20
309.47587045283
 11
904.524050113085
 21
309.47587045283
  0
LINE
  8
LAYER11
  6
CONTINUOUS
 62
3
 10
909.524050113085
 20
311.47587045283
 11
904.524050113085
 21
311.47587045283
  0
LINE
  8
LAYER11
  6
CONTINUOUS
 62
3
 10
908.524050113085
 20
310.22587045283
 11
905.524050113085
 21
310.22587045283
  0
LINE
  8
LAYER11
  6
CONTINUOUS
 62
3
 10
908.524050113085
 20
310.72587045283
 11
905.524050113085
 21
310.72587045283
  0
LINE
  8
LAYER11
  6
CONTINUOUS
 62
3
 10
908.524050113085
 20
310.72587045283
 11
909.524050113085
 21
311.47587045283
  0
LINE
  8
LAYER11
  6
CONTINUOUS
 62
3
 10
908.524050113085
 20
310.72587045283
 11
908.524050113085
 21
310.22587045283
  0
LINE
  8
LAYER11
  6
CONTINUOUS
 62
3
 10
905.524050113085
 20
310.72587045283
 11
904.524050113085
 21
311.47587045283
  0
LINE
  8
LAYER11
  6
CONTINUOUS
 62
3
 10
905.524050113085
 20
310.72587045283
 11
905.524050113085
 21
310.22587045283
  0
LINE
  8
LAYER11
  6
CONTINUOUS
 62
3
 10
917.824050113084
 20
323.275870452833
 11
911.824050113084
 21
329.775870452833
  0
LINE
  8
LAYER11
  6
CONTINUOUS
 62
3
 10
913.524050113085
 20
317.72587045283
 11
910.524050113085
 21
317.72587045283
  0
LINE
  8
LAYER11
  6
CONTINUOUS
 62
3
 10
913.524050113085
 20
317.22587045283
 11
910.524050113085
 21
317.22587045283
  0
LINE
  8
LAYER11
  6
CONTINUOUS
 62
3
 10
914.524050113085
 20
316.47587045283
 11
909.524050113085
 21
316.47587045283
  0
LINE
  8
LAYER11
  6
CONTINUOUS
 62
3
 10
914.524050113085
 20
318.47587045283
 11
909.524050113085
 21
318.47587045283
  0
LINE
  8
LAYER11
  6
CONTINUOUS
 62
3
 10
913.524050113085
 20
317.72587045283
 11
914.524050113085
 21
318.47587045283
  0
LINE
  8
LAYER11
  6
CONTINUOUS
 62
3
 10
914.524050113085
 20
318.47587045283
 11
914.524050113085
 21
316.47587045283
  0
LINE
  8
LAYER11
  6
CONTINUOUS
 62
3
 10
913.524050113085
 20
317.22587045283
 11
914.524050113085
 21
316.47587045283
  0
LINE
  8
LAYER11
  6
CONTINUOUS
 62
3
 10
913.524050113085
 20
317.72587045283
 11
913.524050113085
 21
317.22587045283
  0
LINE
  8
LAYER11
  6
CONTINUOUS
 62
3
 10
910.524050113085
 20
317.72587045283
 11
909.524050113085
 21
318.47587045283
  0
LINE
  8
LAYER11
  6
CONTINUOUS
 62
3
 10
909.524050113085
 20
318.47587045283
 11
909.524050113085
 21
316.47587045283
  0
LINE
  8
LAYER11
  6
CONTINUOUS
 62
3
 10
909.524050113085
 20
316.47587045283
 11
910.524050113085
 21
317.22587045283
  0
LINE
  8
LAYER11
  6
CONTINUOUS
 62
3
 10
910.524050113085
 20
317.72587045283
 11
910.524050113085
 21
317.22587045283
  0
LINE
  8
LAYER11
  6
CONTINUOUS
 62
3
 10
909.524050113085
 20
325.47587045283
 11
904.524050113085
 21
325.47587045283
  0
LINE
  8
LAYER11
  6
CONTINUOUS
 62
3
 10
909.524050113085
 20
323.47587045283
 11
904.524050113085
 21
323.47587045283
  0
LINE
  8
LAYER11
  6
CONTINUOUS
 62
3
 10
908.524050113085
 20
324.22587045283
 11
905.524050113085
 21
324.22587045283
  0
LINE
  8
LAYER11
  6
CONTINUOUS
 62
3
 10
908.524050113085
 20
324.72587045283
 11
905.524050113085
 21
324.72587045283
  0
LINE
  8
LAYER11
  6
CONTINUOUS
 62
3
 10
908.524050113085
 20
324.22587045283
 11
909.524050113085
 21
323.47587045283
  0
LINE
  8
LAYER11
  6
CONTINUOUS
 62
3
 10
909.524050113085
 20
325.47587045283
 11
909.524050113085
 21
323.47587045283
  0
LINE
  8
LAYER11
  6
CONTINUOUS
 62
3
 10
908.524050113085
 20
324.72587045283
 11
909.524050113085
 21
325.47587045283
  0
LINE
  8
LAYER11
  6
CONTINUOUS
 62
3
 10
908.524050113085
 20
324.72587045283
 11
908.524050113085
 21
324.22587045283
  0
LINE
  8
LAYER11
  6
CONTINUOUS
 62
3
 10
904.524050113085
 20
323.47587045283
 11
905.524050113085
 21
324.22587045283
  0
LINE
  8
LAYER11
  6
CONTINUOUS
 62
3
 10
904.524050113085
 20
325.47587045283
 11
904.524050113085
 21
323.47587045283
  0
LINE
  8
LAYER11
  6
CONTINUOUS
 62
3
 10
905.524050113085
 20
324.72587045283
 11
904.524050113085
 21
325.47587045283
  0
LINE
  8
LAYER11
  6
CONTINUOUS
 62
3
 10
905.524050113085
 20
324.72587045283
 11
905.524050113085
 21
324.22587045283
  0
LINE
  8
LAYER11
  6
CONTINUOUS
 62
3
 10
911.824050113084
 20
329.775870452833
 11
904.574050113084
 21
329.775870452833
  0
LINE
  8
LAYER11
  6
DASHED
 62
3
 10
905.274050113085
 20
331.47587045283
 11
913.774050113085
 21
331.47587045283
  0
LINE
  8
LAYER11
  6
DASHED
 62
3
 10
913.774050113085
 20
303.47587045283
 11
905.274050113085
 21
303.47587045283
  0
LINE
  8
LAYER11
  6
CONTINUOUS
 62
3
 10
911.824050113084
 20
305.17587045283
 11
904.574050113084
 21
305.17587045283
  0
LINE
  8
LAYER11
  6
CONTINUOUS
 62
3
 10
911.824050113084
 20
305.17587045283
 11
917.824050113084
 21
311.67587045283
  0
LINE
  8
LAYER11
  6
CONTINUOUS
 62
3
 10
899.154893113086
 20
304.945663452829
 11
904.787020113085
 21
295.96656845282
  0
LINE
  8
LAYER11
  6
CONTINUOUS
 62
3
 10
919.893206113086
 20
304.945663452829
 11
914.261080113085
 21
295.96656845282
  0
LINE
  8
LAYER11
  6
CONTINUOUS
 62
3
 10
899.154893113086
 20
330.006077452829
 11
904.787020113085
 21
338.985172452843
  0
LINE
  8
LAYER11
  6
DASHED
 62
3
 10
919.893206113086
 20
330.006077452829
 11
914.261080113085
 21
338.985172452843
  0
LINE
  8
LAYER11
  6
CONTINUOUS
 62
3
 10
901.274050113085
 20
326.47587045283
 11
901.274050113085
 21
308.47587045283
  0
LINE
  8
LAYER11
  6
CONTINUOUS
 62
3
 10
900.274050113085
 20
308.47587045283
 11
900.274050113085
 21
326.47587045283
  0
LINE
  8
LAYER11
  6
CONTINUOUS
 62
3
 10
898.274050113085
 20
327.17190245284
 11
898.274050113085
 21
307.779838452841
  0
LINE
  8
LAYER11
  6
CONTINUOUS
 62
3
 10
918.774050113085
 20
308.47587045283
 11
918.774050113085
 21
326.47587045283
  0
LINE
  8
LAYER11
  6
CONTINUOUS
 62
3
 10
920.774050113085
 20
327.17190245284
 11
920.774050113085
 21
307.779838452841
  0
LINE
  8
LAYER11
  6
CONTINUOUS
 62
3
 10
917.824050113084
 20
323.275870452833
 11
917.824050113084
 21
311.67587045283
  0
LINE
  8
LAYER11
  6
CONTINUOUS
 62
3
 10
901.274050113085
 20
326.47587045283
 11
901.274050113085
 21
308.47587045283
  0
LINE
  8
LAYER11
  6
CONTINUOUS
 62
3
 10
908.524050113085
 20
310.22587045283
 11
909.524050113085
 21
309.47587045283
  0
LINE
  8
LAYER11
  6
CONTINUOUS
 62
3
 10
909.524050113085
 20
311.47587045283
 11
909.524050113085
 21
309.47587045283
  0
LINE
  8
LAYER11
  6
CONTINUOUS
 62
3
 10
904.524050113085
 20
309.47587045283
 11
905.524050113085
 21
310.22587045283
  0
LINE
  8
LAYER11
  6
CONTINUOUS
 62
3
 10
904.524050113085
 20
311.47587045283
 11
904.524050113085
 21
309.47587045283
  0
LINE
  8
LAYER11
  6
CONTINUOUS
 62
3
 10
909.524050113085
 20
309.47587045283
 11
904.524050113085
 21
309.47587045283
  0
LINE
  8
LAYER11
  6
CONTINUOUS
 62
3
 10
909.524050113085
 20
311.47587045283
 11
904.524050113085
 21
311.47587045283
  0
LINE
  8
LAYER11
  6
CONTINUOUS
 62
3
 10
908.524050113085
 20
310.22587045283
 11
905.524050113085
 21
310.22587045283
  0
LINE
  8
LAYER11
  6
CONTINUOUS
 62
3
 10
908.524050113085
 20
310.72587045283
 11
905.524050113085
 21
310.72587045283
  0
LINE
  8
LAYER11
  6
CONTINUOUS
 62
3
 10
908.524050113085
 20
310.72587045283
 11
909.524050113085
 21
311.47587045283
  0
LINE
  8
LAYER11
  6
CONTINUOUS
 62
3
 10
908.524050113085
 20
310.72587045283
 11
908.524050113085
 21
310.22587045283
  0
LINE
  8
LAYER11
  6
CONTINUOUS
 62
3
 10
905.524050113085
 20
310.72587045283
 11
904.524050113085
 21
311.47587045283
  0
LINE
  8
LAYER11
  6
CONTINUOUS
 62
3
 10
905.524050113085
 20
310.72587045283
 11
905.524050113085
 21
310.22587045283
  0
LINE
  8
LAYER11
  6
DASHED
 62
3
 10
917.824050113084
 20
323.275870452833
 11
911.824050113084
 21
329.775870452833
  0
LINE
  8
LAYER11
  6
CONTINUOUS
 62
3
 10
913.524050113085
 20
317.72587045283
 11
910.524050113085
 21
317.72587045283
  0
LINE
  8
LAYER11
  6
CONTINUOUS
 62
3
 10
913.524050113085
 20
317.22587045283
 11
910.524050113085
 21
317.22587045283
  0
LINE
  8
LAYER11
  6
CONTINUOUS
 62
3
 10
914.524050113085
 20
316.47587045283
 11
909.524050113085
 21
316.47587045283
  0
LINE
  8
LAYER11
  6
CONTINUOUS
 62
3
 10
914.524050113085
 20
318.47587045283
 11
909.524050113085
 21
318.47587045283
  0
LINE
  8
LAYER11
  6
CONTINUOUS
 62
3
 10
913.524050113085
 20
317.72587045283
 11
914.524050113085
 21
318.47587045283
  0
LINE
  8
LAYER11
  6
CONTINUOUS
 62
3
 10
914.524050113085
 20
318.47587045283
 11
914.524050113085
 21
316.47587045283
  0
LINE
  8
LAYER11
  6
CONTINUOUS
 62
3
 10
913.524050113085
 20
317.22587045283
 11
914.524050113085
 21
316.47587045283
  0
LINE
  8
LAYER11
  6
CONTINUOUS
 62
3
 10
913.524050113085
 20
317.72587045283
 11
913.524050113085
 21
317.22587045283
  0
LINE
  8
LAYER11
  6
CONTINUOUS
 62
3
 10
910.524050113085
 20
317.72587045283
 11
909.524050113085
 21
318.47587045283
  0
LINE
  8
LAYER11
  6
CONTINUOUS
 62
3
 10
909.524050113085
 20
318.47587045283
 11
909.524050113085
 21
316.47587045283
  0
LINE
  8
LAYER11
  6
CONTINUOUS
 62
3
 10
909.524050113085
 20
316.47587045283
 11
910.524050113085
 21
317.22587045283
  0
LINE
  8
LAYER11
  6
CONTINUOUS
 62
3
 10
910.524050113085
 20
317.72587045283
 11
910.524050113085
 21
317.22587045283
  0
LINE
  8
LAYER11
  6
CONTINUOUS
 62
3
 10
909.524050113085
 20
325.47587045283
 11
904.524050113085
 21
325.47587045283
  0
LINE
  8
LAYER11
  6
CONTINUOUS
 62
3
 10
909.524050113085
 20
323.47587045283
 11
904.524050113085
 21
323.47587045283
  0
LINE
  8
LAYER11
  6
CONTINUOUS
 62
3
 10
908.524050113085
 20
324.22587045283
 11
905.524050113085
 21
324.22587045283
  0
LINE
  8
LAYER11
  6
CONTINUOUS
 62
3
 10
908.524050113085
 20
324.72587045283
 11
905.524050113085
 21
324.72587045283
  0
LINE
  8
LAYER11
  6
CONTINUOUS
 62
3
 10
908.524050113085
 20
324.22587045283
 11
909.524050113085
 21
323.47587045283
  0
LINE
  8
LAYER11
  6
CONTINUOUS
 62
3
 10
909.524050113085
 20
325.47587045283
 11
909.524050113085
 21
323.47587045283
  0
LINE
  8
LAYER11
  6
CONTINUOUS
 62
3
 10
908.524050113085
 20
324.72587045283
 11
909.524050113085
 21
325.47587045283
  0
LINE
  8
LAYER11
  6
CONTINUOUS
 62
3
 10
908.524050113085
 20
324.72587045283
 11
908.524050113085
 21
324.22587045283
  0
LINE
  8
LAYER11
  6
CONTINUOUS
 62
3
 10
904.524050113085
 20
323.47587045283
 11
905.524050113085
 21
324.22587045283
  0
LINE
  8
LAYER11
  6
CONTINUOUS
 62
3
 10
904.524050113085
 20
325.47587045283
 11
904.524050113085
 21
323.47587045283
  0
LINE
  8
LAYER11
  6
CONTINUOUS
 62
3
 10
905.524050113085
 20
324.72587045283
 11
904.524050113085
 21
325.47587045283
  0
LINE
  8
LAYER11
  6
CONTINUOUS
 62
3
 10
905.524050113085
 20
324.72587045283
 11
905.524050113085
 21
324.22587045283
  0
LINE
  8
LAYER11
  6
DASHED
 62
3
 10
911.824050113084
 20
329.775870452833
 11
904.574050113084
 21
329.775870452833
  0
LINE
  8
LAYER11
  6
DASHED
 62
3
 10
905.274050113085
 20
331.47587045283
 11
913.774050113085
 21
331.47587045283
  0
LINE
  8
LAYER11
  6
DASHED
 62
3
 10
913.774050113085
 20
303.47587045283
 11
905.274050113085
 21
303.47587045283
  0
LINE
  8
LAYER11
  6
DASHED
 62
3
 10
911.824050113084
 20
305.17587045283
 11
904.574050113084
 21
305.17587045283
  0
LINE
  8
LAYER11
  6
DASHED
 62
3
 10
911.824050113084
 20
305.17587045283
 11
917.824050113084
 21
311.67587045283
  0
ARC
  8
LAYER11
  6
DASHED
 62
3
 10
913.774050113085
 20
308.47587045283
 40
5
 50
270
 51
360
  0
ARC
  8
LAYER11
  6
DASHED
 62
3
 10
905.274050113085
 20
308.47587045283
 40
5
 50
180
 51
270
  0
ARC
  8
LAYER11
  6
DASHED
 62
3
 10
905.274050113085
 20
326.47587045283
 40
5
 50
90
 51
180
  0
ARC
  8
LAYER11
  6
DASHED
 62
3
 10
913.774050113085
 20
326.47587045283
 40
5
 50
360
 51
450
  0
ARC
  8
LAYER11
  6
DASHED
 62
3
 10
909.524050113085
 20
299.22587045283
 40
5.74999999999445
 50
214.529819000059
 51
325.470181000003
  0
ARC
  8
LAYER11
  6
DASHED
 62
3
 10
909.524050113085
 20
335.72587045283
 40
5.75000000000227
 50
394.529818999981
 51
505.470180999956
  0
ARC
  8
LAYER11
  6
DASHED
 62
3
 10
903.274050113085
 20
327.17190245284
 40
4.99999999999399
 50
145.4701810001
 51
180
  0
ARC
  8
LAYER11
  6
DASHED
 62
3
 10
903.274050113085
 20
307.779838452841
 40
5
 50
180
 51
214.529819000062
  0
ARC
  8
LAYER11
  6
DASHED
 62
3
 10
915.774050113085
 20
327.17190245284
 40
5
 50
360
 51
394.5298189999
  0
ARC
  8
LAYER11
  6
DASHED
 62
3
 10
915.774050113085
 20
307.779838452841
 40
5.00000000000413
 50
325.470180999938
 51
360
  0
ARC
  8
LAYER11
  6
CONTINUOUS
 62
3
 10
904.574050113084
 20
326.47587045283
 40
3.30000000000314
 50
90
 51
180
  0
ARC
  8
LAYER11
  6
CONTINUOUS
 62
3
 10
904.574050113084
 20
308.47587045283
 40
3.29999999999916
 50
180
 51
270
  0
ARC
  8
LAYER11
  6
DASHED
 62
3
 10
913.774050113085
 20
308.47587045283
 40
5
 50
270
 51
360
  0
ARC
  8
LAYER11
  6
DASHED
 62
3
 10
905.274050113085
 20
308.47587045283
 40
5
 50
180
 51
270
  0
ARC
  8
LAYER11
  6
DASHED
 62
3
 10
905.274050113085
 20
326.47587045283
 40
5
 50
90
 51
180
  0
ARC
  8
LAYER11
  6
DASHED
 62
3
 10
913.774050113085
 20
326.47587045283
 40
5
 50
360
 51
450
  0
ARC
  8
LAYER11
  6
CONTINUOUS
 62
3
 10
909.524050113085
 20
299.22587045283
 40
5.74999999999445
 50
214.529819000059
 51
325.470181000003
  0
ARC
  8
LAYER11
  6
CONTINUOUS
 62
3
 10
909.524050113085
 20
335.72587045283
 40
5.75000000000227
 50
394.529818999981
 51
505.470180999956
  0
ARC
  8
LAYER11
  6
CONTINUOUS
 62
3
 10
903.274050113085
 20
327.17190245284
 40
4.99999999999399
 50
145.4701810001
 51
180
  0
ARC
  8
LAYER11
  6
CONTINUOUS
 62
3
 10
903.274050113085
 20
307.779838452841
 40
5
 50
180
 51
214.529819000062
  0
ARC
  8
LAYER11
  6
DASHED
 62
3
 10
915.774050113085
 20
327.17190245284
 40
5
 50
360
 51
394.5298189999
  0
ARC
  8
LAYER11
  6
CONTINUOUS
 62
3
 10
915.774050113085
 20
307.779838452841
 40
5.00000000000413
 50
325.470180999938
 51
360
  0
ARC
  8
LAYER11
  6
CONTINUOUS
 62
3
 10
904.574050113084
 20
326.47587045283
 40
3.30000000000314
 50
90
 51
180
  0
ARC
  8
LAYER11
  6
DASHED
 62
3
 10
904.574050113084
 20
308.47587045283
 40
3.29999999999916
 50
180
 51
270
  0
CIRCLE
  8
LAYER11
  6
CONTINUOUS
 62
3
 10
909.524050113085
 20
297.47587045283
 40
3
  0
CIRCLE
  8
LAYER11
  6
CONTINUOUS
 62
3
 10
909.524050113085
 20
337.47587045283
 40
3
  0
CIRCLE
  8
LAYER11
  6
CONTINUOUS
 62
3
 10
909.524050113085
 20
297.47587045283
 40
3
  0
CIRCLE
  8
LAYER11
  6
CONTINUOUS
 62
3
 10
909.524050113085
 20
337.47587045283
 40
3
  0
LINE
  8
DIMENSION
  6
BYLAYER
 62
250
 10
1066.02405011309
 20
414.811503435971
 11
1066.02405011309
 21
278.81150343597
  0
LINE
  8
DIMENSION
  6
BYLAYER
 62
250
 10
895.024050113084
 20
414.811503435971
 11
895.024050113086
 21
278.81150343597
  0
ARC
  8
DIMENSION
  6
BYLAYER
 62
250
 10
896.024050113086
 20
278.81150343597
 40
1.00000000000003
 50
180
 51
270
  0
ARC
  8
DIMENSION
  6
BYLAYER
 62
250
 10
1065.02405011309
 20
278.81150343597
 40
0.999999999999943
 50
270
 51
0
  0
LINE
  8
DIMENSION
  6
BYLAYER
 62
250
 10
896.024050113086
 20
277.81150343597
 11
1065.02405011309
 21
277.81150343597
  0
LINE
  8
DIMENSION
  6
BYLAYER
 62
250
 10
1065.02405011309
 20
415.81150343597
 11
896.024050113084
 21
415.81150343597
  0
ARC
  8
DIMENSION
  6
BYLAYER
 62
250
 10
896.024050113084
 20
414.811503435971
 40
1.00000000000003
 50
90
 51
180
  0
ARC
  8
DIMENSION
  6
BYLAYER
 62
250
 10
1065.02405011309
 20
414.811503435971
 40
0.999999999999943
 50
0
 51
90
  0
ARC
  8
DIMENSION
  6
BYLAYER
 62
250
 10
909.524050113086
 20
368.31150343597
 40
6.60000000000005
 50
10.4318171409082
 51
349.568182859092
  0
CIRCLE
  8
DIMENSION
  6
BYLAYER
 62
250
 10
909.524050113086
 20
350.31150343597
 40
1.70000000000007
  0
ARC
  8
DIMENSION
  6
BYLAYER
 62
250
 10
916.124050113086
 20
368.31150343597
 40
1.20000000000002
 50
264.784091429538
 51
95.2159085704494
  0
CIRCLE
  8
DIMENSION
  6
BYLAYER
 62
250
 10
964.024050113086
 20
328.31150343597
 40
38
  0
CIRCLE
  8
DIMENSION
  6
BYLAYER
 62
250
 10
928.274050113086
 20
364.06150343597
 40
2.20000000000005
  0
CIRCLE
  8
DIMENSION
  6
BYLAYER
 62
250
 10
999.774050113086
 20
292.56150343597
 40
2.20000000000005
  0
CIRCLE
  8
DIMENSION
  6
BYLAYER
 62
250
 10
928.274050113086
 20
292.56150343597
 40
2.20000000000005
  0
CIRCLE
  8
DIMENSION
  6
BYLAYER
 62
250
 10
999.774050113086
 20
364.06150343597
 40
2.20000000000005
  0
LINE
  8
DIMENSION
  6
CENTER
 62
250
 10
1004.52305011309
 20
368.81150343597
 11
1004.52405011309
 21
368.81050343597
  0
LINE
  8
DIMENSION
  6
BYLAYER
 62
250
 10
367.872873397998
 20
415.81150343597
 11
198.872873397998
 21
415.81150343597
  0
LINE
  8
DIMENSION
  6
BYLAYER
 62
250
 10
197.872873397998
 20
414.81150343597
 11
197.872873397998
 21
278.81150343597
  0
LINE
  8
DIMENSION
  6
BYLAYER
 62
250
 10
368.872873397998
 20
414.81150343597
 11
368.872873397998
 21
278.81150343597
  0
LINE
  8
DIMENSION
  6
BYLAYER
 62
250
 10
198.872873397998
 20
277.81150343597
 11
367.872873397998
 21
277.81150343597
  0
ARC
  8
DIMENSION
  6
BYLAYER
 62
250
 10
367.872873397998
 20
414.81150343597
 40
0.999999999999986
 50
-2.44266599536402E-12
 51
89.9999999999976
  0
ARC
  8
DIMENSION
  6
BYLAYER
 62
250
 10
198.872873397998
 20
414.81150343597
 40
0.999999999999986
 50
90
 51
180
  0
ARC
  8
DIMENSION
  6
BYLAYER
 62
250
 10
367.872873397998
 20
278.81150343597
 40
0.999999999999986
 50
270
 51
0
  0
ARC
  8
DIMENSION
  6
BYLAYER
 62
250
 10
198.872873397998
 20
278.81150343597
 40
0.999999999999986
 50
180
 51
270
  0
LINE
  8
DIMENSION
  6
BYLAYER
 62
250
 10
261.322873397999
 20
295.91150343597
 11
280.422873397998
 21
295.91150343597
  0
LINE
  8
DIMENSION
  6
BYLAYER
 62
250
 10
261.322873397999
 20
308.71150343597
 11
280.422873397998
 21
308.71150343597
  0
LINE
  8
DIMENSION
  6
BYLAYER
 62
250
 10
261.322873397999
 20
308.71150343597
 11
261.322873397999
 21
295.91150343597
  0
LINE
  8
DIMENSION
  6
BYLAYER
 62
250
 10
280.422873397998
 20
308.71150343597
 11
280.422873397998
 21
295.91150343597
  0
LINE
  8
DIMENSION
  6
BYLAYER
 62
250
 10
261.872873397999
 20
326.91150343597
 11
261.872873397999
 21
318.71150343597
  0
LINE
  8
DIMENSION
  6
BYLAYER
 62
250
 10
269.872873397999
 20
326.91150343597
 11
269.872873397998
 21
318.71150343597
  0
LINE
  8
DIMENSION
  6
BYLAYER
 62
250
 10
271.872873397999
 20
326.91150343597
 11
271.872873397999
 21
318.71150343597
  0
LINE
  8
DIMENSION
  6
BYLAYER
 62
250
 10
279.872873397999
 20
326.91150343597
 11
279.872873397998
 21
318.71150343597
  0
LINE
  8
DIMENSION
  6
BYLAYER
 62
250
 10
261.872873397998
 20
318.71150343597
 11
269.872873397999
 21
318.71150343597
  0
LINE
  8
DIMENSION
  6
BYLAYER
 62
250
 10
271.872873397999
 20
318.71150343597
 11
279.872873397999
 21
318.71150343597
  0
LINE
  8
DIMENSION
  6
BYLAYER
 62
250
 10
261.872873397998
 20
326.91150343597
 11
269.872873397999
 21
326.91150343597
  0
LINE
  8
DIMENSION
  6
BYLAYER
 62
250
 10
271.872873397999
 20
326.91150343597
 11
279.872873397999
 21
326.91150343597
  0
LINE
  8
シリズム2
  6
BYLAYER
 62
250
 10
197.842543033739
 20
277.81150343597
 11
197.842543033739
 21
415.81150343597
  0
LINE
  8
シリズム2
  6
BYLAYER
 62
250
 10
368.877118682803
 20
277.81150343597
 11
368.877118682803
 21
415.81150343597
  0
LINE
  8
シリズム2
  6
BYLAYER
 62
250
 10
1066.02405011309
 20
415.81150343597
 11
895.024050113084
 21
415.81150343597
  0
LINE
  8
シリズム2
  6
BYLAYER
 62
250
 10
195.842543033737
 20
277.81150343597
 11
195.842543033737
 21
417.81150343597
  0
LINE
  8
シリズム2
  6
BYLAYER
 62
250
 10
1066.02405011309
 20
417.811503435971
 11
895.024050113084
 21
417.811503435971
  0
LINE
  8
シリズム2
  6
BYLAYER
 62
250
 10
370.877118682802
 20
277.81150343597
 11
370.877118682802
 21
417.81150343597
  0
LINE
  8
シリズム2
  6
BYLAYER
 62
250
 10
195.842543033737
 20
417.81150343597
 11
370.877118682802
 21
417.81150343597
  0
LINE
  8
シリズム2
  6
BYLAYER
 62
250
 10
197.842543033739
 20
415.81150343597
 11
368.877118682803
 21
415.81150343597
  0
LINE
  8
シリズム2
  6
BYLAYER
 62
250
 10
195.842543033737
 20
277.81150343597
 11
370.877118682802
 21
277.81150343597
  0
LINE
  8
シリズム2
  6
BYLAYER
 62
250
 10
893.024050113085
 20
277.81150343597
 11
893.024050113085
 21
415.81150343597
  0
LINE
  8
シリズム2
  6
BYLAYER
 62
250
 10
895.024050113084
 20
277.81150343597
 11
895.024050113084
 21
415.81150343597
  0
LINE
  8
シリズム2
  6
BYLAYER
 62
250
 10
1066.02405011309
 20
277.81150343597
 11
1066.02405011309
 21
415.81150343597
  0
LINE
  8
シリズム2
  6
BYLAYER
 62
250
 10
1068.02405011309
 20
277.81150343597
 11
1068.02405011309
 21
415.81150343597
  0
ARC
  8
シリズム2
  6
BYLAYER
 62
250
 10
1066.02405011309
 20
415.81150343597
 40
2.00000000000006
 50
0
 51
90
  0
LINE
  8
0
  6
BYLAYER
 62
250
 10
1066.02405011309
 20
277.81150343597
 11
1068.02405011309
 21
277.81150343597
  0
LINE
  8
0
  6
BYLAYER
 62
250
 10
893.024050113085
 20
277.81150343597
 11
895.024050113084
 21
277.81150343597
  0
ARC
  8
シリズム2
  6
BYLAYER
 62
250
 10
895.024050113084
 20
415.81150343597
 40
1.99999999999997
 50
90
 51
180
  0
LINE
  8
DIMENSION
  6
BYLAYER
 62
250
 10
261.322873397999
 20
295.91150343597
 11
280.422873397998
 21
295.91150343597
  0
LINE
  8
DIMENSION
  6
BYLAYER
 62
250
 10
261.322873397999
 20
308.71150343597
 11
280.422873397998
 21
308.71150343597
  0
LINE
  8
DIMENSION
  6
BYLAYER
 62
250
 10
261.322873397999
 20
308.71150343597
 11
261.322873397999
 21
295.91150343597
  0
LINE
  8
DIMENSION
  6
BYLAYER
 62
250
 10
280.422873397998
 20
308.71150343597
 11
280.422873397998
 21
295.91150343597
  0
LINE
  8
DIMENSION
  6
BYLAYER
 62
250
 10
261.872873397999
 20
326.91150343597
 11
261.872873397999
 21
318.71150343597
  0
LINE
  8
DIMENSION
  6
BYLAYER
 62
250
 10
269.872873397999
 20
326.91150343597
 11
269.872873397998
 21
318.71150343597
  0
LINE
  8
DIMENSION
  6
BYLAYER
 62
250
 10
271.872873397999
 20
326.91150343597
 11
271.872873397999
 21
318.71150343597
  0
LINE
  8
DIMENSION
  6
BYLAYER
 62
250
 10
279.872873397999
 20
326.91150343597
 11
279.872873397998
 21
318.71150343597
  0
LINE
  8
DIMENSION
  6
BYLAYER
 62
250
 10
261.872873397998
 20
318.71150343597
 11
269.872873397999
 21
318.71150343597
  0
LINE
  8
DIMENSION
  6
BYLAYER
 62
250
 10
271.872873397999
 20
318.71150343597
 11
279.872873397999
 21
318.71150343597
  0
LINE
  8
DIMENSION
  6
BYLAYER
 62
250
 10
261.872873397998
 20
326.91150343597
 11
269.872873397999
 21
326.91150343597
  0
LINE
  8
DIMENSION
  6
BYLAYER
 62
250
 10
271.872873397999
 20
326.91150343597
 11
279.872873397999
 21
326.91150343597
  0
TEXT
  8
0
 62
250
  6
BYLAYER
 62
250
 10
951.732721698113
 20
239.482284938936
 40
14
  1
USBコネクタ
  7
Font_0
 11
951.732721698113
 21
253.482284938936
 73
3
  0
LINE
  8
$DDT_AUDIT_GENERATED__27_
  6
CONTINUOUS
 62
250
 10
913.040213113085
 20
365.82433543597
 11
910.631351113086
 21
365.18504243597
  0
LINE
  8
$DDT_AUDIT_GENERATED__27_
  6
CONTINUOUS
 62
250
 10
913.040213113085
 20
365.82433543597
 11
912.251259113086
 21
363.46025743597
  0
ARC
  8
$DDT_AUDIT_GENERATED__27_
  6
CONTINUOUS
 62
250
 10
909.524050113086
 20
368.31150343597
 40
4.30690200000006
 50
217.441206999995
 51
324.726214999999
  0
CIRCLE
  8
光源_LED_
  6
CONTINUOUS
 62
250
 10
909.524050113086
 20
368.31150343597
 40
7.99999999999997
  0
CIRCLE
  8
光源_LED_
  6
CONTINUOUS
 62
250
 10
909.524050113086
 20
368.31150343597
 40
7.00000000000003
  0
TEXT
  8
$DDT_AUDIT_GENERATED__27_
 62
250
  6
BYLAYER
 62
250
 10
906.520927113085
 20
369.68569543597
 40
2.5
 41
1.53906215122005
  1
F
  7
Font_0
 50
43.1715735746172
  0
TEXT
  8
$DDT_AUDIT_GENERATED__27_
 62
250
  6
BYLAYER
 62
250
 10
911.032929113086
 20
371.24926343597
 40
2.5
 41
1.53906259718559
  1
E
  7
Font_0
 50
310.574087127597
  0
TEXT
  8
$DDT_AUDIT_GENERATED__27_
 62
250
  6
BYLAYER
 62
250
 10
907.409143113086
 20
370.84809943597
 40
2.5
 41
1.53906259730056
  1
U
  7
Font_0
 50
17.5797376442383
  0
TEXT
  8
$DDT_AUDIT_GENERATED__27_
 62
250
  6
BYLAYER
 62
250
 10
909.288681113086
 20
371.60570343597
 40
2.5
 41
1.53906256284821
  1
S
  7
Font_0
 50
341.846635785519
  0
CIRCLE
  8
DIMENSION
  6
CONTINUOUS
 62
250
 10
964.024050113086
 20
328.31150343597
 40
38
  0
ARC
  8
0
  6
CONTINUOUS
 62
250
 10
964.024050113086
 20
328.31150343597
 40
23.6
 50
227.18553850585
 51
312.81446149415
  0
ARC
  8
0
  6
CONTINUOUS
 62
250
 10
964.024050113086
 20
328.31150343597
 40
21.8
 50
227.366094544219
 51
312.633905455781
  0
LINE
  8
0
  6
CONTINUOUS
 62
250
 10
957.917070701371
 20
323.477316230391
 11
930.532142685712
 21
296.092388214732
  0
LINE
  8
0
  6
CONTINUOUS
 62
250
 10
959.126327539255
 20
322.140988656003
 11
932.080517613029
 21
295.095178729777
  0
ARC
  8
0
  6
CONTINUOUS
 62
250
 10
964.024050113086
 20
328.31150343597
 40
38.25
 50
136.34826041503
 51
223.651739584966
  0
ARC
  8
0
  6
CONTINUOUS
 62
250
 10
964.024050113086
 20
328.31150343597
 40
36.45
 50
136.414854394202
 51
223.585145605798
  0
ARC
  8
0
  6
CONTINUOUS
 62
250
 10
964.024050113086
 20
328.31150343597
 40
30.9
 50
136.669045154047
 51
223.330954845953
  0
ARC
  8
0
  6
CONTINUOUS
 62
250
 10
964.024050113086
 20
328.31150343597
 40
29.1
 50
136.772317040568
 51
223.227682959432
  0
ARC
  8
0
  6
CONTINUOUS
 62
250
 10
964.024050113086
 20
328.31150343597
 40
36.45
 50
316.414854394202
 51
43.5851456057981
  0
ARC
  8
0
  6
CONTINUOUS
 62
250
 10
964.024050113086
 20
328.31150343597
 40
38.25
 50
316.348260415029
 51
43.6517395849658
  0
ARC
  8
0
  6
CONTINUOUS
 62
250
 10
964.024050113086
 20
328.31150343597
 40
30.9
 50
316.669045154047
 51
43.3309548459532
  0
ARC
  8
0
  6
CONTINUOUS
 62
250
 10
964.024050113086
 20
328.31150343597
 40
29.1
 50
316.772317040568
 51
43.2276829594323
  0
LINE
  8
0
  6
CONTINUOUS
 62
250
 10
996.243165334323
 20
294.819596008597
 11
968.809254775929
 21
322.253506566987
  0
LINE
  8
0
  6
CONTINUOUS
 62
250
 10
997.240374819279
 20
296.367970935913
 11
970.030994814552
 21
323.57735094064
  0
ARC
  8
0
  6
CONTINUOUS
 62
250
 10
964.024050113086
 20
328.31150343597
 40
38.25
 50
226.348260415025
 51
313.651739584975
  0
ARC
  8
0
  6
CONTINUOUS
 62
250
 10
964.024050113086
 20
328.31150343597
 40
36.45
 50
226.414854394202
 51
313.585145605798
  0
ARC
  8
0
  6
CONTINUOUS
 62
250
 10
964.024050113086
 20
328.31150343597
 40
30.9
 50
226.669045154051
 51
313.330954845948
  0
ARC
  8
0
  6
CONTINUOUS
 62
250
 10
964.024050113086
 20
328.31150343597
 40
29.1
 50
226.772317040568
 51
313.227682959432
  0
ARC
  8
0
  6
CONTINUOUS
 62
250
 10
928.274050113086
 20
292.56150343597
 40
4.05
 50
69.2101552067961
 51
27.0336766572603
  0
ARC
  8
0
  6
CONTINUOUS
 62
250
 10
932.887874082494
 20
294.488321636869
 40
2.85
 50
145.748235858037
 51
170.48894084065
  0
LINE
  8
0
  6
CONTINUOUS
 62
250
 10
929.352395020047
 20
295.36099843715
 11
929.71156224302
 21
296.347802272075
  0
ARC
  8
0
  6
CONTINUOUS
 62
250
 10
932.887874082494
 20
294.488321636869
 40
1.01
 50
143.069301159409
 51
184.886614035009
  0
ARC
  8
0
  6
CONTINUOUS
 62
250
 10
999.774050113086
 20
292.56150343597
 40
4.05
 50
159.210155206798
 51
117.033676657269
  0
ARC
  8
0
  6
CONTINUOUS
 62
250
 10
997.847231912186
 20
297.175327405378
 40
1.01
 50
233.069301159418
 51
274.886614035003
  0
ARC
  8
0
  6
CONTINUOUS
 62
250
 10
997.847231912186
 20
297.175327405378
 40
2.85
 50
235.748235858037
 51
260.488940840642
  0
LINE
  8
0
  6
CONTINUOUS
 62
250
 10
996.974555111906
 20
293.639848342932
 11
995.98775127698
 21
293.999015565905
  0
ARC
  8
0
  6
CONTINUOUS
 62
250
 10
964.024050113086
 20
328.31150343597
 40
14.45
 50
48.5709065546021
 51
131.429093445398
  0
ARC
  8
0
  6
CONTINUOUS
 62
250
 10
964.024050113086
 20
328.31150343597
 40
16.25
 50
48.1749292835424
 51
131.825070716458
  0
ARC
  8
0
  6
CONTINUOUS
 62
250
 10
964.024050113086
 20
328.31150343597
 40
21.8
 50
47.3660945442194
 51
132.633905455781
  0
ARC
  8
0
  6
CONTINUOUS
 62
250
 10
964.024050113086
 20
328.31150343597
 40
23.6
 50
47.1855385058502
 51
132.81446149415
  0
ARC
  8
0
  6
CONTINUOUS
 62
250
 10
964.024050113086
 20
328.31150343597
 40
7.1
 50
322.097907674717
 51
38.0028627110494
  0
ARC
  8
0
  6
CONTINUOUS
 62
250
 10
964.024050113086
 20
328.31150343597
 40
8.9
 50
320.803875764272
 51
39.1961242357281
  0
ARC
  8
0
  6
CONTINUOUS
 62
250
 10
964.024050113086
 20
328.31150343597
 40
16.25
 50
228.174929283542
 51
311.825070716458
  0
ARC
  8
0
  6
CONTINUOUS
 62
250
 10
964.024050113086
 20
328.31150343597
 40
14.45
 50
228.570906554602
 51
311.429093445398
  0
LINE
  8
0
  6
CONTINUOUS
 62
250
 10
995.967582613142
 20
361.527828142163
 11
968.921772686919
 21
334.482018215939
  0
LINE
  8
0
  6
CONTINUOUS
 62
250
 10
997.515957540459
 20
360.530618657208
 11
970.131029524801
 21
333.14569064155
  0
ARC
  8
0
  6
CONTINUOUS
 62
250
 10
964.024050113086
 20
328.31150343597
 40
29.1
 50
46.7723170405677
 51
133.227682959432
  0
ARC
  8
0
  6
CONTINUOUS
 62
250
 10
964.024050113086
 20
328.31150343597
 40
36.45
 50
46.4148543942019
 51
133.585145605798
  0
ARC
  8
0
  6
CONTINUOUS
 62
250
 10
964.024050113086
 20
328.31150343597
 40
30.9
 50
46.6690451540515
 51
133.330954845948
  0
ARC
  8
0
  6
CONTINUOUS
 62
250
 10
964.024050113086
 20
328.31150343597
 40
38.25
 50
46.348260415025
 51
133.651739584975
  0
ARC
  8
0
  6
CONTINUOUS
 62
250
 10
930.200868313985
 20
359.447679466562
 40
2.85
 50
55.7482358580372
 51
80.488940840655
  0
LINE
  8
0
  6
CONTINUOUS
 62
250
 10
931.073545114265
 20
362.983158529008
 11
932.060348949191
 21
362.623991306036
  0
ARC
  8
0
  6
CONTINUOUS
 62
250
 10
928.274050113086
 20
364.06150343597
 40
4.05
 50
339.210155206798
 51
297.033676657269
  0
LINE
  8
0
  6
CONTINUOUS
 62
250
 10
958.01710541162
 20
333.0456559313
 11
930.807725406893
 21
360.255035936027
  0
ARC
  8
0
  6
CONTINUOUS
 62
250
 10
930.200868313985
 20
359.447679466562
 40
1.01
 50
53.0693011594181
 51
94.8866140350029
  0
LINE
  8
0
  6
CONTINUOUS
 62
250
 10
959.238845450218
 20
334.369500304973
 11
931.804934891848
 21
361.803410863343
  0
ARC
  8
0
  6
CONTINUOUS
 62
250
 10
964.024050113086
 20
328.31150343597
 40
23.6
 50
137.185538505859
 51
222.814461494141
  0
ARC
  8
0
  6
CONTINUOUS
 62
250
 10
964.024050113086
 20
328.31150343597
 40
21.8
 50
137.366094544229
 51
222.633905455771
  0
ARC
  8
0
  6
CONTINUOUS
 62
250
 10
964.024050113086
 20
328.31150343597
 40
16.25
 50
138.174929283547
 51
221.825070716453
  0
ARC
  8
0
  6
CONTINUOUS
 62
250
 10
964.024050113086
 20
328.31150343597
 40
14.45
 50
138.57090655462
 51
221.429093445379
  0
ARC
  8
0
  6
CONTINUOUS
 62
250
 10
964.024050113086
 20
328.31150343597
 40
8.9
 50
140.803875764272
 51
219.196124235728
  0
ARC
  8
0
  6
CONTINUOUS
 62
250
 10
964.024050113086
 20
328.31150343597
 40
7.1
 50
142.097907674717
 51
218.002862711049
  0
ARC
  8
0
  6
CONTINUOUS
 62
250
 10
954.024053979697
 20
328.302709562004
 40
6.2
 50
308.895793749175
 51
49.9062224686737
  0
ARC
  8
0
  6
CONTINUOUS
 62
250
 10
954.024053979697
 20
328.302709562004
 40
8
 50
309.626790234679
 51
49.3188509560349
  0
ARC
  8
0
  6
CONTINUOUS
 62
250
 10
974.024046246474
 20
328.320297309937
 40
6.2
 50
128.895793749175
 51
229.906222468688
  0
ARC
  8
0
  6
CONTINUOUS
 62
250
 10
974.024046246474
 20
328.320297309937
 40
8
 50
129.626790234643
 51
229.318850956016
  0
ARC
  8
0
  6
CONTINUOUS
 62
250
 10
964.024050113086
 20
328.31150343597
 40
8.9
 50
230.803875764272
 51
309.196124235728
  0
ARC
  8
0
  6
CONTINUOUS
 62
250
 10
964.024050113086
 20
328.31150343597
 40
7.1
 50
232.567737745023
 51
307.53303264073
  0
ARC
  8
0
  6
CONTINUOUS
 62
250
 10
964.024050113086
 20
328.31150343597
 40
7.1
 50
52.567737745023
 51
127.53303264073
  0
ARC
  8
0
  6
CONTINUOUS
 62
250
 10
964.024050113086
 20
328.31150343597
 40
8.9
 50
50.8038757642719
 51
129.196124235728
  0
ARC
  8
0
  6
CONTINUOUS
 62
250
 10
964.024050113086
 20
328.31150343597
 40
23.6
 50
317.185538505859
 51
42.8144614941406
  0
ARC
  8
0
  6
CONTINUOUS
 62
250
 10
964.024050113086
 20
328.31150343597
 40
21.8
 50
317.366094544233
 51
42.6339054557714
  0
ARC
  8
0
  6
CONTINUOUS
 62
250
 10
964.024050113086
 20
328.31150343597
 40
14.45
 50
318.57090655462
 51
41.4290934453795
  0
ARC
  8
0
  6
CONTINUOUS
 62
250
 10
964.024050113086
 20
328.31150343597
 40
16.25
 50
318.174929283547
 51
41.8250707164532
  0
ARC
  8
0
  6
CONTINUOUS
 62
250
 10
999.774050113086
 20
364.06150343597
 40
4.05
 50
249.210155206796
 51
207.03367665726
  0
ARC
  8
0
  6
CONTINUOUS
 62
250
 10
995.160226143677
 20
362.134685235071
 40
1.01
 50
323.069301159409
 51
4.88661403500937
  0
LINE
  8
0
  6
CONTINUOUS
 62
250
 10
998.695705206124
 20
361.262008434791
 11
998.336537983151
 21
360.275204599865
  0
ARC
  8
0
  6
CONTINUOUS
 62
250
 10
995.160226143677
 20
362.134685235071
 40
2.85
 50
325.748235858037
 51
350.48894084065
  0
LINE
  8
DIMENSION
  6
CONTINUOUS
 62
250
 10
927.774050113086
 20
294.497995109074
 11
927.774050113086
 21
293.36150343597
  0
LINE
  8
DIMENSION
  6
CONTINUOUS
 62
250
 10
928.774050113086
 20
294.497995109074
 11
928.774050113086
 21
293.36150343597
  0
CIRCLE
  8
DIMENSION
  6
CONTINUOUS
 62
250
 10
928.274050113086
 20
292.56150343597
 40
3
  0
ARC
  8
DIMENSION
  6
CONTINUOUS
 62
250
 10
928.274050113086
 20
292.56150343597
 40
2
 50
255.52248781407
 51
284.477512185944
  0
LINE
  8
DIMENSION
  6
CONTINUOUS
 62
250
 10
926.337558439982
 20
292.06150343597
 11
927.474050113086
 21
292.06150343597
  0
LINE
  8
DIMENSION
  6
CONTINUOUS
 62
250
 10
926.337558439982
 20
293.06150343597
 11
927.474050113086
 21
293.06150343597
  0
ARC
  8
DIMENSION
  6
CONTINUOUS
 62
250
 10
928.274050113086
 20
292.56150343597
 40
2
 50
165.52248781407
 51
194.477512185929
  0
ARC
  8
DIMENSION
  6
CONTINUOUS
 62
250
 10
927.474050113085
 20
293.36150343597
 40
0.3
 50
270
 51
0
  0
LINE
  8
DIMENSION
  6
CONTINUOUS
 62
250
 10
927.774050113086
 20
291.76150343597
 11
927.774050113086
 21
290.625011762866
  0
ARC
  8
DIMENSION
  6
CONTINUOUS
 62
250
 10
927.474050113086
 20
291.76150343597
 40
0.3
 50
0
 51
90
  0
ARC
  8
DIMENSION
  6
CONTINUOUS
 62
250
 10
928.274050113086
 20
292.56150343597
 40
2
 50
345.52248781407
 51
14.4775121859295
  0
ARC
  8
DIMENSION
  6
CONTINUOUS
 62
250
 10
929.074050113086
 20
293.36150343597
 40
0.3
 50
180
 51
270
  0
LINE
  8
DIMENSION
  6
CONTINUOUS
 62
250
 10
929.074050113086
 20
293.06150343597
 11
930.210541786189
 21
293.06150343597
  0
LINE
  8
DIMENSION
  6
CONTINUOUS
 62
250
 10
929.074050113086
 20
292.06150343597
 11
930.210541786189
 21
292.06150343597
  0
LINE
  8
DIMENSION
  6
CONTINUOUS
 62
250
 10
928.774050113086
 20
291.76150343597
 11
928.774050113086
 21
290.625011762866
  0
ARC
  8
DIMENSION
  6
CONTINUOUS
 62
250
 10
929.074050113086
 20
291.76150343597
 40
0.3
 50
90
 51
180
  0
ARC
  8
DIMENSION
  6
CONTINUOUS
 62
250
 10
928.274050113086
 20
292.56150343597
 40
2
 50
75.5224878140563
 51
104.477512185929
  0
LINE
  8
DIMENSION
  6
CONTINUOUS
 62
250
 10
927.774050113086
 20
365.997995109074
 11
927.774050113086
 21
364.86150343597
  0
LINE
  8
DIMENSION
  6
CONTINUOUS
 62
250
 10
928.774050113086
 20
365.997995109074
 11
928.774050113086
 21
364.86150343597
  0
CIRCLE
  8
DIMENSION
  6
CONTINUOUS
 62
250
 10
928.274050113086
 20
364.06150343597
 40
3
  0
ARC
  8
DIMENSION
  6
CONTINUOUS
 62
250
 10
928.274050113086
 20
364.06150343597
 40
2
 50
255.52248781407
 51
284.477512185944
  0
LINE
  8
DIMENSION
  6
CONTINUOUS
 62
250
 10
926.337558439982
 20
363.56150343597
 11
927.474050113086
 21
363.56150343597
  0
LINE
  8
DIMENSION
  6
CONTINUOUS
 62
250
 10
926.337558439982
 20
364.56150343597
 11
927.474050113085
 21
364.56150343597
  0
ARC
  8
DIMENSION
  6
CONTINUOUS
 62
250
 10
928.274050113086
 20
364.06150343597
 40
2
 50
165.52248781407
 51
194.477512185929
  0
ARC
  8
DIMENSION
  6
CONTINUOUS
 62
250
 10
927.474050113085
 20
364.86150343597
 40
0.3
 50
270
 51
0
  0
LINE
  8
DIMENSION
  6
CONTINUOUS
 62
250
 10
927.774050113086
 20
363.26150343597
 11
927.774050113086
 21
362.125011762867
  0
ARC
  8
DIMENSION
  6
CONTINUOUS
 62
250
 10
927.474050113086
 20
363.26150343597
 40
0.3
 50
0
 51
90
  0
ARC
  8
DIMENSION
  6
CONTINUOUS
 62
250
 10
928.274050113086
 20
364.06150343597
 40
2
 50
345.52248781407
 51
14.4775121859295
  0
ARC
  8
DIMENSION
  6
CONTINUOUS
 62
250
 10
929.074050113086
 20
364.86150343597
 40
0.3
 50
180
 51
270
  0
LINE
  8
DIMENSION
  6
CONTINUOUS
 62
250
 10
929.074050113086
 20
364.56150343597
 11
930.210541786189
 21
364.56150343597
  0
LINE
  8
DIMENSION
  6
CONTINUOUS
 62
250
 10
929.074050113086
 20
363.56150343597
 11
930.210541786189
 21
363.56150343597
  0
LINE
  8
DIMENSION
  6
CONTINUOUS
 62
250
 10
928.774050113086
 20
363.26150343597
 11
928.774050113086
 21
362.125011762867
  0
ARC
  8
DIMENSION
  6
CONTINUOUS
 62
250
 10
929.074050113085
 20
363.26150343597
 40
0.3
 50
90
 51
180
  0
ARC
  8
DIMENSION
  6
CONTINUOUS
 62
250
 10
928.274050113086
 20
364.06150343597
 40
2
 50
75.5224878140563
 51
104.477512185929
  0
LINE
  8
DIMENSION
  6
CONTINUOUS
 62
250
 10
999.274050113086
 20
294.497995109074
 11
999.274050113086
 21
293.36150343597
  0
LINE
  8
DIMENSION
  6
CONTINUOUS
 62
250
 10
1000.27405011309
 20
294.497995109074
 11
1000.27405011309
 21
293.36150343597
  0
CIRCLE
  8
DIMENSION
  6
CONTINUOUS
 62
250
 10
999.774050113086
 20
292.56150343597
 40
3
  0
ARC
  8
DIMENSION
  6
CONTINUOUS
 62
250
 10
999.774050113086
 20
292.56150343597
 40
2
 50
255.52248781407
 51
284.477512185944
  0
LINE
  8
DIMENSION
  6
CONTINUOUS
 62
250
 10
997.837558439982
 20
292.06150343597
 11
998.974050113086
 21
292.06150343597
  0
LINE
  8
DIMENSION
  6
CONTINUOUS
 62
250
 10
997.837558439982
 20
293.06150343597
 11
998.974050113086
 21
293.06150343597
  0
ARC
  8
DIMENSION
  6
CONTINUOUS
 62
250
 10
999.774050113086
 20
292.56150343597
 40
2
 50
165.52248781407
 51
194.477512185929
  0
ARC
  8
DIMENSION
  6
CONTINUOUS
 62
250
 10
998.974050113085
 20
293.36150343597
 40
0.3
 50
270
 51
0
  0
LINE
  8
DIMENSION
  6
CONTINUOUS
 62
250
 10
999.274050113086
 20
291.76150343597
 11
999.274050113086
 21
290.625011762866
  0
ARC
  8
DIMENSION
  6
CONTINUOUS
 62
250
 10
998.974050113086
 20
291.76150343597
 40
0.3
 50
0
 51
90
  0
ARC
  8
DIMENSION
  6
CONTINUOUS
 62
250
 10
999.774050113086
 20
292.56150343597
 40
2
 50
345.52248781407
 51
14.4775121859295
  0
ARC
  8
DIMENSION
  6
CONTINUOUS
 62
250
 10
1000.57405011309
 20
293.36150343597
 40
0.3
 50
180
 51
270
  0
LINE
  8
DIMENSION
  6
CONTINUOUS
 62
250
 10
1000.57405011309
 20
293.06150343597
 11
1001.71054178619
 21
293.06150343597
  0
LINE
  8
DIMENSION
  6
CONTINUOUS
 62
250
 10
1000.57405011309
 20
292.06150343597
 11
1001.71054178619
 21
292.06150343597
  0
LINE
  8
DIMENSION
  6
CONTINUOUS
 62
250
 10
1000.27405011309
 20
291.76150343597
 11
1000.27405011309
 21
290.625011762867
  0
ARC
  8
DIMENSION
  6
CONTINUOUS
 62
250
 10
1000.57405011309
 20
291.76150343597
 40
0.3
 50
90
 51
180
  0
ARC
  8
DIMENSION
  6
CONTINUOUS
 62
250
 10
999.774050113086
 20
292.56150343597
 40
2
 50
75.5224878140563
 51
104.477512185929
  0
LINE
  8
DIMENSION
  6
CONTINUOUS
 62
250
 10
999.274050113086
 20
365.997995109074
 11
999.274050113086
 21
364.86150343597
  0
LINE
  8
DIMENSION
  6
CONTINUOUS
 62
250
 10
1000.27405011309
 20
365.997995109074
 11
1000.27405011309
 21
364.86150343597
  0
CIRCLE
  8
DIMENSION
  6
CONTINUOUS
 62
250
 10
999.774050113086
 20
364.06150343597
 40
3
  0
ARC
  8
DIMENSION
  6
CONTINUOUS
 62
250
 10
999.774050113086
 20
364.06150343597
 40
2
 50
255.52248781407
 51
284.477512185944
  0
LINE
  8
DIMENSION
  6
CONTINUOUS
 62
250
 10
997.837558439982
 20
363.56150343597
 11
998.974050113086
 21
363.56150343597
  0
LINE
  8
DIMENSION
  6
CONTINUOUS
 62
250
 10
997.837558439982
 20
364.56150343597
 11
998.974050113086
 21
364.56150343597
  0
ARC
  8
DIMENSION
  6
CONTINUOUS
 62
250
 10
999.774050113086
 20
364.06150343597
 40
2
 50
165.52248781407
 51
194.477512185929
  0
ARC
  8
DIMENSION
  6
CONTINUOUS
 62
250
 10
998.974050113085
 20
364.86150343597
 40
0.3
 50
270
 51
0
  0
LINE
  8
DIMENSION
  6
CONTINUOUS
 62
250
 10
999.274050113086
 20
363.26150343597
 11
999.274050113086
 21
362.125011762867
  0
ARC
  8
DIMENSION
  6
CONTINUOUS
 62
250
 10
998.974050113086
 20
363.26150343597
 40
0.3
 50
0
 51
90
  0
ARC
  8
DIMENSION
  6
CONTINUOUS
 62
250
 10
999.774050113086
 20
364.06150343597
 40
2
 50
345.52248781407
 51
14.4775121859295
  0
ARC
  8
DIMENSION
  6
CONTINUOUS
 62
250
 10
1000.57405011309
 20
364.86150343597
 40
0.3
 50
180
 51
270
  0
LINE
  8
DIMENSION
  6
CONTINUOUS
 62
250
 10
1000.57405011309
 20
364.56150343597
 11
1001.71054178619
 21
364.56150343597
  0
LINE
  8
DIMENSION
  6
CONTINUOUS
 62
250
 10
1000.57405011309
 20
363.56150343597
 11
1001.71054178619
 21
363.56150343597
  0
LINE
  8
DIMENSION
  6
CONTINUOUS
 62
250
 10
1000.27405011309
 20
363.26150343597
 11
1000.27405011309
 21
362.125011762867
  0
ARC
  8
DIMENSION
  6
CONTINUOUS
 62
250
 10
1000.57405011309
 20
363.26150343597
 40
0.3
 50
90
 51
180
  0
ARC
  8
DIMENSION
  6
CONTINUOUS
 62
250
 10
999.774050113086
 20
364.06150343597
 40
2
 50
75.5224878140563
 51
104.477512185929
  0
LINE
  8
DIMENSION
  6
BYLAYER
 62
250
 10
1046.49180594632
 20
269.811503435971
 11
1055.55629427986
 21
269.811503435971
  0
ARC
  8
DIMENSION
  6
BYLAYER
 62
250
 10
1046.21645078122
 20
271.994203491649
 40
2.20000000000005
 50
184.763641690723
 51
277.190078753684
  0
LINE
  8
DIMENSION
  6
BYLAYER
 62
250
 10
1043.52405011309
 20
277.811503435971
 11
1044.02405011309
 21
271.811503435971
  0
ARC
  8
DIMENSION
  6
BYLAYER
 62
250
 10
1055.83164944495
 20
271.994203491649
 40
2.20000000000005
 50
262.809921246342
 51
355.23635830927
  0
LINE
  8
DIMENSION
  6
BYLAYER
 62
250
 10
1058.52405011309
 20
277.811503435971
 11
1058.02405011309
 21
271.811503435971
  0
LINE
  8
DIMENSION
  6
BYLAYER
 62
250
 10
905.491805946315
 20
269.811503435971
 11
914.556294279856
 21
269.811503435971
  0
ARC
  8
DIMENSION
  6
BYLAYER
 62
250
 10
905.216450781224
 20
271.994203491649
 40
2.19999999999996
 50
184.763641690723
 51
277.190078753684
  0
LINE
  8
DIMENSION
  6
BYLAYER
 62
250
 10
902.524050113084
 20
277.811503435971
 11
903.024050113085
 21
271.811503435971
  0
ARC
  8
DIMENSION
  6
BYLAYER
 62
250
 10
914.831649444946
 20
271.994203491649
 40
2.19999999999996
 50
262.809921246342
 51
355.23635830927
  0
LINE
  8
DIMENSION
  6
BYLAYER
 62
250
 10
917.524050113084
 20
277.811503435971
 11
917.024050113084
 21
271.811503435971
  0
TEXT
  8
DIMENSION
 62
250
  6
BYLAYER
 62
250
 10
249.470356664945
 20
323.81150343597
 40
3
  1
 LAMP
  7
Font_0
 11
249.470356664945
 21
326.81150343597
 73
3
  0
TEXT
  8
DIMENSION
 62
250
  6
BYLAYER
 62
250
 10
249.470356664945
 20
320.81150343597
 40
3
  1
ALARM
  7
Font_0
 11
249.470356664945
 21
323.81150343597
 73
3
  0
LINE
  8
DIMENSION
  6
BYLAYER
 62
250
 10
272.952183787692
 20
319.81150343597
 11
278.752183787693
 21
319.81150343597
  0
LINE
  8
DIMENSION
  6
BYLAYER
 62
250
 10
272.952183787692
 20
325.81150343597
 11
278.752183787693
 21
325.81150343597
  0
LINE
  8
DIMENSION
  6
BYLAYER
 62
250
 10
272.352183787692
 20
319.21150343597
 11
279.352183787691
 21
319.21150343597
  0
LINE
  8
DIMENSION
  6
BYLAYER
 62
250
 10
272.352183787692
 20
326.41150343597
 11
279.352183787693
 21
326.41150343597
  0
LINE
  8
DIMENSION
  6
BYLAYER
 62
250
 10
271.702183787692
 20
318.06150343597
 11
280.002183787692
 21
318.06150343597
  0
LINE
  8
DIMENSION
  6
BYLAYER
 62
250
 10
271.702183787692
 20
327.56150343597
 11
280.002183787692
 21
327.56150343597
  0
LINE
  8
DIMENSION
  6
BYLAYER
 62
250
 10
262.952183787691
 20
319.81150343597
 11
268.752183787692
 21
319.81150343597
  0
LINE
  8
DIMENSION
  6
BYLAYER
 62
250
 10
262.952183787691
 20
325.81150343597
 11
268.752183787692
 21
325.81150343597
  0
LINE
  8
DIMENSION
  6
BYLAYER
 62
250
 10
262.352183787693
 20
319.21150343597
 11
269.352183787692
 21
319.21150343597
  0
LINE
  8
DIMENSION
  6
BYLAYER
 62
250
 10
262.352183787693
 20
326.41150343597
 11
269.352183787692
 21
326.41150343597
  0
LINE
  8
DIMENSION
  6
BYLAYER
 62
250
 10
261.702183787692
 20
318.06150343597
 11
270.002183787692
 21
318.06150343597
  0
LINE
  8
DIMENSION
  6
BYLAYER
 62
250
 10
261.702183787692
 20
327.56150343597
 11
270.002183787692
 21
327.56150343597
  0
LINE
  8
DIMENSION
  6
BYLAYER
 62
250
 10
262.352183787693
 20
319.21150343597
 11
262.952183787691
 21
319.81150343597
  0
LINE
  8
DIMENSION
  6
BYLAYER
 62
250
 10
262.352183787693
 20
326.41150343597
 11
262.952183787691
 21
325.81150343597
  0
LINE
  8
DIMENSION
  6
BYLAYER
 62
250
 10
262.952183787691
 20
325.81150343597
 11
262.952183787691
 21
319.81150343597
  0
LINE
  8
DIMENSION
  6
BYLAYER
 62
250
 10
262.352183787693
 20
326.41150343597
 11
262.352183787693
 21
319.21150343597
  0
LINE
  8
DIMENSION
  6
BYLAYER
 62
250
 10
265.852183787693
 20
326.41150343597
 11
265.852183787693
 21
319.21150343597
  0
ARC
  8
DIMENSION
  6
BYLAYER
 62
250
 10
261.702183787692
 20
318.56150343597
 40
0.500000000000014
 50
180
 51
270
  0
ARC
  8
DIMENSION
  6
BYLAYER
 62
250
 10
261.702183787692
 20
327.06150343597
 40
0.500000000000014
 50
90
 51
180
  0
LINE
  8
DIMENSION
  6
BYLAYER
 62
250
 10
261.202183787692
 20
327.06150343597
 11
261.202183787692
 21
318.56150343597
  0
LINE
  8
DIMENSION
  6
BYLAYER
 62
250
 10
272.352183787692
 20
319.21150343597
 11
272.952183787692
 21
319.81150343597
  0
LINE
  8
DIMENSION
  6
BYLAYER
 62
250
 10
272.352183787692
 20
326.41150343597
 11
272.952183787692
 21
325.81150343597
  0
LINE
  8
DIMENSION
  6
BYLAYER
 62
250
 10
268.752183787692
 20
319.81150343597
 11
269.352183787692
 21
319.21150343597
  0
LINE
  8
DIMENSION
  6
BYLAYER
 62
250
 10
269.352183787692
 20
326.41150343597
 11
268.752183787692
 21
325.81150343597
  0
LINE
  8
DIMENSION
  6
BYLAYER
 62
250
 10
272.952183787692
 20
325.81150343597
 11
272.952183787692
 21
319.81150343597
  0
LINE
  8
DIMENSION
  6
BYLAYER
 62
250
 10
268.752183787692
 20
325.81150343597
 11
268.752183787692
 21
319.81150343597
  0
LINE
  8
DIMENSION
  6
BYLAYER
 62
250
 10
272.352183787692
 20
326.41150343597
 11
272.352183787692
 21
319.21150343597
  0
LINE
  8
DIMENSION
  6
BYLAYER
 62
250
 10
275.852183787692
 20
326.41150343597
 11
275.852183787692
 21
319.21150343597
  0
LINE
  8
DIMENSION
  6
BYLAYER
 62
250
 10
269.352183787692
 20
326.41150343597
 11
269.352183787692
 21
319.21150343597
  0
ARC
  8
DIMENSION
  6
BYLAYER
 62
250
 10
270.002183787692
 20
318.56150343597
 40
0.499999999999993
 50
270
 51
0
  0
ARC
  8
DIMENSION
  6
BYLAYER
 62
250
 10
270.002183787692
 20
327.06150343597
 40
0.499999999999993
 50
0
 51
90
  0
ARC
  8
DIMENSION
  6
BYLAYER
 62
250
 10
271.702183787692
 20
318.56150343597
 40
0.499999999999993
 50
180
 51
270
  0
ARC
  8
DIMENSION
  6
BYLAYER
 62
250
 10
271.702183787692
 20
327.06150343597
 40
0.499999999999993
 50
90
 51
180
  0
LINE
  8
DIMENSION
  6
BYLAYER
 62
250
 10
271.202183787693
 20
327.06150343597
 11
271.202183787693
 21
318.56150343597
  0
LINE
  8
DIMENSION
  6
BYLAYER
 62
250
 10
270.502183787693
 20
327.06150343597
 11
270.502183787693
 21
318.56150343597
  0
TEXT
  8
DIMENSION
 62
250
  6
BYLAYER
 62
250
 10
282.946050797557
 20
323.81150343597
 40
3
  1
POWER
  7
Font_0
 11
282.946050797557
 21
326.81150343597
 73
3
  0
TEXT
  8
DIMENSION
 62
250
  6
BYLAYER
 62
250
 10
282.946050797557
 20
320.81150343597
 40
3
  1
   ON
  7
Font_0
 11
282.946050797557
 21
323.81150343597
 73
3
  0
LINE
  8
DIMENSION
  6
BYLAYER
 62
250
 10
278.752183787693
 20
319.81150343597
 11
279.352183787691
 21
319.21150343597
  0
LINE
  8
DIMENSION
  6
BYLAYER
 62
250
 10
279.352183787693
 20
326.41150343597
 11
278.752183787693
 21
325.81150343597
  0
LINE
  8
DIMENSION
  6
BYLAYER
 62
250
 10
278.752183787693
 20
325.81150343597
 11
278.752183787693
 21
319.81150343597
  0
LINE
  8
DIMENSION
  6
BYLAYER
 62
250
 10
279.352183787693
 20
326.41150343597
 11
279.352183787691
 21
319.21150343597
  0
ARC
  8
DIMENSION
  6
BYLAYER
 62
250
 10
280.002183787692
 20
318.56150343597
 40
0.500000000000014
 50
270
 51
359.999999999997
  0
ARC
  8
DIMENSION
  6
BYLAYER
 62
250
 10
280.002183787692
 20
327.06150343597
 40
0.500000000000014
 50
359.999999999997
 51
90
  0
LINE
  8
DIMENSION
  6
BYLAYER
 62
250
 10
280.502183787692
 20
327.06150343597
 11
280.502183787692
 21
318.56150343597
  0
LINE
  8
DIMENSION
  6
BYLAYER
 62
250
 10
260.352183787692
 20
309.31150343597
 11
260.352183787691
 21
295.31150343597
  0
LINE
  8
DIMENSION
  6
BYLAYER
 62
250
 10
281.352183787691
 20
309.31150343597
 11
281.352183787692
 21
295.31150343597
  0
LINE
  8
DIMENSION
  6
BYLAYER
 62
250
 10
262.852183787693
 20
307.31150343597
 11
262.852183787691
 21
297.31150343597
  0
LINE
  8
DIMENSION
  6
BYLAYER
 62
250
 10
278.852183787691
 20
307.31150343597
 11
278.852183787692
 21
297.31150343597
  0
LINE
  8
DIMENSION
  6
BYLAYER
 62
250
 10
275.852183787691
 20
306.31150343597
 11
275.852183787692
 21
298.31150343597
  0
LINE
  8
DIMENSION
  6
BYLAYER
 62
250
 10
260.852183787691
 20
294.81150343597
 11
280.852183787693
 21
294.81150343597
  0
LINE
  8
DIMENSION
  6
BYLAYER
 62
250
 10
262.852183787693
 20
297.31150343597
 11
278.852183787691
 21
297.31150343597
  0
LINE
  8
DIMENSION
  6
BYLAYER
 62
250
 10
262.852183787693
 20
297.31150343597
 11
278.852183787691
 21
297.31150343597
  0
ARC
  8
DIMENSION
  6
BYLAYER
 62
250
 10
260.852183787691
 20
295.31150343597
 40
0.500000000000014
 50
180
 51
270
  0
CIRCLE
  8
DIMENSION
  6
BYLAYER
 62
250
 10
272.852183787691
 20
302.31150343597
 40
1.00000000000001
  0
ARC
  8
DIMENSION
  6
BYLAYER
 62
250
 10
280.852183787693
 20
295.31150343597
 40
0.500000000000014
 50
270
 51
0
  0
TEXT
  8
DIMENSION
 62
250
  6
BYLAYER
 62
250
 10
265.965483787691
 20
311.06150343597
 40
3
  1
POWER
  7
Font_0
 11
265.965483787691
 21
314.06150343597
 73
3
  0
LINE
  8
DIMENSION
  6
BYLAYER
 62
250
 10
260.852183787691
 20
309.81150343597
 11
280.852183787691
 21
309.81150343597
  0
LINE
  8
DIMENSION
  6
BYLAYER
 62
250
 10
262.852183787691
 20
307.31150343597
 11
278.852183787691
 21
307.31150343597
  0
LINE
  8
DIMENSION
  6
BYLAYER
 62
250
 10
262.852183787691
 20
307.31150343597
 11
278.852183787691
 21
307.31150343597
  0
ARC
  8
DIMENSION
  6
BYLAYER
 62
250
 10
260.852183787691
 20
309.31150343597
 40
0.500000000000014
 50
90
 51
180
  0
ARC
  8
DIMENSION
  6
BYLAYER
 62
250
 10
280.852183787691
 20
309.31150343597
 40
0.500000000000014
 50
0
 51
90
  0
CIRCLE
  8
DIMENSION
  6
BYLAYER
 62
250
 10
300.872873397998
 20
362.31150343597
 40
9.99999999999999
  0
CIRCLE
  8
DIMENSION
  6
BYLAYER
 62
250
 10
300.872873397998
 20
362.31150343597
 40
6.50000000000001
  0
LINE
  8
DIMENSION
  6
BYLAYER
 62
250
 10
250.877118682803
 20
419.81150343597
 11
278.877118682803
 21
419.81150343597
  0
ARC
  8
DIMENSION
  6
BYLAYER
 62
250
 10
322.877118682803
 20
417.81150343597
 40
1.5
 50
89.9999999999853
 51
179.999999999998
  0
LINE
  8
DIMENSION
  6
BYLAYER
 62
250
 10
322.877118682803
 20
419.81150343597
 11
322.877118682803
 21
417.81150343597
  0
LINE
  8
DIMENSION
  6
BYLAYER
 62
250
 10
331.377118682803
 20
419.81150343597
 11
331.377118682803
 21
417.81150343597
  0
LINE
  8
DIMENSION
  6
BYLAYER
 62
250
 10
270.377118682803
 20
419.81150343597
 11
270.377118682803
 21
417.81150343597
  0
LINE
  8
DIMENSION
  6
BYLAYER
 62
250
 10
322.877118682802
 20
419.81150343597
 11
350.877118682803
 21
419.81150343597
  0
ARC
  8
DIMENSION
  6
BYLAYER
 62
250
 10
350.877118682803
 20
417.81150343597
 40
1.5
 50
0
 51
90
  0
LINE
  8
DIMENSION
  6
BYLAYER
 62
250
 10
331.377118682803
 20
419.81150343597
 11
331.377118682803
 21
417.81150343597
  0
LINE
  8
DIMENSION
  6
BYLAYER
 62
250
 10
350.877118682803
 20
419.81150343597
 11
350.877118682803
 21
417.81150343597
  0
LINE
  8
DIMENSION
  6
BYLAYER
 62
250
 10
342.377118682803
 20
419.81150343597
 11
342.377118682803
 21
417.81150343597
  0
ARC
  8
DIMENSION
  6
BYLAYER
 62
250
 10
278.877118682803
 20
417.81150343597
 40
1.5
 50
0
 51
90
  0
LINE
  8
DIMENSION
  6
BYLAYER
 62
250
 10
278.877118682803
 20
419.81150343597
 11
278.877118682803
 21
417.81150343597
  0
LINE
  8
DIMENSION
  6
BYLAYER
 62
250
 10
270.377118682803
 20
419.81150343597
 11
270.377118682803
 21
417.81150343597
  0
ARC
  8
DIMENSION
  6
BYLAYER
 62
250
 10
250.877118682803
 20
417.81150343597
 40
1.5
 50
89.999999999987
 51
180
  0
LINE
  8
DIMENSION
  6
BYLAYER
 62
250
 10
250.877118682803
 20
419.81150343597
 11
250.877118682803
 21
417.81150343597
  0
LINE
  8
DIMENSION
  6
BYLAYER
 62
250
 10
259.377118682803
 20
419.81150343597
 11
259.377118682803
 21
417.81150343597
  0
LINE
  8
DIMENSION
  6
BYLAYER
 62
250
 10
259.377118682803
 20
419.81150343597
 11
259.377118682803
 21
417.81150343597
  0
LINE
  8
DIMENSION
  6
BYLAYER
 62
250
 10
208.310298866968
 20
269.81150343597
 11
217.374787200509
 21
269.81150343597
  0
ARC
  8
DIMENSION
  6
BYLAYER
 62
250
 10
208.034943701876
 20
271.994203491649
 40
2.2
 50
184.763641690727
 51
277.190078753684
  0
LINE
  8
DIMENSION
  6
BYLAYER
 62
250
 10
205.342543033739
 20
277.811503435971
 11
205.842543033739
 21
271.811503435971
  0
ARC
  8
DIMENSION
  6
BYLAYER
 62
250
 10
217.6501423656
 20
271.994203491649
 40
2.2
 50
262.809921246342
 51
355.236358309273
  0
LINE
  8
DIMENSION
  6
BYLAYER
 62
250
 10
220.342543033737
 20
277.811503435971
 11
219.842543033737
 21
271.811503435971
  0
LINE
  8
DIMENSION
  6
BYLAYER
 62
250
 10
349.344874516033
 20
269.811503435971
 11
358.409362849574
 21
269.811503435971
  0
ARC
  8
DIMENSION
  6
BYLAYER
 62
250
 10
349.069519350942
 20
271.994203491649
 40
2.19999999999996
 50
184.763641690727
 51
277.190078753684
  0
LINE
  8
DIMENSION
  6
BYLAYER
 62
250
 10
346.377118682803
 20
277.811503435971
 11
346.877118682802
 21
271.811503435971
  0
ARC
  8
DIMENSION
  6
BYLAYER
 62
250
 10
358.684718014665
 20
271.994203491649
 40
2.19999999999996
 50
262.809921246342
 51
355.236358309273
  0
LINE
  8
DIMENSION
  6
BYLAYER
 62
250
 10
361.377118682803
 20
277.811503435971
 11
360.877118682803
 21
271.811503435971
  0
LINE
  8
シリズム2
  6
BYLAYER
 62
250
 10
516.423171972531
 20
417.81150343597
 11
516.423171972531
 21
277.81150343597
  0
LINE
  8
シリズム2
  6
BYLAYER
 62
250
 10
771.423171972531
 20
417.81150343597
 11
771.423171972531
 21
277.81150343597
  0
LINE
  8
シリズム2
  6
BYLAYER
 62
250
 10
516.423171972531
 20
417.81150343597
 11
771.423171972531
 21
417.81150343597
  0
LINE
  8
DIMENSION
  6
CONTINUOUS
 62
4
 10
516.423171972531
 20
277.81150343597
 11
771.423171972531
 21
277.81150343597
  0
LINE
  8
DIMENSION
  6
CONTINUOUS
 62
4
 10
516.423171972531
 20
417.81150343597
 11
635.423171972531
 21
417.81150343597
  0
LINE
  8
DIMENSION
  6
CONTINUOUS
 62
4
 10
746.423171972531
 20
417.81150343597
 11
746.423171972531
 21
394.81150343597
  0
LINE
  8
DIMENSION
  6
CONTINUOUS
 62
4
 10
635.423171972531
 20
417.81150343597
 11
635.42317197253
 21
415.81150343597
  0
LINE
  8
DIMENSION
  6
CONTINUOUS
 62
4
 10
635.42317197253
 20
415.81150343597
 11
641.188805721826
 21
394.293865345765
  0
LINE
  8
DIMENSION
  6
CONTINUOUS
 62
4
 10
746.423171972531
 20
417.81150343597
 11
771.423171972531
 21
417.81150343597
  0
ARC
  8
DIMENSION
  6
CONTINUOUS
 62
4
 10
744.423171972531
 20
394.81150343597
 40
2
 50
630
 51
360
  0
ARC
  8
DIMENSION
  6
CONTINUOUS
 62
4
 10
643.120657374404
 20
394.81150343597
 40
2
 50
554.999999999994
 51
270
  0
LINE
  8
DIMENSION
  6
CONTINUOUS
 62
4
 10
531.323171972531
 20
409.21150343597
 11
531.323171972531
 21
390.41150343597
  0
ARC
  8
DIMENSION
  6
CONTINUOUS
 62
4
 10
532.923171972531
 20
390.41150343597
 40
1.59999999999999
 50
540
 51
360
  0
ARC
  8
DIMENSION
  6
CONTINUOUS
 62
4
 10
532.923171972531
 20
409.21150343597
 40
1.59999999999999
 50
720
 51
540
  0
LINE
  8
DIMENSION
  6
CONTINUOUS
 62
4
 10
534.523171972531
 20
409.21150343597
 11
534.523171972531
 21
390.41150343597
  0
LINE
  8
DIMENSION
  6
CONTINUOUS
 62
4
 10
538.323171972531
 20
409.21150343597
 11
538.323171972531
 21
390.41150343597
  0
LINE
  8
DIMENSION
  6
CONTINUOUS
 62
4
 10
541.523171972531
 20
409.21150343597
 11
541.523171972531
 21
390.41150343597
  0
ARC
  8
DIMENSION
  6
CONTINUOUS
 62
4
 10
539.923171972531
 20
390.41150343597
 40
1.59999999999999
 50
540
 51
360
  0
ARC
  8
DIMENSION
  6
CONTINUOUS
 62
4
 10
539.923171972531
 20
409.21150343597
 40
1.59999999999999
 50
720
 51
540
  0
LINE
  8
DIMENSION
  6
CONTINUOUS
 62
4
 10
555.523171972531
 20
409.21150343597
 11
555.523171972531
 21
390.41150343597
  0
LINE
  8
DIMENSION
  6
CONTINUOUS
 62
4
 10
552.32317197253
 20
409.21150343597
 11
552.32317197253
 21
390.41150343597
  0
LINE
  8
DIMENSION
  6
CONTINUOUS
 62
4
 10
545.323171972531
 20
409.21150343597
 11
545.323171972531
 21
390.41150343597
  0
LINE
  8
DIMENSION
  6
CONTINUOUS
 62
4
 10
548.523171972531
 20
409.21150343597
 11
548.523171972531
 21
390.41150343597
  0
ARC
  8
DIMENSION
  6
CONTINUOUS
 62
4
 10
546.923171972531
 20
390.41150343597
 40
1.59999999999999
 50
540
 51
360
  0
ARC
  8
DIMENSION
  6
CONTINUOUS
 62
4
 10
553.923171972531
 20
390.41150343597
 40
1.59999999999999
 50
540
 51
360
  0
ARC
  8
DIMENSION
  6
CONTINUOUS
 62
4
 10
546.923171972531
 20
409.21150343597
 40
1.59999999999999
 50
720
 51
540
  0
ARC
  8
DIMENSION
  6
CONTINUOUS
 62
4
 10
553.923171972531
 20
409.21150343597
 40
1.59999999999999
 50
720
 51
540
  0
ARC
  8
DIMENSION
  6
CONTINUOUS
 62
4
 10
581.923171972531
 20
409.21150343597
 40
1.59999999999999
 50
720
 51
540
  0
ARC
  8
DIMENSION
  6
CONTINUOUS
 62
4
 10
581.923171972531
 20
390.41150343597
 40
1.59999999999999
 50
540
 51
360
  0
LINE
  8
DIMENSION
  6
CONTINUOUS
 62
4
 10
583.523171972531
 20
409.21150343597
 11
583.523171972531
 21
390.41150343597
  0
LINE
  8
DIMENSION
  6
CONTINUOUS
 62
4
 10
576.523171972531
 20
409.21150343597
 11
576.523171972531
 21
390.41150343597
  0
LINE
  8
DIMENSION
  6
CONTINUOUS
 62
4
 10
573.323171972531
 20
409.21150343597
 11
573.323171972531
 21
390.41150343597
  0
LINE
  8
DIMENSION
  6
CONTINUOUS
 62
4
 10
580.323171972531
 20
409.21150343597
 11
580.323171972531
 21
390.41150343597
  0
LINE
  8
DIMENSION
  6
CONTINUOUS
 62
4
 10
569.523171972531
 20
409.21150343597
 11
569.523171972531
 21
390.41150343597
  0
LINE
  8
DIMENSION
  6
CONTINUOUS
 62
4
 10
566.323171972531
 20
409.21150343597
 11
566.323171972531
 21
390.41150343597
  0
LINE
  8
DIMENSION
  6
CONTINUOUS
 62
4
 10
559.323171972531
 20
409.21150343597
 11
559.323171972531
 21
390.41150343597
  0
LINE
  8
DIMENSION
  6
CONTINUOUS
 62
4
 10
562.523171972531
 20
409.21150343597
 11
562.523171972531
 21
390.41150343597
  0
ARC
  8
DIMENSION
  6
CONTINUOUS
 62
4
 10
560.923171972531
 20
390.41150343597
 40
1.59999999999999
 50
540
 51
360
  0
ARC
  8
DIMENSION
  6
CONTINUOUS
 62
4
 10
574.923171972531
 20
390.41150343597
 40
1.59999999999999
 50
540
 51
360
  0
ARC
  8
DIMENSION
  6
CONTINUOUS
 62
4
 10
567.923171972531
 20
390.41150343597
 40
1.59999999999999
 50
540
 51
360
  0
ARC
  8
DIMENSION
  6
CONTINUOUS
 62
4
 10
560.923171972531
 20
409.21150343597
 40
1.59999999999999
 50
720
 51
540
  0
ARC
  8
DIMENSION
  6
CONTINUOUS
 62
4
 10
574.923171972531
 20
409.21150343597
 40
1.59999999999999
 50
720
 51
540
  0
ARC
  8
DIMENSION
  6
CONTINUOUS
 62
4
 10
567.923171972531
 20
409.21150343597
 40
1.59999999999999
 50
720
 51
540
  0
ARC
  8
DIMENSION
  6
CONTINUOUS
 62
4
 10
595.923171972531
 20
409.21150343597
 40
1.59999999999999
 50
720
 51
540
  0
ARC
  8
DIMENSION
  6
CONTINUOUS
 62
4
 10
595.923171972531
 20
390.41150343597
 40
1.59999999999999
 50
540
 51
360
  0
LINE
  8
DIMENSION
  6
CONTINUOUS
 62
4
 10
604.523171972531
 20
409.21150343597
 11
604.523171972531
 21
390.41150343597
  0
LINE
  8
DIMENSION
  6
CONTINUOUS
 62
4
 10
601.323171972531
 20
409.21150343597
 11
601.323171972531
 21
390.41150343597
  0
LINE
  8
DIMENSION
  6
CONTINUOUS
 62
4
 10
608.323171972531
 20
409.21150343597
 11
608.323171972531
 21
390.41150343597
  0
LINE
  8
DIMENSION
  6
CONTINUOUS
 62
4
 10
611.523171972531
 20
409.21150343597
 11
611.523171972531
 21
390.41150343597
  0
LINE
  8
DIMENSION
  6
CONTINUOUS
 62
4
 10
622.323171972531
 20
409.21150343597
 11
622.323171972531
 21
390.41150343597
  0
LINE
  8
DIMENSION
  6
CONTINUOUS
 62
4
 10
615.323171972531
 20
409.21150343597
 11
615.323171972531
 21
390.41150343597
  0
LINE
  8
DIMENSION
  6
CONTINUOUS
 62
4
 10
618.523171972531
 20
409.21150343597
 11
618.523171972531
 21
390.41150343597
  0
LINE
  8
DIMENSION
  6
CONTINUOUS
 62
4
 10
625.523171972531
 20
409.21150343597
 11
625.523171972531
 21
390.41150343597
  0
LINE
  8
DIMENSION
  6
CONTINUOUS
 62
4
 10
597.523171972531
 20
409.21150343597
 11
597.523171972531
 21
390.41150343597
  0
ARC
  8
DIMENSION
  6
CONTINUOUS
 62
4
 10
623.923171972531
 20
390.41150343597
 40
1.59999999999999
 50
540
 51
360
  0
ARC
  8
DIMENSION
  6
CONTINUOUS
 62
4
 10
609.923171972531
 20
390.41150343597
 40
1.59999999999999
 50
540
 51
360
  0
ARC
  8
DIMENSION
  6
CONTINUOUS
 62
4
 10
616.923171972531
 20
390.41150343597
 40
1.59999999999999
 50
540
 51
360
  0
ARC
  8
DIMENSION
  6
CONTINUOUS
 62
4
 10
602.923171972531
 20
390.41150343597
 40
1.59999999999999
 50
540
 51
360
  0
ARC
  8
DIMENSION
  6
CONTINUOUS
 62
4
 10
623.923171972531
 20
409.21150343597
 40
1.59999999999999
 50
720
 51
540
  0
ARC
  8
DIMENSION
  6
CONTINUOUS
 62
4
 10
609.923171972531
 20
409.21150343597
 40
1.59999999999999
 50
720
 51
540
  0
ARC
  8
DIMENSION
  6
CONTINUOUS
 62
4
 10
616.923171972531
 20
409.21150343597
 40
1.59999999999999
 50
720
 51
540
  0
ARC
  8
DIMENSION
  6
CONTINUOUS
 62
4
 10
602.923171972531
 20
409.21150343597
 40
1.59999999999999
 50
720
 51
540
  0
LINE
  8
DIMENSION
  6
CONTINUOUS
 62
4
 10
590.523171972531
 20
409.21150343597
 11
590.523171972531
 21
390.41150343597
  0
LINE
  8
DIMENSION
  6
CONTINUOUS
 62
4
 10
587.32317197253
 20
409.21150343597
 11
587.32317197253
 21
390.41150343597
  0
LINE
  8
DIMENSION
  6
CONTINUOUS
 62
4
 10
594.32317197253
 20
409.21150343597
 11
594.32317197253
 21
390.41150343597
  0
ARC
  8
DIMENSION
  6
CONTINUOUS
 62
4
 10
588.923171972531
 20
390.41150343597
 40
1.59999999999999
 50
540
 51
360
  0
ARC
  8
DIMENSION
  6
CONTINUOUS
 62
4
 10
588.923171972531
 20
409.21150343597
 40
1.59999999999999
 50
720
 51
540
  0
CIRCLE
  8
DIMENSION
  6
CONTINUOUS
 62
4
 10
522.423171972531
 20
352.81150343597
 40
3.25
  0
CIRCLE
  8
DIMENSION
  6
CONTINUOUS
 62
4
 10
765.423171972531
 20
352.81150343597
 40
3.25
  0
LINE
  8
DIMENSION
  6
CONTINUOUS
 62
4
 10
516.423171972531
 20
417.81150343597
 11
516.423171972532
 21
277.81150343597
  0
LINE
  8
DIMENSION
  6
CONTINUOUS
 62
4
 10
771.423171972531
 20
417.81150343597
 11
771.423171972531
 21
277.81150343597
  0
LINE
  8
DIMENSION
  6
CONTINUOUS
 62
4
 10
643.120657374404
 20
392.81150343597
 11
744.423171972531
 21
392.81150343597
  0
CIRCLE
  8
DIMENSION
  6
CONTINUOUS
 62
4
 10
555.923171972532
 20
283.81150343597
 40
3.25
  0
CIRCLE
  8
DIMENSION
  6
CONTINUOUS
 62
4
 10
731.923171972532
 20
283.81150343597
 40
3.25
  0
LINE
  8
DIMENSION
  6
BYLAYER
 62
250
 10
761.115559194814
 20
269.741473254666
 11
752.051070861273
 21
269.741473254666
  0
ARC
  8
DIMENSION
  6
BYLAYER
 62
250
 10
761.390914359906
 20
271.924173310344
 40
2.19999999999996
 50
262.809921246316
 51
355.236358309273
  0
LINE
  8
DIMENSION
  6
BYLAYER
 62
250
 10
764.083315028044
 20
277.741473254666
 11
763.583315028045
 21
271.741473254666
  0
ARC
  8
DIMENSION
  6
BYLAYER
 62
250
 10
751.775715696183
 20
271.924173310344
 40
2.20000000000005
 50
184.763641690727
 51
277.190078753658
  0
LINE
  8
DIMENSION
  6
BYLAYER
 62
250
 10
749.083315028045
 20
277.741473254666
 11
749.583315028044
 21
271.741473254666
  0
LINE
  8
DIMENSION
  6
BYLAYER
 62
250
 10
536.115559194814
 20
269.782805967559
 11
527.051070861273
 21
269.782805967559
  0
ARC
  8
DIMENSION
  6
BYLAYER
 62
250
 10
536.390914359906
 20
271.965506023237
 40
2.19999999999996
 50
262.809921246315
 51
355.236358309273
  0
LINE
  8
DIMENSION
  6
BYLAYER
 62
250
 10
539.083315028044
 20
277.782805967559
 11
538.583315028045
 21
271.782805967559
  0
ARC
  8
DIMENSION
  6
BYLAYER
 62
250
 10
526.775715696182
 20
271.965506023237
 40
2.20000000000005
 50
184.763641690727
 51
277.190078753658
  0
LINE
  8
DIMENSION
  6
BYLAYER
 62
250
 10
524.083315028045
 20
277.782805967559
 11
524.583315028044
 21
271.782805967559
  0
LINE
  8
$DDT_AUDIT_GENERATED__27_
  6
CONTINUOUS
 62
250
 10
515.422673684303
 20
342.326911344726
 11
515.422673684303
 21
380.326911344726
  0
LINE
  8
$DDT_AUDIT_GENERATED__27_
  6
CONTINUOUS
 62
250
 10
516.42317197253
 20
344.326911344726
 11
515.422673684303
 21
344.326911344726
  0
LINE
  8
$DDT_AUDIT_GENERATED__27_
  6
BYLAYER
 62
250
 10
515.422673684303
 20
342.326911344726
 11
505.422673684302
 21
342.326911344726
  0
LINE
  8
$DDT_AUDIT_GENERATED__27_
  6
BYLAYER
 62
250
 10
515.422673684303
 20
382.326911344726
 11
505.422673684302
 21
382.326911344726
  0
LINE
  8
$DDT_AUDIT_GENERATED__27_
  6
CONTINUOUS
 62
250
 10
515.422673684303
 20
380.326911344726
 11
516.42317197253
 21
380.326911344726
  0
LINE
  8
$DDT_AUDIT_GENERATED__27_
  6
CONTINUOUS
 62
250
 10
515.422673684303
 20
380.326911344726
 11
515.422673684303
 21
382.326911344726
  0
LINE
  8
0
  6
BYLAYER
 62
250
 10
505.422673684302
 20
382.326911344726
 11
505.422673684302
 21
342.326911344726
  0
LINE
  8
$DDT_AUDIT_GENERATED__27_
  6
CONTINUOUS
 62
250
 10
498.711240075121
 20
352.2473129493
 11
505.566673684303
 21
352.2473129493
  0
LINE
  8
$DDT_AUDIT_GENERATED__27_
  6
CONTINUOUS
 62
250
 10
498.711240075121
 20
352.2473129493
 11
498.51124007512
 21
352.4473129493
  0
LINE
  8
$DDT_AUDIT_GENERATED__27_
  6
CONTINUOUS
 62
250
 10
498.711240075121
 20
372.2473129493
 11
498.51124007512
 21
372.047312949299
  0
LINE
  8
$DDT_AUDIT_GENERATED__27_
  6
CONTINUOUS
 62
250
 10
498.51124007512
 20
368.7473129493
 11
498.51124007512
 21
355.7473129493
  0
LINE
  8
$DDT_AUDIT_GENERATED__27_
  6
CONTINUOUS
 62
250
 10
498.51124007512
 20
372.047312949299
 11
498.51124007512
 21
368.7473129493
  0
LINE
  8
$DDT_AUDIT_GENERATED__27_
  6
CONTINUOUS
 62
250
 10
498.51124007512
 20
355.7473129493
 11
498.51124007512
 21
352.4473129493
  0
LINE
  8
$DDT_AUDIT_GENERATED__27_
  6
CONTINUOUS
 62
250
 10
505.566673684303
 20
372.2473129493
 11
498.711240075121
 21
372.2473129493
  0
LINE
  8
シリズム2
  6
BYLAYER
 62
250
 10
370.842543033737
 20
751.185281374242
 11
370.842543033737
 21
496.185281374242
  0
LINE
  8
シリズム2
  6
BYLAYER
 62
250
 10
195.842543033737
 20
751.185281374242
 11
195.842543033737
 21
496.185281374242
  0
LINE
  8
シリズム2
  6
BYLAYER
 62
250
 10
370.842543033737
 20
496.185281374242
 11
195.842543033737
 21
496.185281374242
  0
LINE
  8
シリズム2
  6
BYLAYER
 62
250
 10
370.842543033737
 20
751.185281374242
 11
195.842543033737
 21
751.185281374242
  0
CIRCLE
  8
0
  6
BYBLOCK
 62
250
 10
300.872873397998
 20
362.31150343597
 40
20
  0
CIRCLE
  8
$DDT_AUDIT_GENERATED__27_
  6
CONTINUOUS
 62
250
 10
313.863254459143
 20
354.811503442667
 40
1.09999999999994
  0
CIRCLE
  8
$DDT_AUDIT_GENERATED__27_
  6
CONTINUOUS
 62
250
 10
287.88249234561
 20
354.811503442667
 40
1.10000000000002
  0
CIRCLE
  8
$DDT_AUDIT_GENERATED__27_
  6
CONTINUOUS
 62
250
 10
300.872873402377
 20
377.311503442668
 40
1.10000000000002
  0
CIRCLE
  8
LAYER3
  6
CONTINUOUS
 62
250
 10
287.88249234561
 20
354.811503442667
 40
1.99999999999997
  0
CIRCLE
  8
LAYER3
  6
CONTINUOUS
 62
250
 10
313.863254459143
 20
354.811503442667
 40
2.00000000000001
  0
CIRCLE
  8
LAYER3
  6
CONTINUOUS
 62
250
 10
300.872873402377
 20
377.311503442668
 40
1.99999999999997
  0
LINE
  8
DIMENSION
  6
BYLAYER
 62
250
 10
913.024063295084
 20
419.81150343597
 11
941.024063295084
 21
419.81150343597
  0
ARC
  8
DIMENSION
  6
BYLAYER
 62
250
 10
985.024063295082
 20
417.81150343597
 40
1.5
 50
89.9999999999886
 51
180.000000000002
  0
LINE
  8
DIMENSION
  6
BYLAYER
 62
250
 10
985.024063295082
 20
419.81150343597
 11
985.024063295082
 21
417.81150343597
  0
LINE
  8
DIMENSION
  6
BYLAYER
 62
250
 10
993.524063295084
 20
419.81150343597
 11
993.524063295084
 21
417.81150343597
  0
LINE
  8
DIMENSION
  6
BYLAYER
 62
250
 10
932.524063295084
 20
419.81150343597
 11
932.524063295084
 21
417.81150343597
  0
LINE
  8
DIMENSION
  6
BYLAYER
 62
250
 10
985.024063295082
 20
419.811503435971
 11
1013.02406329508
 21
419.811503435971
  0
ARC
  8
DIMENSION
  6
BYLAYER
 62
250
 10
1013.02406329508
 20
417.811503435971
 40
1.5
 50
-1.62844399690932E-12
 51
89.9999999999984
  0
LINE
  8
DIMENSION
  6
BYLAYER
 62
250
 10
993.524063295084
 20
419.811503435971
 11
993.524063295084
 21
417.811503435971
  0
LINE
  8
DIMENSION
  6
BYLAYER
 62
250
 10
1013.02406329508
 20
419.81150343597
 11
1013.02406329508
 21
417.811503435971
  0
LINE
  8
DIMENSION
  6
BYLAYER
 62
250
 10
1004.52406329508
 20
419.81150343597
 11
1004.52406329508
 21
417.811503435971
  0
ARC
  8
DIMENSION
  6
BYLAYER
 62
250
 10
941.024063295084
 20
417.811503435971
 40
1.5
 50
-1.62844399690932E-12
 51
89.9999999999984
  0
LINE
  8
DIMENSION
  6
BYLAYER
 62
250
 10
941.024063295084
 20
419.81150343597
 11
941.024063295084
 21
417.811503435971
  0
LINE
  8
DIMENSION
  6
BYLAYER
 62
250
 10
932.524063295084
 20
419.81150343597
 11
932.524063295084
 21
417.811503435971
  0
ARC
  8
DIMENSION
  6
BYLAYER
 62
250
 10
913.024063295084
 20
417.81150343597
 40
1.50000000000009
 50
89.999999999987
 51
180
  0
LINE
  8
DIMENSION
  6
BYLAYER
 62
250
 10
913.024063295084
 20
419.81150343597
 11
913.024063295084
 21
417.81150343597
  0
LINE
  8
DIMENSION
  6
BYLAYER
 62
250
 10
921.524063295084
 20
419.81150343597
 11
921.524063295084
 21
417.81150343597
  0
LINE
  8
DIMENSION
  6
BYLAYER
 62
250
 10
921.524063295084
 20
419.81150343597
 11
921.524063295084
 21
417.81150343597
  0
LINE
  8
DIMENSION
  6
BYLAYER
 62
250
 10
746.42317197253
 20
417.81150343597
 11
746.42317197253
 21
394.81150343597
  0
LINE
  8
DIMENSION
  6
BYLAYER
 62
250
 10
635.423171972531
 20
417.81150343597
 11
635.423171972531
 21
415.81150343597
  0
LINE
  8
DIMENSION
  6
BYLAYER
 62
250
 10
635.423171972531
 20
415.81150343597
 11
641.188805721826
 21
394.293865345765
  0
LINE
  8
DIMENSION
  6
BYLAYER
 62
250
 10
746.12317197253
 20
415.81150343597
 11
746.42317197253
 21
415.81150343597
  0
LINE
  8
DIMENSION
  6
BYLAYER
 62
250
 10
746.12317197253
 20
414.81150343597
 11
746.42317197253
 21
414.81150343597
  0
ARC
  8
DIMENSION
  6
BYLAYER
 62
250
 10
744.42317197253
 20
394.81150343597
 40
1.99999999999997
 50
270.000000000001
 51
1.22133299768201E-12
  0
ARC
  8
DIMENSION
  6
BYLAYER
 62
250
 10
643.120657374404
 20
394.81150343597
 40
1.99999999999997
 50
194.999999999999
 51
270.000000000001
  0
LINE
  8
DIMENSION
  6
BYLAYER
 62
250
 10
643.120657374404
 20
392.81150343597
 11
744.42317197253
 21
392.81150343597
  0
LINE
  8
DIMENSION
  6
BYLAYER
 62
250
 10
746.12317197253
 20
417.81150343597
 11
635.723171972531
 21
417.811503435971
  0
LINE
  8
DIMENSION
  6
BYLAYER
 62
250
 10
744.123171972531
 20
393.01150343597
 11
643.367067535917
 21
393.011503435971
  0
LINE
  8
DIMENSION
  6
BYLAYER
 62
250
 10
635.723171972531
 20
417.811503435971
 11
635.723171972531
 21
415.811503435971
  0
LINE
  8
DIMENSION
  6
BYLAYER
 62
250
 10
746.12317197253
 20
417.81150343597
 11
746.12317197253
 21
395.01150343597
  0
LINE
  8
DIMENSION
  6
BYLAYER
 62
250
 10
635.723171972531
 20
415.811503435971
 11
641.43521588334
 21
394.493865345766
  0
ARC
  8
DIMENSION
  6
BYLAYER
 62
250
 10
744.123171972531
 20
395.01150343597
 40
2.00000000000006
 50
270
 51
0
  0
ARC
  8
DIMENSION
  6
BYLAYER
 62
250
 10
643.367067535917
 20
395.01150343597
 40
1.99999999999997
 50
194.999999999998
 51
270
  0
LINE
  8
DIMENSION
  6
BYLAYER
 62
250
 10
711.72317197253
 20
423.81150343597
 11
711.72317197253
 21
417.81150343597
  0
LINE
  8
DIMENSION
  6
BYLAYER
 62
250
 10
686.723171972531
 20
423.81150343597
 11
686.723171972531
 21
417.81150343597
  0
LINE
  8
DIMENSION
  6
BYLAYER
 62
250
 10
661.723171972531
 20
423.81150343597
 11
661.723171972531
 21
417.81150343597
  0
ARC
  8
DIMENSION
  6
BYLAYER
 62
250
 10
707.115476817943
 20
411.81150343597
 40
12
 50
90.0000000000002
 51
149.999999999994
  0
LINE
  8
DIMENSION
  6
BYLAYER
 62
250
 10
711.72317197253
 20
423.81150343597
 11
707.115476817943
 21
423.81150343597
  0
ARC
  8
DIMENSION
  6
BYLAYER
 62
250
 10
682.115476817944
 20
411.81150343597
 40
12
 50
90.0000000000002
 51
149.999999999992
  0
LINE
  8
DIMENSION
  6
BYLAYER
 62
250
 10
686.723171972531
 20
423.81150343597
 11
682.115476817944
 21
423.81150343597
  0
ARC
  8
DIMENSION
  6
BYLAYER
 62
250
 10
657.115476817944
 20
411.81150343597
 40
12
 50
90.0000000000002
 51
149.999999999992
  0
LINE
  8
DIMENSION
  6
BYLAYER
 62
250
 10
661.723171972531
 20
423.81150343597
 11
657.115476817944
 21
423.81150343597
  0
LINE
  8
DIMENSION
  6
BYLAYER
 62
250
 10
711.72317197253
 20
423.81150343597
 11
707.115476817943
 21
423.81150343597
  0
LINE
  8
DIMENSION
  6
BYLAYER
 62
250
 10
686.723171972531
 20
423.81150343597
 11
682.115476817944
 21
423.81150343597
  0
LINE
  8
DIMENSION
  6
BYLAYER
 62
250
 10
661.723171972531
 20
423.81150343597
 11
657.115476817944
 21
423.81150343597
  0
ARC
  8
DIMENSION
  6
BYLAYER
 62
250
 10
743.97317197253
 20
417.81150343597
 40
1.49999999999991
 50
0
 51
180
  0
ARC
  8
DIMENSION
  6
BYLAYER
 62
250
 10
743.97317197253
 20
417.81150343597
 40
1.99999999999997
 50
0
 51
180
  0
CIRCLE
  8
DIMENSION
  6
BYLAYER
 62
250
 10
909.524050113086
 20
297.47587045283
 40
2.19999999999996
  0
LINE
  8
DIMENSION
  6
BYLAYER
 62
250
 10
909.024050113086
 20
299.412362125934
 11
909.024050113086
 21
298.27587045283
  0
LINE
  8
DIMENSION
  6
BYLAYER
 62
250
 10
910.024050113086
 20
299.412362125934
 11
910.024050113086
 21
298.27587045283
  0
ARC
  8
DIMENSION
  6
BYLAYER
 62
250
 10
909.524050113086
 20
297.47587045283
 40
1.99999999999997
 50
255.52248781407
 51
284.477512185956
  0
LINE
  8
DIMENSION
  6
BYLAYER
 62
250
 10
907.587558439981
 20
296.97587045283
 11
908.724050113085
 21
296.97587045283
  0
LINE
  8
DIMENSION
  6
BYLAYER
 62
250
 10
907.587558439981
 20
297.97587045283
 11
908.724050113085
 21
297.97587045283
  0
ARC
  8
DIMENSION
  6
BYLAYER
 62
250
 10
909.524050113086
 20
297.47587045283
 40
1.99999999999997
 50
165.522487814071
 51
194.477512185929
  0
ARC
  8
DIMENSION
  6
BYLAYER
 62
250
 10
908.724050113085
 20
298.27587045283
 40
0.299999999999983
 50
270
 51
0
  0
LINE
  8
DIMENSION
  6
BYLAYER
 62
250
 10
909.024050113086
 20
296.67587045283
 11
909.024050113086
 21
295.539378779726
  0
ARC
  8
DIMENSION
  6
BYLAYER
 62
250
 10
908.724050113085
 20
296.67587045283
 40
0.299999999999983
 50
0
 51
90
  0
ARC
  8
DIMENSION
  6
BYLAYER
 62
250
 10
909.524050113086
 20
297.47587045283
 40
1.99999999999997
 50
345.522487814071
 51
14.4775121859287
  0
ARC
  8
DIMENSION
  6
BYLAYER
 62
250
 10
910.324050113085
 20
298.27587045283
 40
0.299999999999983
 50
180
 51
270
  0
LINE
  8
DIMENSION
  6
BYLAYER
 62
250
 10
910.324050113085
 20
297.97587045283
 11
911.460541786189
 21
297.97587045283
  0
LINE
  8
DIMENSION
  6
BYLAYER
 62
250
 10
910.324050113085
 20
296.97587045283
 11
911.460541786189
 21
296.97587045283
  0
LINE
  8
DIMENSION
  6
BYLAYER
 62
250
 10
910.024050113086
 20
296.67587045283
 11
910.024050113086
 21
295.539378779726
  0
ARC
  8
DIMENSION
  6
BYLAYER
 62
250
 10
910.324050113085
 20
296.67587045283
 40
0.299999999999983
 50
90
 51
180
  0
ARC
  8
DIMENSION
  6
BYLAYER
 62
250
 10
909.524050113086
 20
297.47587045283
 40
1.99999999999997
 50
75.5224878140439
 51
104.47751218593
  0
CIRCLE
  8
DIMENSION
  6
BYLAYER
 62
250
 10
909.524050113086
 20
337.47587045283
 40
2.19999999999996
  0
LINE
  8
DIMENSION
  6
BYLAYER
 62
250
 10
909.093502613086
 20
339.412362125934
 11
909.093502613086
 21
338.27587045283
  0
LINE
  8
DIMENSION
  6
BYLAYER
 62
250
 10
910.093502613086
 20
339.412362125934
 11
910.093502613086
 21
338.27587045283
  0
ARC
  8
DIMENSION
  6
BYLAYER
 62
250
 10
909.593502613085
 20
337.47587045283
 40
1.99999999999997
 50
255.52248781407
 51
284.477512185956
  0
LINE
  8
DIMENSION
  6
BYLAYER
 62
250
 10
907.657010939982
 20
336.97587045283
 11
908.793502613086
 21
336.97587045283
  0
LINE
  8
DIMENSION
  6
BYLAYER
 62
250
 10
907.657010939982
 20
337.97587045283
 11
908.793502613086
 21
337.97587045283
  0
ARC
  8
DIMENSION
  6
BYLAYER
 62
250
 10
909.593502613085
 20
337.47587045283
 40
1.99999999999997
 50
165.522487814071
 51
194.477512185929
  0
ARC
  8
DIMENSION
  6
BYLAYER
 62
250
 10
908.793502613086
 20
338.27587045283
 40
0.299999999999983
 50
270
 51
0
  0
LINE
  8
DIMENSION
  6
BYLAYER
 62
250
 10
909.093502613086
 20
336.67587045283
 11
909.093502613086
 21
335.539378779726
  0
ARC
  8
DIMENSION
  6
BYLAYER
 62
250
 10
908.793502613086
 20
336.67587045283
 40
0.299999999999983
 50
0
 51
90
  0
ARC
  8
DIMENSION
  6
BYLAYER
 62
250
 10
909.593502613085
 20
337.47587045283
 40
1.99999999999997
 50
345.522487814071
 51
14.4775121859287
  0
ARC
  8
DIMENSION
  6
BYLAYER
 62
250
 10
910.393502613085
 20
338.27587045283
 40
0.299999999999983
 50
180
 51
270
  0
LINE
  8
DIMENSION
  6
BYLAYER
 62
250
 10
910.393502613085
 20
337.97587045283
 11
911.52999428619
 21
337.97587045283
  0
LINE
  8
DIMENSION
  6
BYLAYER
 62
250
 10
910.393502613085
 20
336.97587045283
 11
911.52999428619
 21
336.97587045283
  0
LINE
  8
DIMENSION
  6
BYLAYER
 62
250
 10
910.093502613086
 20
336.67587045283
 11
910.093502613086
 21
335.539378779726
  0
ARC
  8
DIMENSION
  6
BYLAYER
 62
250
 10
910.393502613085
 20
336.67587045283
 40
0.299999999999983
 50
90
 51
180
  0
ARC
  8
DIMENSION
  6
BYLAYER
 62
250
 10
909.593502613085
 20
337.47587045283
 40
1.99999999999997
 50
75.5224878140439
 51
104.47751218593
  0
LINE
  8
DIMENSION
  6
CONTINUOUS
 62
250
 10
731.423171972532
 20
285.747995109074
 11
731.423171972532
 21
284.61150343597
  0
LINE
  8
DIMENSION
  6
CONTINUOUS
 62
250
 10
732.423171972532
 20
285.747995109074
 11
732.423171972532
 21
284.61150343597
  0
ARC
  8
DIMENSION
  6
CONTINUOUS
 62
250
 10
731.923171972532
 20
283.81150343597
 40
2
 50
255.52248781407
 51
284.477512185957
  0
LINE
  8
DIMENSION
  6
CONTINUOUS
 62
250
 10
729.986680299428
 20
283.31150343597
 11
731.123171972532
 21
283.31150343597
  0
LINE
  8
DIMENSION
  6
CONTINUOUS
 62
250
 10
729.986680299428
 20
284.31150343597
 11
731.123171972532
 21
284.31150343597
  0
ARC
  8
DIMENSION
  6
CONTINUOUS
 62
250
 10
731.923171972532
 20
283.81150343597
 40
2
 50
165.522487814071
 51
194.477512185928
  0
ARC
  8
DIMENSION
  6
CONTINUOUS
 62
250
 10
731.123171972531
 20
284.61150343597
 40
0.3
 50
270
 51
0
  0
LINE
  8
DIMENSION
  6
CONTINUOUS
 62
250
 10
731.423171972532
 20
283.01150343597
 11
731.423171972532
 21
281.875011762866
  0
ARC
  8
DIMENSION
  6
CONTINUOUS
 62
250
 10
731.123171972532
 20
283.01150343597
 40
0.3
 50
0
 51
90
  0
ARC
  8
DIMENSION
  6
CONTINUOUS
 62
250
 10
731.923171972532
 20
283.81150343597
 40
2
 50
345.522487814071
 51
14.4775121859287
  0
ARC
  8
DIMENSION
  6
CONTINUOUS
 62
250
 10
732.723171972532
 20
284.61150343597
 40
0.3
 50
180
 51
270
  0
LINE
  8
DIMENSION
  6
CONTINUOUS
 62
250
 10
732.723171972532
 20
284.31150343597
 11
733.859663645635
 21
284.31150343597
  0
LINE
  8
DIMENSION
  6
CONTINUOUS
 62
250
 10
732.723171972532
 20
283.31150343597
 11
733.859663645635
 21
283.31150343597
  0
LINE
  8
DIMENSION
  6
CONTINUOUS
 62
250
 10
732.423171972532
 20
283.01150343597
 11
732.423171972532
 21
281.875011762867
  0
ARC
  8
DIMENSION
  6
CONTINUOUS
 62
250
 10
732.723171972532
 20
283.01150343597
 40
0.3
 50
90
 51
180
  0
ARC
  8
DIMENSION
  6
CONTINUOUS
 62
250
 10
731.923171972532
 20
283.81150343597
 40
2
 50
75.5224878140433
 51
104.47751218593
  0
CIRCLE
  8
0
  6
CONTINUOUS
 62
4
 10
731.923171972532
 20
283.81150343597
 40
3
  0
LINE
  8
DIMENSION
  6
CONTINUOUS
 62
250
 10
555.423171972531
 20
285.747995109074
 11
555.423171972531
 21
284.61150343597
  0
LINE
  8
DIMENSION
  6
CONTINUOUS
 62
250
 10
556.423171972532
 20
285.747995109074
 11
556.423171972531
 21
284.61150343597
  0
ARC
  8
DIMENSION
  6
CONTINUOUS
 62
250
 10
555.923171972531
 20
283.81150343597
 40
2
 50
255.52248781407
 51
284.477512185957
  0
LINE
  8
DIMENSION
  6
CONTINUOUS
 62
250
 10
553.986680299428
 20
283.31150343597
 11
555.123171972532
 21
283.31150343597
  0
LINE
  8
DIMENSION
  6
CONTINUOUS
 62
250
 10
553.986680299428
 20
284.31150343597
 11
555.123171972532
 21
284.31150343597
  0
ARC
  8
DIMENSION
  6
CONTINUOUS
 62
250
 10
555.923171972531
 20
283.81150343597
 40
2
 50
165.522487814071
 51
194.477512185928
  0
ARC
  8
DIMENSION
  6
CONTINUOUS
 62
250
 10
555.123171972531
 20
284.61150343597
 40
0.3
 50
270
 51
0
  0
LINE
  8
DIMENSION
  6
CONTINUOUS
 62
250
 10
555.423171972531
 20
283.01150343597
 11
555.423171972531
 21
281.875011762866
  0
ARC
  8
DIMENSION
  6
CONTINUOUS
 62
250
 10
555.123171972532
 20
283.01150343597
 40
0.3
 50
0
 51
90
  0
ARC
  8
DIMENSION
  6
CONTINUOUS
 62
250
 10
555.923171972531
 20
283.81150343597
 40
2
 50
345.522487814071
 51
14.4775121859287
  0
ARC
  8
DIMENSION
  6
CONTINUOUS
 62
250
 10
556.723171972532
 20
284.61150343597
 40
0.3
 50
180
 51
270
  0
LINE
  8
DIMENSION
  6
CONTINUOUS
 62
250
 10
556.723171972532
 20
284.31150343597
 11
557.859663645635
 21
284.31150343597
  0
LINE
  8
DIMENSION
  6
CONTINUOUS
 62
250
 10
556.723171972532
 20
283.31150343597
 11
557.859663645635
 21
283.31150343597
  0
LINE
  8
DIMENSION
  6
CONTINUOUS
 62
250
 10
556.423171972531
 20
283.01150343597
 11
556.423171972532
 21
281.875011762866
  0
ARC
  8
DIMENSION
  6
CONTINUOUS
 62
250
 10
556.723171972532
 20
283.01150343597
 40
0.3
 50
90
 51
180
  0
ARC
  8
DIMENSION
  6
CONTINUOUS
 62
250
 10
555.923171972531
 20
283.81150343597
 40
2
 50
75.5224878140433
 51
104.47751218593
  0
CIRCLE
  8
0
  6
CONTINUOUS
 62
4
 10
555.923171972531
 20
283.81150343597
 40
3
  0
LINE
  8
DIMENSION
  6
CONTINUOUS
 62
250
 10
521.92317197253
 20
354.747995109074
 11
521.92317197253
 21
353.61150343597
  0
LINE
  8
DIMENSION
  6
CONTINUOUS
 62
250
 10
522.923171972531
 20
354.747995109074
 11
522.92317197253
 21
353.61150343597
  0
ARC
  8
DIMENSION
  6
CONTINUOUS
 62
250
 10
522.42317197253
 20
352.81150343597
 40
2
 50
255.52248781407
 51
284.477512185957
  0
LINE
  8
DIMENSION
  6
CONTINUOUS
 62
250
 10
520.486680299427
 20
352.31150343597
 11
521.623171972531
 21
352.31150343597
  0
LINE
  8
DIMENSION
  6
CONTINUOUS
 62
250
 10
520.486680299427
 20
353.31150343597
 11
521.623171972531
 21
353.31150343597
  0
ARC
  8
DIMENSION
  6
CONTINUOUS
 62
250
 10
522.42317197253
 20
352.81150343597
 40
2
 50
165.522487814071
 51
194.477512185928
  0
ARC
  8
DIMENSION
  6
CONTINUOUS
 62
250
 10
521.62317197253
 20
353.61150343597
 40
0.3
 50
270
 51
0
  0
LINE
  8
DIMENSION
  6
CONTINUOUS
 62
250
 10
521.92317197253
 20
352.01150343597
 11
521.92317197253
 21
350.875011762866
  0
ARC
  8
DIMENSION
  6
CONTINUOUS
 62
250
 10
521.623171972531
 20
352.01150343597
 40
0.3
 50
0
 51
90
  0
ARC
  8
DIMENSION
  6
CONTINUOUS
 62
250
 10
522.42317197253
 20
352.81150343597
 40
2
 50
345.522487814071
 51
14.4775121859287
  0
ARC
  8
DIMENSION
  6
CONTINUOUS
 62
250
 10
523.223171972531
 20
353.61150343597
 40
0.3
 50
180
 51
270
  0
LINE
  8
DIMENSION
  6
CONTINUOUS
 62
250
 10
523.223171972531
 20
353.31150343597
 11
524.359663645634
 21
353.31150343597
  0
LINE
  8
DIMENSION
  6
CONTINUOUS
 62
250
 10
523.223171972531
 20
352.31150343597
 11
524.359663645634
 21
352.31150343597
  0
LINE
  8
DIMENSION
  6
CONTINUOUS
 62
250
 10
522.92317197253
 20
352.01150343597
 11
522.923171972531
 21
350.875011762867
  0
ARC
  8
DIMENSION
  6
CONTINUOUS
 62
250
 10
523.223171972531
 20
352.01150343597
 40
0.3
 50
90
 51
180
  0
ARC
  8
DIMENSION
  6
CONTINUOUS
 62
250
 10
522.42317197253
 20
352.81150343597
 40
2
 50
75.5224878140433
 51
104.47751218593
  0
CIRCLE
  8
0
  6
CONTINUOUS
 62
4
 10
522.42317197253
 20
352.81150343597
 40
3
  0
LINE
  8
DIMENSION
  6
CONTINUOUS
 62
250
 10
764.92317197253
 20
354.747995109074
 11
764.92317197253
 21
353.61150343597
  0
LINE
  8
DIMENSION
  6
CONTINUOUS
 62
250
 10
765.923171972531
 20
354.747995109074
 11
765.92317197253
 21
353.61150343597
  0
ARC
  8
DIMENSION
  6
CONTINUOUS
 62
250
 10
765.42317197253
 20
352.81150343597
 40
2
 50
255.52248781407
 51
284.477512185957
  0
LINE
  8
DIMENSION
  6
CONTINUOUS
 62
250
 10
763.486680299427
 20
352.31150343597
 11
764.623171972531
 21
352.31150343597
  0
LINE
  8
DIMENSION
  6
CONTINUOUS
 62
250
 10
763.486680299427
 20
353.31150343597
 11
764.623171972531
 21
353.31150343597
  0
ARC
  8
DIMENSION
  6
CONTINUOUS
 62
250
 10
765.42317197253
 20
352.81150343597
 40
2
 50
165.522487814071
 51
194.477512185928
  0
ARC
  8
DIMENSION
  6
CONTINUOUS
 62
250
 10
764.62317197253
 20
353.61150343597
 40
0.3
 50
270
 51
0
  0
LINE
  8
DIMENSION
  6
CONTINUOUS
 62
250
 10
764.92317197253
 20
352.01150343597
 11
764.92317197253
 21
350.875011762866
  0
ARC
  8
DIMENSION
  6
CONTINUOUS
 62
250
 10
764.623171972531
 20
352.01150343597
 40
0.3
 50
0
 51
90
  0
ARC
  8
DIMENSION
  6
CONTINUOUS
 62
250
 10
765.42317197253
 20
352.81150343597
 40
2
 50
345.522487814071
 51
14.4775121859287
  0
ARC
  8
DIMENSION
  6
CONTINUOUS
 62
250
 10
766.223171972531
 20
353.61150343597
 40
0.3
 50
180
 51
270
  0
LINE
  8
DIMENSION
  6
CONTINUOUS
 62
250
 10
766.223171972531
 20
353.31150343597
 11
767.359663645634
 21
353.31150343597
  0
LINE
  8
DIMENSION
  6
CONTINUOUS
 62
250
 10
766.223171972531
 20
352.31150343597
 11
767.359663645634
 21
352.31150343597
  0
LINE
  8
DIMENSION
  6
CONTINUOUS
 62
250
 10
765.92317197253
 20
352.01150343597
 11
765.923171972531
 21
350.875011762867
  0
ARC
  8
DIMENSION
  6
CONTINUOUS
 62
250
 10
766.223171972531
 20
352.01150343597
 40
0.3
 50
90
 51
180
  0
ARC
  8
DIMENSION
  6
CONTINUOUS
 62
250
 10
765.42317197253
 20
352.81150343597
 40
2
 50
75.5224878140433
 51
104.47751218593
  0
CIRCLE
  8
0
  6
CONTINUOUS
 62
4
 10
765.42317197253
 20
352.81150343597
 40
3
  0
ARC
  8
DIMENSION
  6
BYLAYER
 62
250
 10
285.484813837389
 20
411.784401350103
 40
12
 50
29.9999999999975
 51
90
  0
ARC
  8
DIMENSION
  6
BYLAYER
 62
250
 10
276.269423528216
 20
411.784401350103
 40
12
 50
90
 51
138.189685104225
  0
LINE
  8
DIMENSION
  6
BYLAYER
 62
250
 10
276.269423528216
 20
423.784401350103
 11
285.484813837389
 21
423.784401350103
  0
ARC
  8
DIMENSION
  6
BYLAYER
 62
250
 10
325.48481383739
 20
411.784401350103
 40
10
 50
36.8698976458435
 51
37.0642496320491
  0
ARC
  8
DIMENSION
  6
BYLAYER
 62
250
 10
325.48481383739
 20
411.784401350103
 40
12
 50
29.9999999999975
 51
30.1495344602304
  0
ARC
  8
DIMENSION
  6
BYLAYER
 62
250
 10
316.269423528217
 20
411.784401350103
 40
12
 50
90
 51
138.189685104225
  0
LINE
  8
DIMENSION
  6
BYLAYER
 62
250
 10
316.269423528216
 20
423.784401350103
 11
325.48481383739
 21
423.784401350103
  0
ARC
  8
DIMENSION
  6
BYLAYER
 62
250
 10
316.269423528217
 20
411.784401350103
 40
12
 50
90
 51
150.000000000005
  0
ARC
  8
DIMENSION
  6
BYLAYER
 62
250
 10
325.48481383739
 20
411.784401350103
 40
12
 50
41.9841633116793
 51
90
  0
ARC
  8
DIMENSION
  6
BYLAYER
 62
250
 10
985.024050113084
 20
417.81150343597
 40
1.5
 50
89.9999999999886
 51
180.000000000002
  0
LINE
  8
DIMENSION
  6
BYLAYER
 62
250
 10
985.024050113084
 20
419.81150343597
 11
985.024050113084
 21
417.81150343597
  0
LINE
  8
DIMENSION
  6
BYLAYER
 62
250
 10
993.524050113084
 20
419.81150343597
 11
993.524050113084
 21
417.81150343597
  0
LINE
  8
DIMENSION
  6
BYLAYER
 62
250
 10
932.524050113084
 20
419.81150343597
 11
932.524050113084
 21
417.81150343597
  0
LINE
  8
DIMENSION
  6
BYLAYER
 62
250
 10
993.524050113084
 20
419.811503435971
 11
993.524050113084
 21
417.811503435971
  0
ARC
  8
DIMENSION
  6
BYLAYER
 62
250
 10
941.024050113084
 20
417.811503435971
 40
1.49999999999991
 50
-1.62844399690941E-12
 51
89.9999999999984
  0
LINE
  8
DIMENSION
  6
BYLAYER
 62
250
 10
941.024050113084
 20
419.81150343597
 11
941.024050113084
 21
417.811503435971
  0
LINE
  8
DIMENSION
  6
BYLAYER
 62
250
 10
932.524050113084
 20
419.81150343597
 11
932.524050113084
 21
417.811503435971
  0
ARC
  8
DIMENSION
  6
BYLAYER
 62
250
 10
947.631745267672
 20
411.784401350103
 40
10
 50
36.8698976458452
 51
90
  0
ARC
  8
DIMENSION
  6
BYLAYER
 62
250
 10
947.631745267672
 20
411.784401350103
 40
11.9999999999999
 50
29.9999999999987
 51
90
  0
ARC
  8
DIMENSION
  6
BYLAYER
 62
250
 10
938.416354958499
 20
411.784401350103
 40
11.9999999999999
 50
90
 51
138.189685104225
  0
ARC
  8
DIMENSION
  6
BYLAYER
 62
250
 10
938.416354958499
 20
411.784401350103
 40
10
 50
90
 51
126.869897645838
  0
LINE
  8
DIMENSION
  6
BYLAYER
 62
250
 10
947.631745267672
 20
421.784401350103
 11
938.416354958499
 21
421.784401350103
  0
LINE
  8
DIMENSION
  6
BYLAYER
 62
250
 10
938.416354958497
 20
423.784401350103
 11
947.631745267672
 21
423.784401350103
  0
ARC
  8
DIMENSION
  6
BYLAYER
 62
250
 10
987.631745267672
 20
411.784401350103
 40
9.99999999999994
 50
36.8698976458452
 51
37.0642496320476
  0
ARC
  8
DIMENSION
  6
BYLAYER
 62
250
 10
987.631745267672
 20
411.784401350103
 40
9.99999999999994
 50
53.3896931849659
 51
90
  0
ARC
  8
DIMENSION
  6
BYLAYER
 62
250
 10
987.631745267672
 20
411.784401350103
 40
12
 50
29.9999999999986
 51
30.1495344602298
  0
ARC
  8
DIMENSION
  6
BYLAYER
 62
250
 10
987.631745267672
 20
411.784401350103
 40
12
 50
41.9841633116785
 51
90
  0
ARC
  8
DIMENSION
  6
BYLAYER
 62
250
 10
978.416354958498
 20
411.784401350103
 40
12
 50
90
 51
138.189685104225
  0
ARC
  8
DIMENSION
  6
BYLAYER
 62
250
 10
978.416354958498
 20
411.784401350103
 40
10.0000000000001
 50
90
 51
126.869897645838
  0
LINE
  8
DIMENSION
  6
BYLAYER
 62
250
 10
987.631745267672
 20
421.784401350103
 11
978.416354958498
 21
421.784401350103
  0
LINE
  8
DIMENSION
  6
BYLAYER
 62
250
 10
978.416354958498
 20
423.784401350103
 11
987.631745267672
 21
423.784401350103
  0
ARC
  8
DIMENSION
  6
BYLAYER
 62
250
 10
978.416354958498
 20
411.784401350103
 40
10.0000000000001
 50
90
 51
143.130102354162
  0
ARC
  8
DIMENSION
  6
BYLAYER
 62
250
 10
978.416354958498
 20
411.784401350103
 40
12
 50
90
 51
150.000000000006
  0
LINE
  8
$DDT_AUDIT_GENERATED__27_
  6
CONTINUOUS
 62
250
 10
283.043004712327
 20
495.185281374242
 11
284.743004712327
 21
495.185281374242
  0
LINE
  8
$DDT_AUDIT_GENERATED__27_
  6
CONTINUOUS
 62
250
 10
282.843004712327
 20
496.185281374242
 11
282.843004712327
 21
495.185281374242
  0
LINE
  8
$DDT_AUDIT_GENERATED__27_
  6
CONTINUOUS
 62
250
 10
286.943004712327
 20
495.185281374242
 11
290.643004712327
 21
495.185281374242
  0
LINE
  8
$DDT_AUDIT_GENERATED__27_
  6
CONTINUOUS
 62
250
 10
318.843004712327
 20
495.185281374242
 11
318.843004712328
 21
496.185281374242
  0
LINE
  8
$DDT_AUDIT_GENERATED__27_
  6
CONTINUOUS
 62
250
 10
311.043004712327
 20
495.185281374242
 11
318.643004712328
 21
495.185281374242
  0
LINE
  8
$DDT_AUDIT_GENERATED__27_
  6
CONTINUOUS
 62
250
 10
290.643004712327
 20
495.185281374242
 11
311.043004712327
 21
495.185281374242
  0
LINE
  8
LAYER3
  6
CONTINUOUS
 62
250
 10
320.843004712327
 20
495.185281374242
 11
280.843004712327
 21
495.185281374242
  0
LINE
  8
LAYER3
  6
CONTINUOUS
 62
250
 10
320.843004712327
 20
485.185281374242
 11
320.843004712327
 21
495.185281374242
  0
LINE
  8
LAYER3
  6
CONTINUOUS
 62
250
 10
280.843004712327
 20
485.185281374242
 11
320.843004712327
 21
485.185281374242
  0
LINE
  8
LAYER3
  6
CONTINUOUS
 62
250
 10
280.843004712327
 20
495.185281374242
 11
280.843004712327
 21
485.185281374242
  0
LINE
  8
$DDT_AUDIT_GENERATED__27_
  6
CONTINUOUS
 62
250
 10
310.843004712329
 20
485.185281374242
 11
310.843004712329
 21
476.387664721594
  0
LINE
  8
$DDT_AUDIT_GENERATED__27_
  6
CONTINUOUS
 62
250
 10
294.343004712329
 20
476.187664721594
 11
291.043004712329
 21
476.187664721594
  0
LINE
  8
$DDT_AUDIT_GENERATED__27_
  6
CONTINUOUS
 62
250
 10
307.343004712329
 20
484.937664721594
 11
307.343004712329
 21
485.185281374242
  0
LINE
  8
$DDT_AUDIT_GENERATED__27_
  6
CONTINUOUS
 62
250
 10
310.643004712329
 20
476.187664721594
 11
307.343004712329
 21
476.187664721594
  0
LINE
  8
$DDT_AUDIT_GENERATED__27_
  6
CONTINUOUS
 62
250
 10
307.343004712329
 20
476.187664721594
 11
294.343004712329
 21
476.187664721594
  0
LINE
  8
$DDT_AUDIT_GENERATED__27_
  6
CONTINUOUS
 62
250
 10
307.343004712329
 20
484.687664721594
 11
307.343004712329
 21
484.937664721594
  0
LINE
  8
$DDT_AUDIT_GENERATED__27_
  6
CONTINUOUS
 62
250
 10
310.843004712329
 20
476.387664721594
 11
310.643004712329
 21
476.187664721594
  0
LINE
  8
$DDT_AUDIT_GENERATED__27_
  6
CONTINUOUS
 62
250
 10
290.843004712329
 20
476.387664721594
 11
291.043004712329
 21
476.187664721594
  0
LINE
  8
$DDT_AUDIT_GENERATED__27_
  6
CONTINUOUS
 62
250
 10
290.843004712329
 20
476.387664721594
 11
290.843004712329
 21
485.185281374242
  0
ARC
  8
$DDT_AUDIT_GENERATED__27_
  6
CONTINUOUS
 62
250
 10
300.843004712329
 20
486.187664721594
 40
1.24999999999997
 50
233.312564362584
 51
306.687435637416
  0
ARC
  8
$DDT_AUDIT_GENERATED__27_
  6
CONTINUOUS
 62
250
 10
300.843004712329
 20
486.187664721594
 40
1.5
 50
221.932570822132
 51
318.067429177868
  0
LINE
  8
DIMENSION
  6
BYLAYER
 62
250
 10
230.842543033737
 20
726.185281374242
 11
370.842543033737
 21
726.185281374239
  0
LINE
  8
DIMENSION
  6
BYLAYER
 62
250
 10
230.842543033737
 20
615.185281374243
 11
370.842543033737
 21
615.185281374243
  0
LINE
  8
DIMENSION
  6
BYLAYER
 62
250
 10
230.842543033737
 20
725.885281374238
 11
230.842543033739
 21
615.485281374238
  0
LINE
  8
DIMENSION
  6
BYLAYER
 62
250
 10
370.842543033737
 20
725.885281374238
 11
370.842543033738
 21
615.485281374239
  0
LINE
  8
DIMENSION
  6
BYLAYER
 62
250
 10
239.842543033738
 20
641.585281374238
 11
245.342543033738
 21
620.085281374238
  0
LINE
  8
DIMENSION
  6
BYLAYER
 62
250
 10
255.842543033738
 20
641.585281374238
 11
250.342543033738
 21
620.085281374238
  0
ARC
  8
DIMENSION
  6
BYLAYER
 62
250
 10
247.842543033739
 20
641.585281374238
 40
7.99999999999999
 50
0
 51
180
  0
LINE
  8
DIMENSION
  6
BYLAYER
 62
250
 10
250.342543033738
 20
620.085281374238
 11
245.342543033738
 21
620.085281374238
  0
LINE
  8
DIMENSION
  6
BYLAYER
 62
250
 10
345.842543033738
 20
641.585281374239
 11
351.342543033739
 21
620.085281374239
  0
LINE
  8
DIMENSION
  6
BYLAYER
 62
250
 10
361.842543033738
 20
641.585281374239
 11
356.342543033738
 21
620.085281374239
  0
ARC
  8
DIMENSION
  6
BYLAYER
 62
250
 10
353.842543033738
 20
641.585281374239
 40
8.00000000000001
 50
0
 51
180
  0
LINE
  8
DIMENSION
  6
BYLAYER
 62
250
 10
356.342543033738
 20
620.085281374239
 11
351.342543033739
 21
620.085281374239
  0
ARC
  8
DIMENSION
  6
BYLAYER
 62
250
 10
323.842543033737
 20
688.485281374238
 40
12
 50
270
 51
0
  0
ARC
  8
DIMENSION
  6
BYLAYER
 62
250
 10
317.842543033738
 20
688.485281374238
 40
12
 50
180
 51
270
  0
ARC
  8
DIMENSION
  6
BYLAYER
 62
250
 10
277.842543033739
 20
688.485281374238
 40
12
 50
180
 51
270
  0
ARC
  8
DIMENSION
  6
BYLAYER
 62
250
 10
283.842543033739
 20
688.485281374238
 40
12
 50
270
 51
0
  0
ARC
  8
DIMENSION
  6
BYLAYER
 62
250
 10
277.842543033739
 20
663.485281374238
 40
12
 50
180
 51
270
  0
ARC
  8
DIMENSION
  6
BYLAYER
 62
250
 10
317.842543033738
 20
663.485281374238
 40
12
 50
180
 51
270
  0
ARC
  8
DIMENSION
  6
BYLAYER
 62
250
 10
283.842543033739
 20
663.485281374238
 40
12
 50
270
 51
0
  0
ARC
  8
DIMENSION
  6
BYLAYER
 62
250
 10
323.842543033738
 20
663.485281374238
 40
12
 50
270
 51
0
  0
ARC
  8
DIMENSION
  6
BYLAYER
 62
250
 10
277.842543033739
 20
638.485281374238
 40
12
 50
180
 51
270
  0
ARC
  8
DIMENSION
  6
BYLAYER
 62
250
 10
317.842543033738
 20
638.485281374238
 40
12
 50
180
 51
270
  0
ARC
  8
DIMENSION
  6
BYLAYER
 62
250
 10
283.842543033739
 20
638.485281374238
 40
12
 50
270
 51
0
  0
ARC
  8
DIMENSION
  6
BYLAYER
 62
250
 10
323.842543033738
 20
638.485281374238
 40
12
 50
270
 51
0
  0
LINE
  8
DIMENSION
  6
BYLAYER
 62
250
 10
237.842543033738
 20
725.885281374238
 11
237.842543033738
 21
720.285281374238
  0
LINE
  8
DIMENSION
  6
BYLAYER
 62
250
 10
291.842543033737
 20
725.885281374238
 11
291.842543033737
 21
720.285281374238
  0
LINE
  8
DIMENSION
  6
BYLAYER
 62
250
 10
309.842543033737
 20
725.885281374238
 11
309.842543033737
 21
720.285281374238
  0
LINE
  8
DIMENSION
  6
BYLAYER
 62
250
 10
363.842543033737
 20
725.885281374238
 11
363.842543033737
 21
720.285281374238
  0
LINE
  8
DIMENSION
  6
BYLAYER
 62
250
 10
370.842543033737
 20
725.885281374238
 11
363.842543033737
 21
725.885281374238
  0
LINE
  8
DIMENSION
  6
BYLAYER
 62
250
 10
309.842543033737
 20
725.885281374238
 11
291.842543033737
 21
725.885281374238
  0
LINE
  8
DIMENSION
  6
BYLAYER
 62
250
 10
237.842543033738
 20
725.885281374238
 11
230.842543033737
 21
725.885281374238
  0
LINE
  8
DIMENSION
  6
BYLAYER
 62
250
 10
363.842543033737
 20
720.285281374239
 11
309.842543033737
 21
720.285281374238
  0
LINE
  8
DIMENSION
  6
BYLAYER
 62
250
 10
291.842543033738
 20
720.285281374238
 11
237.842543033738
 21
720.285281374237
  0
LINE
  8
DIMENSION
  6
BYLAYER
 62
250
 10
335.842543033738
 20
691.485281374238
 11
305.842543033738
 21
691.485281374238
  0
LINE
  8
DIMENSION
  6
BYLAYER
 62
250
 10
335.842543033738
 20
666.485281374238
 11
305.842543033738
 21
666.485281374238
  0
LINE
  8
DIMENSION
  6
BYLAYER
 62
250
 10
335.842543033738
 20
641.485281374238
 11
305.842543033738
 21
641.485281374238
  0
LINE
  8
DIMENSION
  6
BYLAYER
 62
250
 10
323.842543033737
 20
676.485281374238
 11
317.842543033738
 21
676.485281374238
  0
LINE
  8
DIMENSION
  6
BYLAYER
 62
250
 10
323.842543033738
 20
651.485281374238
 11
317.842543033738
 21
651.485281374238
  0
LINE
  8
DIMENSION
  6
BYLAYER
 62
250
 10
323.842543033738
 20
626.485281374238
 11
317.842543033738
 21
626.485281374238
  0
LINE
  8
DIMENSION
  6
BYLAYER
 62
250
 10
335.842543033738
 20
641.485281374238
 11
335.842543033738
 21
638.485281374238
  0
LINE
  8
DIMENSION
  6
BYLAYER
 62
250
 10
335.842543033738
 20
666.485281374238
 11
335.842543033738
 21
663.485281374238
  0
LINE
  8
DIMENSION
  6
BYLAYER
 62
250
 10
335.842543033738
 20
691.485281374238
 11
335.842543033738
 21
688.485281374238
  0
LINE
  8
DIMENSION
  6
BYLAYER
 62
250
 10
305.842543033738
 20
691.485281374238
 11
305.842543033738
 21
688.485281374238
  0
LINE
  8
DIMENSION
  6
BYLAYER
 62
250
 10
305.842543033738
 20
666.485281374238
 11
305.842543033738
 21
663.485281374238
  0
LINE
  8
DIMENSION
  6
BYLAYER
 62
250
 10
305.842543033738
 20
641.485281374238
 11
305.842543033738
 21
638.485281374238
  0
LINE
  8
DIMENSION
  6
BYLAYER
 62
250
 10
295.842543033739
 20
691.485281374238
 11
295.842543033739
 21
688.485281374238
  0
LINE
  8
DIMENSION
  6
BYLAYER
 62
250
 10
295.842543033739
 20
666.485281374238
 11
295.842543033739
 21
663.485281374238
  0
LINE
  8
DIMENSION
  6
BYLAYER
 62
250
 10
295.842543033739
 20
641.485281374238
 11
295.842543033739
 21
638.485281374238
  0
LINE
  8
DIMENSION
  6
BYLAYER
 62
250
 10
265.842543033739
 20
691.485281374238
 11
265.842543033739
 21
688.485281374238
  0
LINE
  8
DIMENSION
  6
BYLAYER
 62
250
 10
265.842543033739
 20
666.485281374238
 11
265.842543033739
 21
663.485281374238
  0
LINE
  8
DIMENSION
  6
BYLAYER
 62
250
 10
265.842543033739
 20
641.485281374238
 11
265.842543033739
 21
638.485281374238
  0
LINE
  8
DIMENSION
  6
BYLAYER
 62
250
 10
295.842543033739
 20
691.485281374238
 11
265.842543033739
 21
691.485281374238
  0
LINE
  8
DIMENSION
  6
BYLAYER
 62
250
 10
295.842543033739
 20
666.485281374238
 11
265.842543033739
 21
666.485281374238
  0
LINE
  8
DIMENSION
  6
BYLAYER
 62
250
 10
295.842543033739
 20
641.485281374238
 11
265.842543033739
 21
641.485281374238
  0
LINE
  8
DIMENSION
  6
BYLAYER
 62
250
 10
283.842543033739
 20
676.485281374238
 11
277.842543033739
 21
676.485281374238
  0
LINE
  8
DIMENSION
  6
BYLAYER
 62
250
 10
283.842543033739
 20
651.485281374238
 11
277.842543033739
 21
651.485281374238
  0
LINE
  8
DIMENSION
  6
BYLAYER
 62
250
 10
283.842543033739
 20
626.485281374238
 11
277.842543033739
 21
626.485281374238
  0
LINE
  8
DIMENSION
  6
BYLAYER
 62
250
 10
370.842543033738
 20
615.485281374239
 11
230.842543033739
 21
615.485281374238
  0
LINE
  8
DIMENSION
  6
BYLAYER
 62
250
 10
311.842543033738
 20
725.73528137424
 11
361.842543033737
 21
725.73528137424
  0
LINE
  8
DIMENSION
  6
BYLAYER
 62
250
 10
311.842543033738
 20
726.18528137424
 11
311.842543033738
 21
720.285281374241
  0
LINE
  8
DIMENSION
  6
BYLAYER
 62
250
 10
320.342543033738
 20
725.73528137424
 11
320.342543033738
 21
720.73528137424
  0
LINE
  8
DIMENSION
  6
BYLAYER
 62
250
 10
331.342543033738
 20
725.73528137424
 11
331.342543033738
 21
720.73528137424
  0
LINE
  8
DIMENSION
  6
BYLAYER
 62
250
 10
342.342543033739
 20
725.73528137424
 11
342.342543033739
 21
720.73528137424
  0
LINE
  8
DIMENSION
  6
BYLAYER
 62
250
 10
353.342543033737
 20
725.73528137424
 11
353.342543033738
 21
720.73528137424
  0
LINE
  8
DIMENSION
  6
BYLAYER
 62
250
 10
361.842543033737
 20
726.185281374241
 11
361.842543033738
 21
720.285281374241
  0
LINE
  8
DIMENSION
  6
BYLAYER
 62
250
 10
311.842543033738
 20
720.73528137424
 11
361.842543033737
 21
720.73528137424
  0
ARC
  8
DIMENSION
  6
BYLAYER
 62
250
 10
312.392543033739
 20
723.23528137424
 40
2.05000000000001
 50
105.562696764912
 51
254.437303235092
  0
ARC
  8
DIMENSION
  6
BYLAYER
 62
250
 10
361.292543033738
 20
723.23528137424
 40
2.05000000000001
 50
285.562696764926
 51
74.4373032351022
  0
LINE
  8
DIMENSION
  6
BYLAYER
 62
250
 10
239.842543033738
 20
725.735281374242
 11
289.842543033737
 21
725.735281374242
  0
LINE
  8
DIMENSION
  6
BYLAYER
 62
250
 10
239.842543033738
 20
726.185281374242
 11
239.842543033738
 21
720.285281374243
  0
LINE
  8
DIMENSION
  6
BYLAYER
 62
250
 10
248.342543033738
 20
725.735281374242
 11
248.342543033738
 21
720.735281374242
  0
LINE
  8
DIMENSION
  6
BYLAYER
 62
250
 10
259.342543033738
 20
725.735281374242
 11
259.342543033738
 21
720.735281374242
  0
LINE
  8
DIMENSION
  6
BYLAYER
 62
250
 10
270.342543033739
 20
725.735281374242
 11
270.342543033739
 21
720.735281374242
  0
LINE
  8
DIMENSION
  6
BYLAYER
 62
250
 10
281.342543033738
 20
725.735281374242
 11
281.342543033738
 21
720.735281374242
  0
LINE
  8
DIMENSION
  6
BYLAYER
 62
250
 10
289.842543033737
 20
726.185281374242
 11
289.842543033739
 21
720.285281374243
  0
LINE
  8
DIMENSION
  6
BYLAYER
 62
250
 10
239.842543033738
 20
720.735281374242
 11
289.842543033737
 21
720.735281374242
  0
ARC
  8
DIMENSION
  6
BYLAYER
 62
250
 10
240.392543033738
 20
723.235281374242
 40
2.04999999999999
 50
105.56269676491
 51
254.43730323509
  0
ARC
  8
DIMENSION
  6
BYLAYER
 62
250
 10
289.292543033738
 20
723.235281374242
 40
2.05000000000001
 50
285.562696764924
 51
74.4373032350998
  0
LINE
  8
DIMENSION
  6
BYLAYER
 62
250
 10
246.542543033739
 20
735.121773047345
 11
246.542543033739
 21
733.985281374241
  0
LINE
  8
DIMENSION
  6
BYLAYER
 62
250
 10
247.542543033739
 20
735.121773047345
 11
247.542543033739
 21
733.985281374241
  0
LINE
  8
DIMENSION
  6
BYLAYER
 62
250
 10
248.979034706841
 20
733.685281374241
 11
247.842543033739
 21
733.685281374241
  0
LINE
  8
DIMENSION
  6
BYLAYER
 62
250
 10
248.979034706841
 20
732.68528137424
 11
247.842543033739
 21
732.685281374241
  0
LINE
  8
DIMENSION
  6
BYLAYER
 62
250
 10
247.542543033739
 20
732.385281374241
 11
247.542543033739
 21
731.248789701137
  0
LINE
  8
DIMENSION
  6
BYLAYER
 62
250
 10
246.542543033739
 20
732.385281374241
 11
246.542543033739
 21
731.248789701137
  0
LINE
  8
DIMENSION
  6
BYLAYER
 62
250
 10
246.242543033738
 20
732.685281374241
 11
245.106051360635
 21
732.68528137424
  0
LINE
  8
DIMENSION
  6
BYLAYER
 62
250
 10
246.242543033738
 20
733.685281374241
 11
245.106051360635
 21
733.685281374241
  0
ARC
  8
DIMENSION
  6
BYLAYER
 62
250
 10
247.042543033739
 20
733.185281374241
 40
2.00000000000001
 50
165.522487814073
 51
194.477512185956
  0
ARC
  8
DIMENSION
  6
BYLAYER
 62
250
 10
247.042543033739
 20
733.185281374241
 40
2.00000000000001
 50
255.522487814073
 51
284.477512185932
  0
ARC
  8
DIMENSION
  6
BYLAYER
 62
250
 10
247.042543033739
 20
733.185281374241
 40
2.00000000000001
 50
75.5224878140726
 51
104.477512185932
  0
ARC
  8
DIMENSION
  6
BYLAYER
 62
250
 10
247.042543033739
 20
733.185281374241
 40
2.00000000000001
 50
345.522487814049
 51
14.4775121859323
  0
ARC
  8
DIMENSION
  6
BYLAYER
 62
250
 10
246.242543033738
 20
733.985281374241
 40
0.299999999999983
 50
269.999999999984
 51
-1.62844399690941E-11
  0
ARC
  8
DIMENSION
  6
BYLAYER
 62
250
 10
246.242543033738
 20
732.385281374241
 40
0.299999999999983
 50
0
 51
90
  0
ARC
  8
DIMENSION
  6
BYLAYER
 62
250
 10
247.842543033739
 20
732.385281374241
 40
0.300000000000004
 50
90
 51
180
  0
ARC
  8
DIMENSION
  6
BYLAYER
 62
250
 10
247.842543033739
 20
733.985281374241
 40
0.300000000000004
 50
179.999999999984
 51
269.999999999984
  0
CIRCLE
  8
DIMENSION
  6
BYLAYER
 62
250
 10
247.042543033739
 20
733.185281374241
 40
3.24999999999999
  0
CIRCLE
  8
DIMENSION
  6
BYLAYER
 62
250
 10
247.042543033739
 20
733.185281374241
 40
3
  0
LINE
  8
DIMENSION
  6
BYLAYER
 62
250
 10
282.142543033738
 20
735.121773047345
 11
282.142543033738
 21
733.985281374241
  0
LINE
  8
DIMENSION
  6
BYLAYER
 62
250
 10
283.142543033739
 20
735.121773047345
 11
283.142543033739
 21
733.985281374241
  0
LINE
  8
DIMENSION
  6
BYLAYER
 62
250
 10
284.579034706842
 20
733.685281374241
 11
283.442543033738
 21
733.685281374241
  0
LINE
  8
DIMENSION
  6
BYLAYER
 62
250
 10
284.579034706842
 20
732.68528137424
 11
283.442543033738
 21
732.685281374241
  0
LINE
  8
DIMENSION
  6
BYLAYER
 62
250
 10
283.142543033739
 20
732.385281374241
 11
283.142543033739
 21
731.248789701137
  0
LINE
  8
DIMENSION
  6
BYLAYER
 62
250
 10
282.142543033738
 20
732.385281374241
 11
282.142543033738
 21
731.248789701137
  0
LINE
  8
DIMENSION
  6
BYLAYER
 62
250
 10
281.842543033738
 20
732.685281374241
 11
280.706051360634
 21
732.68528137424
  0
LINE
  8
DIMENSION
  6
BYLAYER
 62
250
 10
281.842543033738
 20
733.685281374241
 11
280.706051360634
 21
733.685281374241
  0
ARC
  8
DIMENSION
  6
BYLAYER
 62
250
 10
282.642543033738
 20
733.185281374241
 40
2.00000000000001
 50
165.522487814073
 51
194.477512185956
  0
ARC
  8
DIMENSION
  6
BYLAYER
 62
250
 10
282.642543033738
 20
733.185281374241
 40
2.00000000000001
 50
255.522487814073
 51
284.477512185932
  0
ARC
  8
DIMENSION
  6
BYLAYER
 62
250
 10
282.642543033738
 20
733.185281374241
 40
2.00000000000001
 50
75.5224878140726
 51
104.477512185932
  0
ARC
  8
DIMENSION
  6
BYLAYER
 62
250
 10
282.642543033738
 20
733.185281374241
 40
2.00000000000001
 50
345.522487814049
 51
14.4775121859323
  0
ARC
  8
DIMENSION
  6
BYLAYER
 62
250
 10
281.842543033738
 20
733.985281374241
 40
0.300000000000004
 50
269.999999999984
 51
-1.6284439969093E-11
  0
ARC
  8
DIMENSION
  6
BYLAYER
 62
250
 10
281.842543033738
 20
732.385281374241
 40
0.300000000000004
 50
0
 51
90
  0
ARC
  8
DIMENSION
  6
BYLAYER
 62
250
 10
283.442543033738
 20
732.385281374241
 40
0.299999999999983
 50
90
 51
180
  0
ARC
  8
DIMENSION
  6
BYLAYER
 62
250
 10
283.442543033738
 20
733.985281374241
 40
0.299999999999983
 50
179.999999999984
 51
269.999999999984
  0
CIRCLE
  8
DIMENSION
  6
BYLAYER
 62
250
 10
282.642543033738
 20
733.185281374241
 40
3.24999999999999
  0
CIRCLE
  8
DIMENSION
  6
BYLAYER
 62
250
 10
282.642543033738
 20
733.185281374241
 40
3
  0
LINE
  8
DIMENSION
  6
BYLAYER
 62
250
 10
318.542543033738
 20
735.121773047343
 11
318.542543033738
 21
733.985281374239
  0
LINE
  8
DIMENSION
  6
BYLAYER
 62
250
 10
319.542543033739
 20
735.121773047343
 11
319.542543033739
 21
733.985281374239
  0
LINE
  8
DIMENSION
  6
BYLAYER
 62
250
 10
320.979034706841
 20
733.68528137424
 11
319.842543033739
 21
733.68528137424
  0
LINE
  8
DIMENSION
  6
BYLAYER
 62
250
 10
320.979034706841
 20
732.685281374239
 11
319.842543033739
 21
732.68528137424
  0
LINE
  8
DIMENSION
  6
BYLAYER
 62
250
 10
319.542543033739
 20
732.385281374239
 11
319.542543033739
 21
731.248789701136
  0
LINE
  8
DIMENSION
  6
BYLAYER
 62
250
 10
318.542543033738
 20
732.385281374239
 11
318.542543033738
 21
731.248789701136
  0
LINE
  8
DIMENSION
  6
BYLAYER
 62
250
 10
318.242543033738
 20
732.68528137424
 11
317.106051360635
 21
732.685281374239
  0
LINE
  8
DIMENSION
  6
BYLAYER
 62
250
 10
318.242543033738
 20
733.68528137424
 11
317.106051360635
 21
733.68528137424
  0
ARC
  8
DIMENSION
  6
BYLAYER
 62
250
 10
319.042543033739
 20
733.18528137424
 40
2.00000000000001
 50
165.52248781407
 51
194.477512185953
  0
ARC
  8
DIMENSION
  6
BYLAYER
 62
250
 10
319.042543033739
 20
733.18528137424
 40
2.00000000000001
 50
255.52248781407
 51
284.47751218593
  0
ARC
  8
DIMENSION
  6
BYLAYER
 62
250
 10
319.042543033739
 20
733.18528137424
 40
2.00000000000001
 50
75.5224878140701
 51
104.47751218593
  0
ARC
  8
DIMENSION
  6
BYLAYER
 62
250
 10
319.042543033739
 20
733.18528137424
 40
2.00000000000001
 50
345.522487814046
 51
14.4775121859299
  0
ARC
  8
DIMENSION
  6
BYLAYER
 62
250
 10
318.242543033738
 20
733.985281374239
 40
0.300000000000026
 50
270.000000000016
 51
1.62844399690918E-11
  0
ARC
  8
DIMENSION
  6
BYLAYER
 62
250
 10
318.242543033738
 20
732.385281374239
 40
0.300000000000026
 50
-1.62844399690918E-11
 51
89.9999999999837
  0
ARC
  8
DIMENSION
  6
BYLAYER
 62
250
 10
319.842543033739
 20
732.385281374239
 40
0.300000000000026
 50
89.9999999999837
 51
179.999999999984
  0
ARC
  8
DIMENSION
  6
BYLAYER
 62
250
 10
319.842543033739
 20
733.98528137424
 40
0.300000000000026
 50
180
 51
270
  0
CIRCLE
  8
DIMENSION
  6
BYLAYER
 62
250
 10
319.042543033739
 20
733.18528137424
 40
3.24999999999999
  0
CIRCLE
  8
DIMENSION
  6
BYLAYER
 62
250
 10
319.042543033739
 20
733.18528137424
 40
3
  0
LINE
  8
DIMENSION
  6
BYLAYER
 62
250
 10
354.142543033738
 20
735.121773047343
 11
354.142543033738
 21
733.985281374239
  0
LINE
  8
DIMENSION
  6
BYLAYER
 62
250
 10
355.142543033738
 20
735.121773047343
 11
355.142543033738
 21
733.985281374239
  0
LINE
  8
DIMENSION
  6
BYLAYER
 62
250
 10
356.579034706842
 20
733.68528137424
 11
355.442543033738
 21
733.68528137424
  0
LINE
  8
DIMENSION
  6
BYLAYER
 62
250
 10
356.579034706842
 20
732.685281374239
 11
355.442543033738
 21
732.68528137424
  0
LINE
  8
DIMENSION
  6
BYLAYER
 62
250
 10
355.142543033738
 20
732.385281374239
 11
355.142543033738
 21
731.248789701136
  0
LINE
  8
DIMENSION
  6
BYLAYER
 62
250
 10
354.142543033738
 20
732.385281374239
 11
354.142543033738
 21
731.248789701136
  0
LINE
  8
DIMENSION
  6
BYLAYER
 62
250
 10
353.842543033738
 20
732.68528137424
 11
352.706051360634
 21
732.685281374239
  0
LINE
  8
DIMENSION
  6
BYLAYER
 62
250
 10
353.842543033738
 20
733.68528137424
 11
352.706051360634
 21
733.68528137424
  0
ARC
  8
DIMENSION
  6
BYLAYER
 62
250
 10
354.642543033738
 20
733.18528137424
 40
2.00000000000001
 50
165.52248781407
 51
194.477512185953
  0
ARC
  8
DIMENSION
  6
BYLAYER
 62
250
 10
354.642543033738
 20
733.18528137424
 40
2.00000000000001
 50
255.52248781407
 51
284.47751218593
  0
ARC
  8
DIMENSION
  6
BYLAYER
 62
250
 10
354.642543033738
 20
733.18528137424
 40
2.00000000000001
 50
75.5224878140701
 51
104.47751218593
  0
ARC
  8
DIMENSION
  6
BYLAYER
 62
250
 10
354.642543033738
 20
733.18528137424
 40
2.00000000000001
 50
345.522487814046
 51
14.4775121859299
  0
ARC
  8
DIMENSION
  6
BYLAYER
 62
250
 10
353.842543033738
 20
733.985281374239
 40
0.300000000000026
 50
270.000000000016
 51
1.62844399690918E-11
  0
ARC
  8
DIMENSION
  6
BYLAYER
 62
250
 10
353.842543033738
 20
732.385281374239
 40
0.300000000000026
 50
-1.62844399690918E-11
 51
89.9999999999837
  0
ARC
  8
DIMENSION
  6
BYLAYER
 62
250
 10
355.442543033738
 20
732.385281374239
 40
0.300000000000026
 50
89.9999999999837
 51
179.999999999984
  0
ARC
  8
DIMENSION
  6
BYLAYER
 62
250
 10
355.442543033738
 20
733.98528137424
 40
0.300000000000026
 50
180
 51
270
  0
CIRCLE
  8
DIMENSION
  6
BYLAYER
 62
250
 10
354.642543033738
 20
733.18528137424
 40
3.24999999999999
  0
CIRCLE
  8
DIMENSION
  6
BYLAYER
 62
250
 10
354.642543033738
 20
733.18528137424
 40
3
  0
LINE
  8
DIMENSION
  6
BYLAYER
 62
250
 10
354.142543033738
 20
715.421773047342
 11
354.142543033738
 21
714.285281374238
  0
LINE
  8
DIMENSION
  6
BYLAYER
 62
250
 10
355.142543033738
 20
715.421773047342
 11
355.142543033738
 21
714.285281374238
  0
LINE
  8
DIMENSION
  6
BYLAYER
 62
250
 10
356.579034706842
 20
713.985281374238
 11
355.442543033738
 21
713.985281374238
  0
LINE
  8
DIMENSION
  6
BYLAYER
 62
250
 10
356.579034706842
 20
712.985281374238
 11
355.442543033738
 21
712.985281374238
  0
LINE
  8
DIMENSION
  6
BYLAYER
 62
250
 10
355.142543033738
 20
712.685281374238
 11
355.142543033738
 21
711.548789701135
  0
LINE
  8
DIMENSION
  6
BYLAYER
 62
250
 10
354.142543033738
 20
712.685281374238
 11
354.142543033738
 21
711.548789701135
  0
LINE
  8
DIMENSION
  6
BYLAYER
 62
250
 10
353.842543033737
 20
712.985281374238
 11
352.706051360634
 21
712.985281374238
  0
LINE
  8
DIMENSION
  6
BYLAYER
 62
250
 10
353.842543033737
 20
713.985281374238
 11
352.706051360634
 21
713.985281374238
  0
ARC
  8
DIMENSION
  6
BYLAYER
 62
250
 10
354.642543033738
 20
713.485281374238
 40
2.00000000000001
 50
165.52248781407
 51
194.477512185953
  0
ARC
  8
DIMENSION
  6
BYLAYER
 62
250
 10
354.642543033738
 20
713.485281374238
 40
2.00000000000001
 50
255.52248781407
 51
284.47751218593
  0
ARC
  8
DIMENSION
  6
BYLAYER
 62
250
 10
354.642543033738
 20
713.485281374238
 40
2.00000000000001
 50
75.5224878140701
 51
104.47751218593
  0
ARC
  8
DIMENSION
  6
BYLAYER
 62
250
 10
354.642543033738
 20
713.485281374238
 40
2.00000000000001
 50
345.522487814046
 51
14.4775121859299
  0
ARC
  8
DIMENSION
  6
BYLAYER
 62
250
 10
353.842543033737
 20
714.285281374238
 40
0.300000000000026
 50
270
 51
0
  0
ARC
  8
DIMENSION
  6
BYLAYER
 62
250
 10
353.842543033737
 20
712.685281374238
 40
0.300000000000026
 50
1.62844399690918E-11
 51
90.0000000000163
  0
ARC
  8
DIMENSION
  6
BYLAYER
 62
250
 10
355.442543033738
 20
712.685281374238
 40
0.300000000000026
 50
90.0000000000163
 51
180.000000000016
  0
ARC
  8
DIMENSION
  6
BYLAYER
 62
250
 10
355.442543033738
 20
714.285281374239
 40
0.300000000000026
 50
180
 51
270
  0
CIRCLE
  8
DIMENSION
  6
BYLAYER
 62
250
 10
354.642543033738
 20
713.485281374238
 40
3.24999999999999
  0
CIRCLE
  8
DIMENSION
  6
BYLAYER
 62
250
 10
354.642543033738
 20
713.485281374238
 40
3
  0
LINE
  8
DIMENSION
  6
BYLAYER
 62
250
 10
318.542543033738
 20
715.421773047341
 11
318.542543033738
 21
714.285281374238
  0
LINE
  8
DIMENSION
  6
BYLAYER
 62
250
 10
319.542543033739
 20
715.421773047341
 11
319.542543033739
 21
714.285281374238
  0
LINE
  8
DIMENSION
  6
BYLAYER
 62
250
 10
320.979034706841
 20
713.985281374238
 11
319.842543033737
 21
713.985281374238
  0
LINE
  8
DIMENSION
  6
BYLAYER
 62
250
 10
320.979034706841
 20
712.985281374237
 11
319.842543033737
 21
712.985281374238
  0
LINE
  8
DIMENSION
  6
BYLAYER
 62
250
 10
319.542543033739
 20
712.685281374238
 11
319.542543033739
 21
711.548789701134
  0
LINE
  8
DIMENSION
  6
BYLAYER
 62
250
 10
318.542543033738
 20
712.685281374238
 11
318.542543033738
 21
711.548789701134
  0
LINE
  8
DIMENSION
  6
BYLAYER
 62
250
 10
318.242543033738
 20
712.985281374238
 11
317.106051360635
 21
712.985281374237
  0
LINE
  8
DIMENSION
  6
BYLAYER
 62
250
 10
318.242543033738
 20
713.985281374238
 11
317.106051360635
 21
713.985281374238
  0
ARC
  8
DIMENSION
  6
BYLAYER
 62
250
 10
319.042543033739
 20
713.485281374238
 40
2.00000000000001
 50
165.522487814068
 51
194.477512185951
  0
ARC
  8
DIMENSION
  6
BYLAYER
 62
250
 10
319.042543033739
 20
713.485281374238
 40
2.00000000000001
 50
255.522487814068
 51
284.477512185927
  0
ARC
  8
DIMENSION
  6
BYLAYER
 62
250
 10
319.042543033739
 20
713.485281374238
 40
2.00000000000001
 50
75.5224878140677
 51
104.477512185927
  0
ARC
  8
DIMENSION
  6
BYLAYER
 62
250
 10
319.042543033739
 20
713.485281374238
 40
2.00000000000001
 50
345.522487814044
 51
14.4775121859274
  0
ARC
  8
DIMENSION
  6
BYLAYER
 62
250
 10
318.242543033738
 20
714.285281374238
 40
0.300000000000026
 50
270
 51
0
  0
ARC
  8
DIMENSION
  6
BYLAYER
 62
250
 10
318.242543033738
 20
712.685281374238
 40
0.300000000000026
 50
1.62844399690918E-11
 51
90.0000000000163
  0
ARC
  8
DIMENSION
  6
BYLAYER
 62
250
 10
319.842543033737
 20
712.685281374238
 40
0.300000000000026
 50
90
 51
180
  0
ARC
  8
DIMENSION
  6
BYLAYER
 62
250
 10
319.842543033737
 20
714.285281374238
 40
0.300000000000026
 50
180
 51
270
  0
CIRCLE
  8
DIMENSION
  6
BYLAYER
 62
250
 10
319.042543033739
 20
713.485281374238
 40
3.24999999999999
  0
CIRCLE
  8
DIMENSION
  6
BYLAYER
 62
250
 10
319.042543033739
 20
713.485281374238
 40
3
  0
LINE
  8
DIMENSION
  6
BYLAYER
 62
250
 10
282.142543033738
 20
715.421773047341
 11
282.142543033738
 21
714.285281374237
  0
LINE
  8
DIMENSION
  6
BYLAYER
 62
250
 10
283.142543033739
 20
715.421773047341
 11
283.142543033739
 21
714.285281374237
  0
LINE
  8
DIMENSION
  6
BYLAYER
 62
250
 10
284.579034706842
 20
713.985281374238
 11
283.442543033738
 21
713.985281374238
  0
LINE
  8
DIMENSION
  6
BYLAYER
 62
250
 10
284.579034706842
 20
712.985281374237
 11
283.442543033738
 21
712.985281374238
  0
LINE
  8
DIMENSION
  6
BYLAYER
 62
250
 10
283.142543033739
 20
712.685281374238
 11
283.142543033739
 21
711.548789701134
  0
LINE
  8
DIMENSION
  6
BYLAYER
 62
250
 10
282.142543033738
 20
712.685281374238
 11
282.142543033738
 21
711.548789701134
  0
LINE
  8
DIMENSION
  6
BYLAYER
 62
250
 10
281.842543033737
 20
712.985281374238
 11
280.706051360634
 21
712.985281374237
  0
LINE
  8
DIMENSION
  6
BYLAYER
 62
250
 10
281.842543033737
 20
713.985281374238
 11
280.706051360634
 21
713.985281374238
  0
ARC
  8
DIMENSION
  6
BYLAYER
 62
250
 10
282.642543033738
 20
713.485281374238
 40
2.00000000000001
 50
165.52248781407
 51
194.477512185953
  0
ARC
  8
DIMENSION
  6
BYLAYER
 62
250
 10
282.642543033738
 20
713.485281374238
 40
2.00000000000001
 50
255.52248781407
 51
284.47751218593
  0
ARC
  8
DIMENSION
  6
BYLAYER
 62
250
 10
282.642543033738
 20
713.485281374238
 40
2.00000000000001
 50
75.5224878140701
 51
104.47751218593
  0
ARC
  8
DIMENSION
  6
BYLAYER
 62
250
 10
282.642543033738
 20
713.485281374238
 40
2.00000000000001
 50
345.522487814046
 51
14.4775121859299
  0
ARC
  8
DIMENSION
  6
BYLAYER
 62
250
 10
281.842543033737
 20
714.285281374237
 40
0.299999999999983
 50
270.000000000016
 51
1.62844399690941E-11
  0
ARC
  8
DIMENSION
  6
BYLAYER
 62
250
 10
281.842543033737
 20
712.685281374238
 40
0.299999999999983
 50
0
 51
90
  0
ARC
  8
DIMENSION
  6
BYLAYER
 62
250
 10
283.442543033738
 20
712.685281374238
 40
0.299999999999983
 50
89.9999999999837
 51
179.999999999984
  0
ARC
  8
DIMENSION
  6
BYLAYER
 62
250
 10
283.442543033738
 20
714.285281374238
 40
0.299999999999983
 50
180
 51
270
  0
CIRCLE
  8
DIMENSION
  6
BYLAYER
 62
250
 10
282.642543033738
 20
713.485281374238
 40
3.24999999999999
  0
CIRCLE
  8
DIMENSION
  6
BYLAYER
 62
250
 10
282.642543033738
 20
713.485281374238
 40
3
  0
LINE
  8
DIMENSION
  6
BYLAYER
 62
250
 10
246.542543033739
 20
715.421773047341
 11
246.542543033739
 21
714.285281374237
  0
LINE
  8
DIMENSION
  6
BYLAYER
 62
250
 10
247.542543033739
 20
715.421773047341
 11
247.542543033739
 21
714.285281374237
  0
LINE
  8
DIMENSION
  6
BYLAYER
 62
250
 10
248.979034706841
 20
713.985281374238
 11
247.842543033739
 21
713.985281374238
  0
LINE
  8
DIMENSION
  6
BYLAYER
 62
250
 10
248.979034706841
 20
712.985281374237
 11
247.842543033739
 21
712.985281374238
  0
LINE
  8
DIMENSION
  6
BYLAYER
 62
250
 10
247.542543033739
 20
712.685281374238
 11
247.542543033739
 21
711.548789701134
  0
LINE
  8
DIMENSION
  6
BYLAYER
 62
250
 10
246.542543033739
 20
712.685281374238
 11
246.542543033739
 21
711.548789701134
  0
LINE
  8
DIMENSION
  6
BYLAYER
 62
250
 10
246.242543033738
 20
712.985281374238
 11
245.106051360635
 21
712.985281374237
  0
LINE
  8
DIMENSION
  6
BYLAYER
 62
250
 10
246.242543033738
 20
713.985281374238
 11
245.106051360635
 21
713.985281374238
  0
ARC
  8
DIMENSION
  6
BYLAYER
 62
250
 10
247.042543033739
 20
713.485281374238
 40
2.00000000000001
 50
165.52248781407
 51
194.477512185953
  0
ARC
  8
DIMENSION
  6
BYLAYER
 62
250
 10
247.042543033739
 20
713.485281374238
 40
2.00000000000001
 50
255.52248781407
 51
284.47751218593
  0
ARC
  8
DIMENSION
  6
BYLAYER
 62
250
 10
247.042543033739
 20
713.485281374238
 40
2.00000000000001
 50
75.5224878140701
 51
104.47751218593
  0
ARC
  8
DIMENSION
  6
BYLAYER
 62
250
 10
247.042543033739
 20
713.485281374238
 40
2.00000000000001
 50
345.522487814046
 51
14.4775121859299
  0
ARC
  8
DIMENSION
  6
BYLAYER
 62
250
 10
246.242543033738
 20
714.285281374237
 40
0.299999999999983
 50
270.000000000016
 51
1.62844399690941E-11
  0
ARC
  8
DIMENSION
  6
BYLAYER
 62
250
 10
246.242543033738
 20
712.685281374238
 40
0.299999999999983
 50
0
 51
90
  0
ARC
  8
DIMENSION
  6
BYLAYER
 62
250
 10
247.842543033739
 20
712.685281374238
 40
0.300000000000004
 50
89.9999999999837
 51
179.999999999984
  0
ARC
  8
DIMENSION
  6
BYLAYER
 62
250
 10
247.842543033739
 20
714.285281374238
 40
0.300000000000004
 50
180
 51
270
  0
CIRCLE
  8
DIMENSION
  6
BYLAYER
 62
250
 10
247.042543033739
 20
713.485281374238
 40
3.24999999999999
  0
CIRCLE
  8
DIMENSION
  6
BYLAYER
 62
250
 10
247.042543033739
 20
713.485281374238
 40
3
  0
LINE
  8
DIMENSION
  6
BYLAYER
 62
250
 10
264.592543033737
 20
698.921773047342
 11
264.592543033737
 21
697.785281374238
  0
LINE
  8
DIMENSION
  6
BYLAYER
 62
250
 10
265.592543033738
 20
698.921773047342
 11
265.592543033738
 21
697.785281374238
  0
LINE
  8
DIMENSION
  6
BYLAYER
 62
250
 10
267.029034706841
 20
697.485281374238
 11
265.892543033739
 21
697.485281374238
  0
LINE
  8
DIMENSION
  6
BYLAYER
 62
250
 10
267.029034706841
 20
696.485281374238
 11
265.892543033739
 21
696.485281374238
  0
LINE
  8
DIMENSION
  6
BYLAYER
 62
250
 10
265.592543033738
 20
696.185281374238
 11
265.592543033738
 21
695.048789701134
  0
LINE
  8
DIMENSION
  6
BYLAYER
 62
250
 10
264.592543033737
 20
696.185281374238
 11
264.592543033737
 21
695.048789701134
  0
LINE
  8
DIMENSION
  6
BYLAYER
 62
250
 10
264.292543033739
 20
696.485281374238
 11
263.156051360635
 21
696.485281374238
  0
LINE
  8
DIMENSION
  6
BYLAYER
 62
250
 10
264.292543033739
 20
697.485281374238
 11
263.156051360635
 21
697.485281374238
  0
ARC
  8
DIMENSION
  6
BYLAYER
 62
250
 10
265.092543033737
 20
696.985281374238
 40
1.99999999999999
 50
165.52248781407
 51
194.477512185953
  0
ARC
  8
DIMENSION
  6
BYLAYER
 62
250
 10
265.092543033737
 20
696.985281374238
 40
1.99999999999999
 50
255.52248781407
 51
284.47751218593
  0
ARC
  8
DIMENSION
  6
BYLAYER
 62
250
 10
265.092543033737
 20
696.985281374238
 40
1.99999999999999
 50
75.5224878140701
 51
104.47751218593
  0
ARC
  8
DIMENSION
  6
BYLAYER
 62
250
 10
265.092543033737
 20
696.985281374238
 40
1.99999999999999
 50
345.522487814046
 51
14.4775121859299
  0
ARC
  8
DIMENSION
  6
BYLAYER
 62
250
 10
264.292543033739
 20
697.785281374238
 40
0.300000000000004
 50
270
 51
0
  0
ARC
  8
DIMENSION
  6
BYLAYER
 62
250
 10
264.292543033739
 20
696.185281374238
 40
0.300000000000004
 50
-1.6284439969093E-11
 51
89.9999999999837
  0
ARC
  8
DIMENSION
  6
BYLAYER
 62
250
 10
265.892543033739
 20
696.185281374238
 40
0.299999999999983
 50
90
 51
180
  0
ARC
  8
DIMENSION
  6
BYLAYER
 62
250
 10
265.892543033739
 20
697.785281374238
 40
0.299999999999983
 50
180.000000000016
 51
270.000000000016
  0
CIRCLE
  8
DIMENSION
  6
BYLAYER
 62
250
 10
265.092543033737
 20
696.985281374238
 40
3.25000000000001
  0
CIRCLE
  8
DIMENSION
  6
BYLAYER
 62
250
 10
265.092543033737
 20
696.985281374238
 40
2.99999999999998
  0
LINE
  8
DIMENSION
  6
BYLAYER
 62
250
 10
336.092543033737
 20
698.921773047342
 11
336.092543033737
 21
697.785281374238
  0
LINE
  8
DIMENSION
  6
BYLAYER
 62
250
 10
337.092543033739
 20
698.921773047342
 11
337.092543033739
 21
697.785281374238
  0
LINE
  8
DIMENSION
  6
BYLAYER
 62
250
 10
338.529034706841
 20
697.485281374238
 11
337.392543033738
 21
697.485281374238
  0
LINE
  8
DIMENSION
  6
BYLAYER
 62
250
 10
338.529034706841
 20
696.485281374238
 11
337.392543033738
 21
696.485281374239
  0
LINE
  8
DIMENSION
  6
BYLAYER
 62
250
 10
337.092543033739
 20
696.185281374239
 11
337.092543033739
 21
695.048789701135
  0
LINE
  8
DIMENSION
  6
BYLAYER
 62
250
 10
336.092543033737
 20
696.185281374239
 11
336.092543033737
 21
695.048789701135
  0
LINE
  8
DIMENSION
  6
BYLAYER
 62
250
 10
335.792543033738
 20
696.485281374239
 11
334.656051360634
 21
696.485281374238
  0
LINE
  8
DIMENSION
  6
BYLAYER
 62
250
 10
335.792543033738
 20
697.485281374238
 11
334.656051360634
 21
697.485281374238
  0
ARC
  8
DIMENSION
  6
BYLAYER
 62
250
 10
336.592543033738
 20
696.985281374239
 40
2.00000000000001
 50
165.52248781407
 51
194.477512185953
  0
ARC
  8
DIMENSION
  6
BYLAYER
 62
250
 10
336.592543033738
 20
696.985281374239
 40
2.00000000000001
 50
255.52248781407
 51
284.47751218593
  0
ARC
  8
DIMENSION
  6
BYLAYER
 62
250
 10
336.592543033738
 20
696.985281374239
 40
2.00000000000001
 50
75.5224878140701
 51
104.47751218593
  0
ARC
  8
DIMENSION
  6
BYLAYER
 62
250
 10
336.592543033738
 20
696.985281374239
 40
2.00000000000001
 50
345.522487814046
 51
14.4775121859299
  0
ARC
  8
DIMENSION
  6
BYLAYER
 62
250
 10
335.792543033738
 20
697.785281374238
 40
0.300000000000026
 50
270
 51
0
  0
ARC
  8
DIMENSION
  6
BYLAYER
 62
250
 10
335.792543033738
 20
696.185281374239
 40
0.300000000000026
 50
0
 51
90
  0
ARC
  8
DIMENSION
  6
BYLAYER
 62
250
 10
337.392543033738
 20
696.185281374239
 40
0.299999999999983
 50
90
 51
180
  0
ARC
  8
DIMENSION
  6
BYLAYER
 62
250
 10
337.392543033738
 20
697.785281374239
 40
0.299999999999983
 50
180
 51
270
  0
CIRCLE
  8
DIMENSION
  6
BYLAYER
 62
250
 10
336.592543033738
 20
696.985281374239
 40
3.25000000000003
  0
CIRCLE
  8
DIMENSION
  6
BYLAYER
 62
250
 10
336.592543033738
 20
696.985281374239
 40
3
  0
LINE
  8
DIMENSION
  6
BYLAYER
 62
250
 10
264.592543033739
 20
627.421773047342
 11
264.592543033739
 21
626.285281374238
  0
LINE
  8
DIMENSION
  6
BYLAYER
 62
250
 10
265.592543033738
 20
627.421773047342
 11
265.592543033738
 21
626.285281374238
  0
LINE
  8
DIMENSION
  6
BYLAYER
 62
250
 10
267.029034706843
 20
625.985281374238
 11
265.892543033739
 21
625.985281374238
  0
LINE
  8
DIMENSION
  6
BYLAYER
 62
250
 10
267.029034706843
 20
624.985281374237
 11
265.892543033739
 21
624.985281374238
  0
LINE
  8
DIMENSION
  6
BYLAYER
 62
250
 10
265.592543033738
 20
624.685281374238
 11
265.592543033738
 21
623.548789701134
  0
LINE
  8
DIMENSION
  6
BYLAYER
 62
250
 10
264.592543033739
 20
624.685281374238
 11
264.592543033739
 21
623.548789701134
  0
LINE
  8
DIMENSION
  6
BYLAYER
 62
250
 10
264.292543033739
 20
624.985281374238
 11
263.156051360635
 21
624.985281374237
  0
LINE
  8
DIMENSION
  6
BYLAYER
 62
250
 10
264.292543033739
 20
625.985281374238
 11
263.156051360635
 21
625.985281374238
  0
ARC
  8
DIMENSION
  6
BYLAYER
 62
250
 10
265.092543033739
 20
625.485281374238
 40
1.99999999999999
 50
165.52248781407
 51
194.477512185953
  0
ARC
  8
DIMENSION
  6
BYLAYER
 62
250
 10
265.092543033739
 20
625.485281374238
 40
1.99999999999999
 50
255.52248781407
 51
284.47751218593
  0
ARC
  8
DIMENSION
  6
BYLAYER
 62
250
 10
265.092543033739
 20
625.485281374238
 40
1.99999999999999
 50
75.5224878140701
 51
104.47751218593
  0
ARC
  8
DIMENSION
  6
BYLAYER
 62
250
 10
265.092543033739
 20
625.485281374238
 40
1.99999999999999
 50
345.522487814046
 51
14.4775121859299
  0
ARC
  8
DIMENSION
  6
BYLAYER
 62
250
 10
264.292543033739
 20
626.285281374238
 40
0.300000000000004
 50
270
 51
0
  0
ARC
  8
DIMENSION
  6
BYLAYER
 62
250
 10
264.292543033739
 20
624.685281374238
 40
0.300000000000004
 50
0
 51
90
  0
ARC
  8
DIMENSION
  6
BYLAYER
 62
250
 10
265.892543033739
 20
624.685281374238
 40
0.299999999999983
 50
90
 51
180
  0
ARC
  8
DIMENSION
  6
BYLAYER
 62
250
 10
265.892543033739
 20
626.285281374238
 40
0.299999999999983
 50
180
 51
270
  0
CIRCLE
  8
DIMENSION
  6
BYLAYER
 62
250
 10
265.092543033739
 20
625.485281374238
 40
3.25000000000001
  0
CIRCLE
  8
DIMENSION
  6
BYLAYER
 62
250
 10
265.092543033739
 20
625.485281374238
 40
3
  0
LINE
  8
DIMENSION
  6
BYLAYER
 62
250
 10
264.342543033737
 20
613.121773047346
 11
264.342543033737
 21
611.985281374242
  0
LINE
  8
DIMENSION
  6
BYLAYER
 62
250
 10
265.342543033737
 20
613.121773047346
 11
265.342543033737
 21
611.985281374242
  0
LINE
  8
DIMENSION
  6
BYLAYER
 62
250
 10
266.779034706841
 20
611.685281374242
 11
265.642543033738
 21
611.685281374242
  0
LINE
  8
DIMENSION
  6
BYLAYER
 62
250
 10
266.779034706841
 20
610.685281374242
 11
265.642543033738
 21
610.685281374242
  0
LINE
  8
DIMENSION
  6
BYLAYER
 62
250
 10
265.342543033737
 20
610.385281374242
 11
265.342543033737
 21
609.248789701139
  0
LINE
  8
DIMENSION
  6
BYLAYER
 62
250
 10
264.342543033737
 20
610.385281374242
 11
264.342543033737
 21
609.248789701139
  0
LINE
  8
DIMENSION
  6
BYLAYER
 62
250
 10
264.042543033739
 20
610.685281374242
 11
262.906051360635
 21
610.685281374242
  0
LINE
  8
DIMENSION
  6
BYLAYER
 62
250
 10
264.042543033739
 20
611.685281374242
 11
262.906051360635
 21
611.685281374242
  0
ARC
  8
DIMENSION
  6
BYLAYER
 62
250
 10
264.842543033738
 20
611.185281374242
 40
1.99999999999999
 50
165.52248781407
 51
194.477512185953
  0
ARC
  8
DIMENSION
  6
BYLAYER
 62
250
 10
264.842543033738
 20
611.185281374242
 40
1.99999999999999
 50
255.52248781407
 51
284.47751218593
  0
ARC
  8
DIMENSION
  6
BYLAYER
 62
250
 10
264.842543033738
 20
611.185281374242
 40
1.99999999999999
 50
75.5224878140701
 51
104.47751218593
  0
ARC
  8
DIMENSION
  6
BYLAYER
 62
250
 10
264.842543033738
 20
611.185281374242
 40
1.99999999999999
 50
345.522487814046
 51
14.4775121859299
  0
ARC
  8
DIMENSION
  6
BYLAYER
 62
250
 10
264.042543033739
 20
611.985281374242
 40
0.299999999999983
 50
270
 51
0
  0
ARC
  8
DIMENSION
  6
BYLAYER
 62
250
 10
264.042543033739
 20
610.385281374243
 40
0.299999999999983
 50
0
 51
90
  0
ARC
  8
DIMENSION
  6
BYLAYER
 62
250
 10
265.642543033738
 20
610.385281374242
 40
0.300000000000004
 50
90
 51
180
  0
ARC
  8
DIMENSION
  6
BYLAYER
 62
250
 10
265.642543033738
 20
611.985281374243
 40
0.300000000000004
 50
180
 51
270
  0
CIRCLE
  8
DIMENSION
  6
BYLAYER
 62
250
 10
264.842543033738
 20
611.185281374242
 40
3.25000000000001
  0
CIRCLE
  8
DIMENSION
  6
BYLAYER
 62
250
 10
264.842543033738
 20
611.185281374242
 40
3
  0
LINE
  8
DIMENSION
  6
BYLAYER
 62
250
 10
336.092543033738
 20
627.421773047342
 11
336.092543033738
 21
626.285281374238
  0
LINE
  8
DIMENSION
  6
BYLAYER
 62
250
 10
337.092543033739
 20
627.421773047342
 11
337.092543033739
 21
626.285281374238
  0
LINE
  8
DIMENSION
  6
BYLAYER
 62
250
 10
338.529034706841
 20
625.985281374238
 11
337.392543033738
 21
625.985281374238
  0
LINE
  8
DIMENSION
  6
BYLAYER
 62
250
 10
338.529034706841
 20
624.985281374238
 11
337.392543033738
 21
624.985281374238
  0
LINE
  8
DIMENSION
  6
BYLAYER
 62
250
 10
337.092543033739
 20
624.685281374239
 11
337.092543033739
 21
623.548789701135
  0
LINE
  8
DIMENSION
  6
BYLAYER
 62
250
 10
336.092543033738
 20
624.685281374239
 11
336.092543033738
 21
623.548789701135
  0
LINE
  8
DIMENSION
  6
BYLAYER
 62
250
 10
335.792543033738
 20
624.985281374238
 11
334.656051360634
 21
624.985281374238
  0
LINE
  8
DIMENSION
  6
BYLAYER
 62
250
 10
335.792543033738
 20
625.985281374238
 11
334.656051360634
 21
625.985281374238
  0
ARC
  8
DIMENSION
  6
BYLAYER
 62
250
 10
336.592543033738
 20
625.485281374238
 40
2.00000000000001
 50
165.52248781407
 51
194.477512185953
  0
ARC
  8
DIMENSION
  6
BYLAYER
 62
250
 10
336.592543033738
 20
625.485281374238
 40
2.00000000000001
 50
255.52248781407
 51
284.47751218593
  0
ARC
  8
DIMENSION
  6
BYLAYER
 62
250
 10
336.592543033738
 20
625.485281374238
 40
2.00000000000001
 50
75.5224878140701
 51
104.47751218593
  0
ARC
  8
DIMENSION
  6
BYLAYER
 62
250
 10
336.592543033738
 20
625.485281374238
 40
2.00000000000001
 50
345.522487814046
 51
14.4775121859299
  0
ARC
  8
DIMENSION
  6
BYLAYER
 62
250
 10
335.792543033738
 20
626.285281374238
 40
0.300000000000026
 50
270
 51
0
  0
ARC
  8
DIMENSION
  6
BYLAYER
 62
250
 10
335.792543033738
 20
624.685281374239
 40
0.300000000000026
 50
0
 51
90
  0
ARC
  8
DIMENSION
  6
BYLAYER
 62
250
 10
337.392543033738
 20
624.685281374239
 40
0.299999999999983
 50
90
 51
180
  0
ARC
  8
DIMENSION
  6
BYLAYER
 62
250
 10
337.392543033738
 20
626.285281374239
 40
0.299999999999983
 50
180
 51
270
  0
CIRCLE
  8
DIMENSION
  6
BYLAYER
 62
250
 10
336.592543033738
 20
625.485281374238
 40
3.25000000000003
  0
CIRCLE
  8
DIMENSION
  6
BYLAYER
 62
250
 10
336.592543033738
 20
625.485281374238
 40
3
  0
LINE
  8
DIMENSION
  6
BYLAYER
 62
250
 10
336.342543033737
 20
613.121773047346
 11
336.342543033737
 21
611.985281374242
  0
LINE
  8
DIMENSION
  6
BYLAYER
 62
250
 10
337.342543033737
 20
613.121773047346
 11
337.342543033737
 21
611.985281374242
  0
LINE
  8
DIMENSION
  6
BYLAYER
 62
250
 10
338.779034706841
 20
611.685281374242
 11
337.642543033737
 21
611.685281374242
  0
LINE
  8
DIMENSION
  6
BYLAYER
 62
250
 10
338.779034706841
 20
610.685281374242
 11
337.642543033737
 21
610.685281374242
  0
LINE
  8
DIMENSION
  6
BYLAYER
 62
250
 10
337.342543033737
 20
610.385281374242
 11
337.342543033737
 21
609.248789701139
  0
LINE
  8
DIMENSION
  6
BYLAYER
 62
250
 10
336.342543033737
 20
610.385281374242
 11
336.342543033737
 21
609.248789701139
  0
LINE
  8
DIMENSION
  6
BYLAYER
 62
250
 10
336.042543033737
 20
610.685281374242
 11
334.906051360633
 21
610.685281374242
  0
LINE
  8
DIMENSION
  6
BYLAYER
 62
250
 10
336.042543033737
 20
611.685281374242
 11
334.906051360633
 21
611.685281374242
  0
ARC
  8
DIMENSION
  6
BYLAYER
 62
250
 10
336.842543033737
 20
611.185281374242
 40
2.00000000000001
 50
165.52248781407
 51
194.477512185953
  0
ARC
  8
DIMENSION
  6
BYLAYER
 62
250
 10
336.842543033737
 20
611.185281374242
 40
2.00000000000001
 50
255.52248781407
 51
284.47751218593
  0
ARC
  8
DIMENSION
  6
BYLAYER
 62
250
 10
336.842543033737
 20
611.185281374242
 40
2.00000000000001
 50
75.5224878140701
 51
104.47751218593
  0
ARC
  8
DIMENSION
  6
BYLAYER
 62
250
 10
336.842543033737
 20
611.185281374242
 40
2.00000000000001
 50
345.522487814046
 51
14.4775121859299
  0
ARC
  8
DIMENSION
  6
BYLAYER
 62
250
 10
336.042543033737
 20
611.985281374242
 40
0.299999999999983
 50
270
 51
0
  0
ARC
  8
DIMENSION
  6
BYLAYER
 62
250
 10
336.042543033737
 20
610.385281374243
 40
0.299999999999983
 50
0
 51
90
  0
ARC
  8
DIMENSION
  6
BYLAYER
 62
250
 10
337.642543033737
 20
610.385281374242
 40
0.300000000000026
 50
90
 51
180
  0
ARC
  8
DIMENSION
  6
BYLAYER
 62
250
 10
337.642543033737
 20
611.985281374243
 40
0.300000000000026
 50
180
 51
270
  0
CIRCLE
  8
DIMENSION
  6
BYLAYER
 62
250
 10
336.842543033737
 20
611.185281374242
 40
3.24999999999999
  0
CIRCLE
  8
DIMENSION
  6
BYLAYER
 62
250
 10
336.842543033737
 20
611.185281374242
 40
3
  0
CIRCLE
  8
DIMENSION
  6
BYLAYER
 62
250
 10
239.342543033738
 20
651.885281374238
 40
2.59999999999998
  0
CIRCLE
  8
DIMENSION
  6
BYLAYER
 62
250
 10
239.342543033738
 20
651.885281374238
 40
2.49999999999999
  0
LINE
  8
DIMENSION
  6
BYLAYER
 62
250
 10
238.942543033738
 20
651.285281374238
 11
238.942543033738
 21
650.385281374239
  0
LINE
  8
DIMENSION
  6
BYLAYER
 62
250
 10
239.742543033738
 20
651.285281374238
 11
239.742543033738
 21
650.385281374239
  0
LINE
  8
DIMENSION
  6
BYLAYER
 62
250
 10
238.742543033738
 20
652.285281374238
 11
237.842543033738
 21
652.285281374238
  0
LINE
  8
DIMENSION
  6
BYLAYER
 62
250
 10
238.742543033738
 20
651.485281374238
 11
237.842543033738
 21
651.485281374238
  0
ARC
  8
DIMENSION
  6
BYLAYER
 62
250
 10
239.942543033738
 20
652.485281374238
 40
0.20000000000001
 50
180
 51
270
  0
ARC
  8
DIMENSION
  6
BYLAYER
 62
250
 10
239.942543033738
 20
651.285281374238
 40
0.20000000000001
 50
90
 51
180
  0
ARC
  8
DIMENSION
  6
BYLAYER
 62
250
 10
238.742543033738
 20
652.485281374238
 40
0.20000000000001
 50
270
 51
0
  0
ARC
  8
DIMENSION
  6
BYLAYER
 62
250
 10
238.742543033738
 20
651.285281374238
 40
0.20000000000001
 50
0
 51
90
  0
LINE
  8
DIMENSION
  6
BYLAYER
 62
250
 10
239.742543033738
 20
650.385281374239
 11
238.942543033738
 21
650.385281374239
  0
LINE
  8
DIMENSION
  6
BYLAYER
 62
250
 10
239.742543033738
 20
653.385281374238
 11
238.942543033738
 21
653.385281374238
  0
LINE
  8
DIMENSION
  6
BYLAYER
 62
250
 10
237.842543033738
 20
652.285281374238
 11
237.842543033738
 21
651.485281374238
  0
LINE
  8
DIMENSION
  6
BYLAYER
 62
250
 10
240.842543033738
 20
652.285281374238
 11
240.842543033738
 21
651.485281374238
  0
LINE
  8
DIMENSION
  6
BYLAYER
 62
250
 10
240.842543033738
 20
651.485281374238
 11
239.942543033738
 21
651.485281374238
  0
LINE
  8
DIMENSION
  6
BYLAYER
 62
250
 10
240.842543033738
 20
652.285281374238
 11
239.942543033738
 21
652.285281374238
  0
LINE
  8
DIMENSION
  6
BYLAYER
 62
250
 10
239.742543033738
 20
653.385281374238
 11
239.742543033738
 21
652.485281374238
  0
LINE
  8
DIMENSION
  6
BYLAYER
 62
250
 10
238.942543033738
 20
653.385281374238
 11
238.942543033738
 21
652.485281374238
  0
CIRCLE
  8
DIMENSION
  6
BYLAYER
 62
250
 10
239.342543033738
 20
619.385281374238
 40
2.59999999999998
  0
CIRCLE
  8
DIMENSION
  6
BYLAYER
 62
250
 10
239.342543033738
 20
619.385281374238
 40
2.49999999999999
  0
LINE
  8
DIMENSION
  6
BYLAYER
 62
250
 10
238.942543033738
 20
618.785281374238
 11
238.942543033738
 21
617.885281374238
  0
LINE
  8
DIMENSION
  6
BYLAYER
 62
250
 10
239.742543033738
 20
618.785281374238
 11
239.742543033738
 21
617.885281374238
  0
LINE
  8
DIMENSION
  6
BYLAYER
 62
250
 10
238.742543033738
 20
619.785281374238
 11
237.842543033738
 21
619.785281374238
  0
LINE
  8
DIMENSION
  6
BYLAYER
 62
250
 10
238.742543033738
 20
618.985281374238
 11
237.842543033738
 21
618.985281374238
  0
ARC
  8
DIMENSION
  6
BYLAYER
 62
250
 10
239.942543033738
 20
619.985281374238
 40
0.20000000000001
 50
180
 51
270
  0
ARC
  8
DIMENSION
  6
BYLAYER
 62
250
 10
239.942543033738
 20
618.785281374238
 40
0.20000000000001
 50
90
 51
180
  0
ARC
  8
DIMENSION
  6
BYLAYER
 62
250
 10
238.742543033738
 20
619.985281374238
 40
0.20000000000001
 50
270
 51
0
  0
ARC
  8
DIMENSION
  6
BYLAYER
 62
250
 10
238.742543033738
 20
618.785281374238
 40
0.20000000000001
 50
0
 51
90
  0
LINE
  8
DIMENSION
  6
BYLAYER
 62
250
 10
239.742543033738
 20
617.885281374238
 11
238.942543033738
 21
617.885281374238
  0
LINE
  8
DIMENSION
  6
BYLAYER
 62
250
 10
239.742543033738
 20
620.885281374238
 11
238.942543033738
 21
620.885281374238
  0
LINE
  8
DIMENSION
  6
BYLAYER
 62
250
 10
237.842543033738
 20
619.785281374238
 11
237.842543033738
 21
618.985281374238
  0
LINE
  8
DIMENSION
  6
BYLAYER
 62
250
 10
240.842543033738
 20
619.785281374238
 11
240.842543033738
 21
618.985281374238
  0
LINE
  8
DIMENSION
  6
BYLAYER
 62
250
 10
240.842543033738
 20
618.985281374238
 11
239.942543033738
 21
618.985281374238
  0
LINE
  8
DIMENSION
  6
BYLAYER
 62
250
 10
240.842543033738
 20
619.785281374238
 11
239.942543033738
 21
619.785281374238
  0
LINE
  8
DIMENSION
  6
BYLAYER
 62
250
 10
239.742543033738
 20
620.885281374238
 11
239.742543033738
 21
619.985281374238
  0
LINE
  8
DIMENSION
  6
BYLAYER
 62
250
 10
238.942543033738
 20
620.885281374238
 11
238.942543033738
 21
619.985281374238
  0
CIRCLE
  8
DIMENSION
  6
BYLAYER
 62
250
 10
256.342543033738
 20
651.885281374239
 40
2.6
  0
CIRCLE
  8
DIMENSION
  6
BYLAYER
 62
250
 10
256.342543033738
 20
651.885281374239
 40
2.50000000000001
  0
LINE
  8
DIMENSION
  6
BYLAYER
 62
250
 10
255.942543033738
 20
651.285281374238
 11
255.942543033738
 21
650.385281374239
  0
LINE
  8
DIMENSION
  6
BYLAYER
 62
250
 10
256.742543033738
 20
651.285281374238
 11
256.742543033738
 21
650.385281374239
  0
LINE
  8
DIMENSION
  6
BYLAYER
 62
250
 10
255.742543033738
 20
652.285281374238
 11
254.842543033738
 21
652.285281374238
  0
LINE
  8
DIMENSION
  6
BYLAYER
 62
250
 10
255.742543033738
 20
651.485281374238
 11
254.842543033738
 21
651.485281374238
  0
ARC
  8
DIMENSION
  6
BYLAYER
 62
250
 10
256.942543033738
 20
652.485281374238
 40
0.199999999999989
 50
180
 51
270
  0
ARC
  8
DIMENSION
  6
BYLAYER
 62
250
 10
256.942543033738
 20
651.285281374238
 40
0.199999999999989
 50
90
 51
180
  0
ARC
  8
DIMENSION
  6
BYLAYER
 62
250
 10
255.742543033738
 20
652.485281374238
 40
0.199999999999989
 50
270
 51
0
  0
ARC
  8
DIMENSION
  6
BYLAYER
 62
250
 10
255.742543033738
 20
651.285281374238
 40
0.199999999999989
 50
0
 51
90
  0
LINE
  8
DIMENSION
  6
BYLAYER
 62
250
 10
256.742543033738
 20
650.385281374239
 11
255.942543033738
 21
650.385281374239
  0
LINE
  8
DIMENSION
  6
BYLAYER
 62
250
 10
256.742543033738
 20
653.385281374239
 11
255.942543033738
 21
653.385281374239
  0
LINE
  8
DIMENSION
  6
BYLAYER
 62
250
 10
254.842543033738
 20
652.285281374238
 11
254.842543033738
 21
651.485281374238
  0
LINE
  8
DIMENSION
  6
BYLAYER
 62
250
 10
257.842543033738
 20
652.285281374238
 11
257.842543033738
 21
651.485281374238
  0
LINE
  8
DIMENSION
  6
BYLAYER
 62
250
 10
257.842543033738
 20
651.485281374238
 11
256.942543033738
 21
651.485281374238
  0
LINE
  8
DIMENSION
  6
BYLAYER
 62
250
 10
257.842543033738
 20
652.285281374238
 11
256.942543033738
 21
652.285281374238
  0
LINE
  8
DIMENSION
  6
BYLAYER
 62
250
 10
256.742543033738
 20
653.385281374239
 11
256.742543033738
 21
652.485281374238
  0
LINE
  8
DIMENSION
  6
BYLAYER
 62
250
 10
255.942543033738
 20
653.385281374239
 11
255.942543033738
 21
652.485281374238
  0
CIRCLE
  8
DIMENSION
  6
BYLAYER
 62
250
 10
256.342543033738
 20
619.385281374238
 40
2.6
  0
CIRCLE
  8
DIMENSION
  6
BYLAYER
 62
250
 10
256.342543033738
 20
619.385281374238
 40
2.50000000000001
  0
LINE
  8
DIMENSION
  6
BYLAYER
 62
250
 10
255.942543033738
 20
618.785281374238
 11
255.942543033738
 21
617.885281374238
  0
LINE
  8
DIMENSION
  6
BYLAYER
 62
250
 10
256.742543033738
 20
618.785281374238
 11
256.742543033738
 21
617.885281374238
  0
LINE
  8
DIMENSION
  6
BYLAYER
 62
250
 10
255.742543033738
 20
619.785281374238
 11
254.842543033738
 21
619.785281374238
  0
LINE
  8
DIMENSION
  6
BYLAYER
 62
250
 10
255.742543033738
 20
618.985281374238
 11
254.842543033738
 21
618.985281374238
  0
ARC
  8
DIMENSION
  6
BYLAYER
 62
250
 10
256.942543033738
 20
619.985281374238
 40
0.199999999999989
 50
180
 51
270
  0
ARC
  8
DIMENSION
  6
BYLAYER
 62
250
 10
256.942543033738
 20
618.785281374238
 40
0.199999999999989
 50
90
 51
180
  0
ARC
  8
DIMENSION
  6
BYLAYER
 62
250
 10
255.742543033738
 20
619.985281374238
 40
0.199999999999989
 50
270
 51
0
  0
ARC
  8
DIMENSION
  6
BYLAYER
 62
250
 10
255.742543033738
 20
618.785281374238
 40
0.199999999999989
 50
0
 51
90
  0
LINE
  8
DIMENSION
  6
BYLAYER
 62
250
 10
256.742543033738
 20
617.885281374238
 11
255.942543033738
 21
617.885281374238
  0
LINE
  8
DIMENSION
  6
BYLAYER
 62
250
 10
256.742543033738
 20
620.885281374238
 11
255.942543033738
 21
620.885281374238
  0
LINE
  8
DIMENSION
  6
BYLAYER
 62
250
 10
254.842543033738
 20
619.785281374238
 11
254.842543033738
 21
618.985281374238
  0
LINE
  8
DIMENSION
  6
BYLAYER
 62
250
 10
257.842543033738
 20
619.785281374238
 11
257.842543033738
 21
618.985281374238
  0
LINE
  8
DIMENSION
  6
BYLAYER
 62
250
 10
257.842543033738
 20
618.985281374238
 11
256.942543033738
 21
618.985281374238
  0
LINE
  8
DIMENSION
  6
BYLAYER
 62
250
 10
257.842543033738
 20
619.785281374238
 11
256.942543033738
 21
619.785281374238
  0
LINE
  8
DIMENSION
  6
BYLAYER
 62
250
 10
256.742543033738
 20
620.885281374238
 11
256.742543033738
 21
619.985281374238
  0
LINE
  8
DIMENSION
  6
BYLAYER
 62
250
 10
255.942543033738
 20
620.885281374238
 11
255.942543033738
 21
619.985281374238
  0
CIRCLE
  8
DIMENSION
  6
BYLAYER
 62
250
 10
345.342543033739
 20
651.885281374239
 40
2.59999999999998
  0
CIRCLE
  8
DIMENSION
  6
BYLAYER
 62
250
 10
345.342543033739
 20
651.885281374239
 40
2.49999999999999
  0
LINE
  8
DIMENSION
  6
BYLAYER
 62
250
 10
344.942543033738
 20
651.285281374239
 11
344.942543033738
 21
650.385281374239
  0
LINE
  8
DIMENSION
  6
BYLAYER
 62
250
 10
345.742543033738
 20
651.285281374239
 11
345.742543033738
 21
650.385281374239
  0
LINE
  8
DIMENSION
  6
BYLAYER
 62
250
 10
344.742543033738
 20
652.285281374239
 11
343.842543033739
 21
652.285281374239
  0
LINE
  8
DIMENSION
  6
BYLAYER
 62
250
 10
344.742543033738
 20
651.485281374238
 11
343.842543033739
 21
651.485281374238
  0
ARC
  8
DIMENSION
  6
BYLAYER
 62
250
 10
345.942543033738
 20
652.485281374238
 40
0.199999999999989
 50
180
 51
270
  0
ARC
  8
DIMENSION
  6
BYLAYER
 62
250
 10
345.942543033738
 20
651.285281374239
 40
0.199999999999989
 50
90
 51
180
  0
ARC
  8
DIMENSION
  6
BYLAYER
 62
250
 10
344.742543033738
 20
652.485281374238
 40
0.199999999999989
 50
270
 51
0
  0
ARC
  8
DIMENSION
  6
BYLAYER
 62
250
 10
344.742543033738
 20
651.285281374239
 40
0.199999999999989
 50
0
 51
90
  0
LINE
  8
DIMENSION
  6
BYLAYER
 62
250
 10
345.742543033738
 20
650.385281374239
 11
344.942543033738
 21
650.385281374239
  0
LINE
  8
DIMENSION
  6
BYLAYER
 62
250
 10
345.742543033738
 20
653.385281374239
 11
344.942543033738
 21
653.385281374239
  0
LINE
  8
DIMENSION
  6
BYLAYER
 62
250
 10
343.842543033739
 20
652.285281374239
 11
343.842543033739
 21
651.485281374238
  0
LINE
  8
DIMENSION
  6
BYLAYER
 62
250
 10
346.842543033739
 20
652.285281374239
 11
346.842543033739
 21
651.485281374238
  0
LINE
  8
DIMENSION
  6
BYLAYER
 62
250
 10
346.842543033739
 20
651.485281374238
 11
345.942543033738
 21
651.485281374238
  0
LINE
  8
DIMENSION
  6
BYLAYER
 62
250
 10
346.842543033739
 20
652.285281374239
 11
345.942543033738
 21
652.285281374239
  0
LINE
  8
DIMENSION
  6
BYLAYER
 62
250
 10
345.742543033738
 20
653.385281374239
 11
345.742543033738
 21
652.485281374238
  0
LINE
  8
DIMENSION
  6
BYLAYER
 62
250
 10
344.942543033738
 20
653.385281374239
 11
344.942543033738
 21
652.485281374238
  0
CIRCLE
  8
DIMENSION
  6
BYLAYER
 62
250
 10
345.342543033739
 20
619.385281374238
 40
2.59999999999998
  0
CIRCLE
  8
DIMENSION
  6
BYLAYER
 62
250
 10
345.342543033739
 20
619.385281374238
 40
2.49999999999999
  0
LINE
  8
DIMENSION
  6
BYLAYER
 62
250
 10
344.942543033738
 20
618.785281374239
 11
344.942543033738
 21
617.885281374238
  0
LINE
  8
DIMENSION
  6
BYLAYER
 62
250
 10
345.742543033738
 20
618.785281374239
 11
345.742543033738
 21
617.885281374238
  0
LINE
  8
DIMENSION
  6
BYLAYER
 62
250
 10
344.742543033738
 20
619.785281374239
 11
343.842543033739
 21
619.785281374239
  0
LINE
  8
DIMENSION
  6
BYLAYER
 62
250
 10
344.742543033738
 20
618.985281374238
 11
343.842543033739
 21
618.985281374238
  0
ARC
  8
DIMENSION
  6
BYLAYER
 62
250
 10
345.942543033738
 20
619.985281374238
 40
0.199999999999989
 50
180
 51
270
  0
ARC
  8
DIMENSION
  6
BYLAYER
 62
250
 10
345.942543033738
 20
618.785281374239
 40
0.199999999999989
 50
90
 51
180
  0
ARC
  8
DIMENSION
  6
BYLAYER
 62
250
 10
344.742543033738
 20
619.985281374238
 40
0.199999999999989
 50
270
 51
0
  0
ARC
  8
DIMENSION
  6
BYLAYER
 62
250
 10
344.742543033738
 20
618.785281374239
 40
0.199999999999989
 50
0
 51
90
  0
LINE
  8
DIMENSION
  6
BYLAYER
 62
250
 10
345.742543033738
 20
617.885281374238
 11
344.942543033738
 21
617.885281374238
  0
LINE
  8
DIMENSION
  6
BYLAYER
 62
250
 10
345.742543033738
 20
620.885281374238
 11
344.942543033738
 21
620.885281374238
  0
LINE
  8
DIMENSION
  6
BYLAYER
 62
250
 10
343.842543033739
 20
619.785281374239
 11
343.842543033739
 21
618.985281374238
  0
LINE
  8
DIMENSION
  6
BYLAYER
 62
250
 10
346.842543033739
 20
619.785281374239
 11
346.842543033739
 21
618.985281374238
  0
LINE
  8
DIMENSION
  6
BYLAYER
 62
250
 10
346.842543033739
 20
618.985281374238
 11
345.942543033738
 21
618.985281374238
  0
LINE
  8
DIMENSION
  6
BYLAYER
 62
250
 10
346.842543033739
 20
619.785281374239
 11
345.942543033738
 21
619.785281374239
  0
LINE
  8
DIMENSION
  6
BYLAYER
 62
250
 10
345.742543033738
 20
620.885281374238
 11
345.742543033738
 21
619.985281374238
  0
LINE
  8
DIMENSION
  6
BYLAYER
 62
250
 10
344.942543033738
 20
620.885281374238
 11
344.942543033738
 21
619.985281374238
  0
CIRCLE
  8
DIMENSION
  6
BYLAYER
 62
250
 10
362.342543033738
 20
651.885281374239
 40
2.60000000000002
  0
CIRCLE
  8
DIMENSION
  6
BYLAYER
 62
250
 10
362.342543033738
 20
651.885281374239
 40
2.50000000000003
  0
LINE
  8
DIMENSION
  6
BYLAYER
 62
250
 10
361.942543033738
 20
651.285281374239
 11
361.942543033738
 21
650.385281374239
  0
LINE
  8
DIMENSION
  6
BYLAYER
 62
250
 10
362.742543033738
 20
651.285281374239
 11
362.742543033738
 21
650.385281374239
  0
LINE
  8
DIMENSION
  6
BYLAYER
 62
250
 10
361.742543033738
 20
652.285281374239
 11
360.842543033738
 21
652.285281374239
  0
LINE
  8
DIMENSION
  6
BYLAYER
 62
250
 10
361.742543033738
 20
651.485281374239
 11
360.842543033738
 21
651.485281374239
  0
ARC
  8
DIMENSION
  6
BYLAYER
 62
250
 10
362.942543033737
 20
652.485281374239
 40
0.199999999999989
 50
180
 51
270
  0
ARC
  8
DIMENSION
  6
BYLAYER
 62
250
 10
362.942543033737
 20
651.285281374239
 40
0.199999999999989
 50
90
 51
180
  0
ARC
  8
DIMENSION
  6
BYLAYER
 62
250
 10
361.742543033738
 20
652.485281374239
 40
0.199999999999989
 50
270
 51
0
  0
ARC
  8
DIMENSION
  6
BYLAYER
 62
250
 10
361.742543033738
 20
651.285281374239
 40
0.199999999999989
 50
0
 51
90
  0
LINE
  8
DIMENSION
  6
BYLAYER
 62
250
 10
362.742543033737
 20
650.385281374239
 11
361.942543033738
 21
650.385281374239
  0
LINE
  8
DIMENSION
  6
BYLAYER
 62
250
 10
362.742543033737
 20
653.385281374239
 11
361.942543033738
 21
653.385281374239
  0
LINE
  8
DIMENSION
  6
BYLAYER
 62
250
 10
360.842543033738
 20
652.285281374239
 11
360.842543033738
 21
651.485281374239
  0
LINE
  8
DIMENSION
  6
BYLAYER
 62
250
 10
363.842543033738
 20
652.285281374239
 11
363.842543033738
 21
651.485281374239
  0
LINE
  8
DIMENSION
  6
BYLAYER
 62
250
 10
363.842543033738
 20
651.485281374239
 11
362.942543033737
 21
651.485281374239
  0
LINE
  8
DIMENSION
  6
BYLAYER
 62
250
 10
363.842543033738
 20
652.285281374239
 11
362.942543033737
 21
652.285281374239
  0
LINE
  8
DIMENSION
  6
BYLAYER
 62
250
 10
362.742543033737
 20
653.385281374239
 11
362.742543033738
 21
652.485281374239
  0
LINE
  8
DIMENSION
  6
BYLAYER
 62
250
 10
361.942543033738
 20
653.385281374239
 11
361.942543033738
 21
652.485281374239
  0
CIRCLE
  8
DIMENSION
  6
BYLAYER
 62
250
 10
362.74254303374
 20
619.385281374239
 40
2.59999999999998
  0
CIRCLE
  8
DIMENSION
  6
BYLAYER
 62
250
 10
362.74254303374
 20
619.385281374239
 40
2.49999999999999
  0
LINE
  8
DIMENSION
  6
BYLAYER
 62
250
 10
362.342543033741
 20
618.785281374239
 11
362.342543033741
 21
617.885281374239
  0
LINE
  8
DIMENSION
  6
BYLAYER
 62
250
 10
363.14254303374
 20
618.785281374239
 11
363.14254303374
 21
617.885281374239
  0
LINE
  8
DIMENSION
  6
BYLAYER
 62
250
 10
362.14254303374
 20
619.785281374239
 11
361.24254303374
 21
619.785281374239
  0
LINE
  8
DIMENSION
  6
BYLAYER
 62
250
 10
362.14254303374
 20
618.985281374239
 11
361.24254303374
 21
618.985281374239
  0
ARC
  8
DIMENSION
  6
BYLAYER
 62
250
 10
363.342543033739
 20
619.985281374239
 40
0.199999999999989
 50
180
 51
270
  0
ARC
  8
DIMENSION
  6
BYLAYER
 62
250
 10
363.342543033739
 20
618.785281374239
 40
0.199999999999989
 50
90
 51
180
  0
ARC
  8
DIMENSION
  6
BYLAYER
 62
250
 10
362.14254303374
 20
619.985281374239
 40
0.199999999999989
 50
270
 51
0
  0
ARC
  8
DIMENSION
  6
BYLAYER
 62
250
 10
362.14254303374
 20
618.785281374239
 40
0.199999999999989
 50
0
 51
90
  0
LINE
  8
DIMENSION
  6
BYLAYER
 62
250
 10
363.14254303374
 20
617.885281374239
 11
362.342543033741
 21
617.885281374239
  0
LINE
  8
DIMENSION
  6
BYLAYER
 62
250
 10
363.14254303374
 20
620.885281374239
 11
362.342543033741
 21
620.885281374239
  0
LINE
  8
DIMENSION
  6
BYLAYER
 62
250
 10
361.24254303374
 20
619.785281374239
 11
361.24254303374
 21
618.985281374239
  0
LINE
  8
DIMENSION
  6
BYLAYER
 62
250
 10
364.24254303374
 20
619.785281374239
 11
364.24254303374
 21
618.985281374239
  0
LINE
  8
DIMENSION
  6
BYLAYER
 62
250
 10
364.24254303374
 20
618.985281374239
 11
363.342543033739
 21
618.985281374239
  0
LINE
  8
DIMENSION
  6
BYLAYER
 62
250
 10
364.24254303374
 20
619.785281374239
 11
363.342543033739
 21
619.785281374239
  0
LINE
  8
DIMENSION
  6
BYLAYER
 62
250
 10
363.14254303374
 20
620.885281374239
 11
363.14254303374
 21
619.985281374239
  0
LINE
  8
DIMENSION
  6
BYLAYER
 62
250
 10
362.342543033741
 20
620.885281374239
 11
362.342543033741
 21
619.985281374239
  0
CIRCLE
  8
DIMENSION
  6
BYLAYER
 62
250
 10
227.092543033737
 20
687.185281374242
 40
3.25000000000001
  0
LINE
  8
DIMENSION
  6
BYLAYER
 62
250
 10
226.592543033737
 20
689.121773047346
 11
226.592543033737
 21
687.985281374242
  0
LINE
  8
DIMENSION
  6
BYLAYER
 62
250
 10
227.592543033737
 20
689.121773047346
 11
227.592543033737
 21
687.985281374242
  0
LINE
  8
DIMENSION
  6
BYLAYER
 62
250
 10
229.029034706841
 20
687.685281374242
 11
227.892543033738
 21
687.685281374242
  0
LINE
  8
DIMENSION
  6
BYLAYER
 62
250
 10
229.029034706841
 20
686.685281374241
 11
227.892543033738
 21
686.685281374242
  0
LINE
  8
DIMENSION
  6
BYLAYER
 62
250
 10
227.592543033737
 20
686.385281374242
 11
227.592543033737
 21
685.248789701139
  0
LINE
  8
DIMENSION
  6
BYLAYER
 62
250
 10
226.592543033737
 20
686.385281374242
 11
226.592543033737
 21
685.248789701139
  0
LINE
  8
DIMENSION
  6
BYLAYER
 62
250
 10
226.292543033737
 20
686.685281374242
 11
225.156051360634
 21
686.685281374241
  0
LINE
  8
DIMENSION
  6
BYLAYER
 62
250
 10
226.292543033737
 20
687.685281374242
 11
225.156051360634
 21
687.685281374242
  0
ARC
  8
DIMENSION
  6
BYLAYER
 62
250
 10
227.092543033737
 20
687.185281374242
 40
1.99999999999999
 50
165.52248781407
 51
194.477512185953
  0
ARC
  8
DIMENSION
  6
BYLAYER
 62
250
 10
227.092543033737
 20
687.185281374242
 40
1.99999999999999
 50
255.52248781407
 51
284.47751218593
  0
ARC
  8
DIMENSION
  6
BYLAYER
 62
250
 10
227.092543033737
 20
687.185281374242
 40
1.99999999999999
 50
75.5224878140701
 51
104.47751218593
  0
ARC
  8
DIMENSION
  6
BYLAYER
 62
250
 10
227.092543033737
 20
687.185281374242
 40
1.99999999999999
 50
345.522487814046
 51
14.4775121859299
  0
ARC
  8
DIMENSION
  6
BYLAYER
 62
250
 10
226.292543033737
 20
687.985281374242
 40
0.300000000000004
 50
270
 51
0
  0
ARC
  8
DIMENSION
  6
BYLAYER
 62
250
 10
226.292543033737
 20
686.385281374242
 40
0.300000000000004
 50
0
 51
90
  0
ARC
  8
DIMENSION
  6
BYLAYER
 62
250
 10
227.892543033738
 20
686.385281374242
 40
0.300000000000004
 50
90
 51
180
  0
ARC
  8
DIMENSION
  6
BYLAYER
 62
250
 10
227.892543033738
 20
687.985281374242
 40
0.300000000000004
 50
180
 51
270
  0
CIRCLE
  8
DIMENSION
  6
BYLAYER
 62
250
 10
227.092543033737
 20
687.185281374242
 40
3.25000000000001
  0
CIRCLE
  8
DIMENSION
  6
BYLAYER
 62
250
 10
227.092543033737
 20
687.185281374242
 40
3
  0
LINE
  8
$DDT_AUDIT_GENERATED__27_
  6
CONTINUOUS
 62
7
 10
273.713127461049
 20
754.785281383091
 11
327.971958632938
 21
754.785281427067
  0
LINE
  8
$DDT_AUDIT_GENERATED__27_
  6
CONTINUOUS
 62
7
 10
271.540335241648
 20
752.98528138133
 11
330.144750825827
 21
752.985281428828
  0
LINE
  8
$DDT_AUDIT_GENERATED__27_
  6
CONTINUOUS
 62
7
 10
303.744750827216
 20
756.585281407431
 11
328.717543048798
 21
756.585281427671
  0
LINE
  8
$DDT_AUDIT_GENERATED__27_
  6
CONTINUOUS
 62
7
 10
330.890335241686
 20
754.785281429432
 11
335.34485282601
 21
754.785281433043
  0
LINE
  8
$DDT_AUDIT_GENERATED__27_
  6
CONTINUOUS
 62
7
 10
333.063127434574
 20
752.985281431193
 11
339.944750812904
 21
752.985281436771
  0
LINE
  8
DIMENSION
  6
CONTINUOUS
 62
250
 10
332.317543018714
 20
751.185281430589
 11
339.944750814363
 21
751.18528143677
  0
ARC
  8
0
  6
CONTINUOUS
 62
250
 10
339.944750813633
 20
752.08528143677
 40
0.9
 50
270.00000004643
 51
90.0000000464302
  0
LINE
  8
$DDT_AUDIT_GENERATED__27_
  6
CONTINUOUS
 62
7
 10
332.426731328246
 20
753.248885330655
 11
329.353939155125
 21
756.321677528209
  0
LINE
  8
$DDT_AUDIT_GENERATED__27_
  6
CONTINUOUS
 62
7
 10
331.681146912387
 20
751.448885330051
 11
328.608354739266
 21
754.521677527605
  0
ARC
  8
0
  6
CONTINUOUS
 62
250
 10
332.317543017985
 20
752.085281430589
 40
0.9
 50
224.999999772213
 51
270.00000004643
  0
ARC
  8
0
  6
CONTINUOUS
 62
250
 10
333.063127433844
 20
753.885281431193
 40
0.9
 50
224.999999772218
 51
270.00000004643
  0
ARC
  8
0
  6
CONTINUOUS
 62
250
 10
328.717543049527
 20
755.685281427671
 40
0.9
 50
44.9999997722181
 51
90.0000000464302
  0
ARC
  8
0
  6
CONTINUOUS
 62
250
 10
327.971958633668
 20
753.885281427067
 40
0.9
 50
44.9999997722181
 51
90.0000000464302
  0
ARC
  8
0
  6
CONTINUOUS
 62
250
 10
303.744750827945
 20
755.685281407431
 40
0.9
 50
90.0000000464302
 51
270.00000004643
  0
LINE
  8
$DDT_AUDIT_GENERATED__27_
  6
CONTINUOUS
 62
7
 10
272.967543052366
 20
756.585281382487
 11
297.944750827216
 21
756.58528140273
  0
ARC
  8
0
  6
CONTINUOUS
 62
250
 10
297.944750827946
 20
755.68528140273
 40
0.9
 50
270.00000004643
 51
90.0000000464302
  0
LINE
  8
$DDT_AUDIT_GENERATED__27_
  6
CONTINUOUS
 62
7
 10
261.744750812904
 20
752.985281373391
 11
268.621958613599
 21
752.985281378965
  0
LINE
  8
DIMENSION
  6
CONTINUOUS
 62
250
 10
261.744750814363
 20
751.185281373391
 11
269.367543021553
 21
751.185281379587
  0
LINE
  8
$DDT_AUDIT_GENERATED__27_
  6
CONTINUOUS
 62
7
 10
270.003939122091
 20
751.448885273989
 11
273.076731361241
 21
754.521677488707
  0
LINE
  8
$DDT_AUDIT_GENERATED__27_
  6
CONTINUOUS
 62
7
 10
269.258354713407
 20
753.248885273385
 11
272.331146952557
 21
756.321677488103
  0
ARC
  8
0
  6
CONTINUOUS
 62
250
 10
269.367543021553
 20
752.085281379587
 40
0.9
 50
270.00000004643
 51
314.999999772236
  0
ARC
  8
0
  6
CONTINUOUS
 62
250
 10
268.62195861287
 20
753.885281378983
 40
0.9
 50
270.00000004643
 51
314.999999772236
  0
ARC
  8
0
  6
CONTINUOUS
 62
250
 10
272.967543053095
 20
755.685281382505
 40
0.9
 50
90.0000000464302
 51
134.999999772236
  0
ARC
  8
0
  6
CONTINUOUS
 62
250
 10
273.713127461779
 20
753.885281383109
 40
0.9
 50
90.0000000464302
 51
134.999999772236
  0
ARC
  8
0
  6
CONTINUOUS
 62
250
 10
261.744750813634
 20
752.085281373391
 40
0.9
 50
90.0000000464302
 51
270.00000004643
  0
LINE
  8
DIMENSION
  6
CONTINUOUS
 62
250
 10
261.629750813633
 20
752.985281376106
 11
268.557954043909
 21
752.985281376106
  0
LINE
  8
DIMENSION
  6
CONTINUOUS
 62
250
 10
333.129750813634
 20
752.985281434055
 11
340.057954043909
 21
752.985281434055
  0
LINE
  8
$DDT_AUDIT_GENERATED__27_
  6
CONTINUOUS
 62
7
 10
266.342852025374
 20
754.785281377117
 11
270.794750832964
 21
754.785281380726
  0
ARC
  8
DIMENSION
  6
CONTINUOUS
 62
250
 10
265.093852428771
 20
750.985281376106
 40
4
 50
29.9999999999973
 51
150.000000000003
  0
ARC
  8
DIMENSION
  6
CONTINUOUS
 62
250
 10
336.593852428771
 20
750.985281434055
 40
4
 50
29.9999999999973
 51
150.000000000003
  0
LINE
  8
$DDT_AUDIT_GENERATED__27_
  6
CONTINUOUS
 62
250
 10
360.842543033738
 20
762.185281374242
 11
347.842543033738
 21
762.185281374242
  0
LINE
  8
$DDT_AUDIT_GENERATED__27_
  6
CONTINUOUS
 62
250
 10
346.842543033739
 20
756.185281374242
 11
361.842543033738
 21
756.185281374242
  0
LINE
  8
$DDT_AUDIT_GENERATED__27_
  6
CONTINUOUS
 62
250
 10
361.342543033737
 20
756.185281374242
 11
361.342543033737
 21
761.685281374242
  0
LINE
  8
$DDT_AUDIT_GENERATED__27_
  6
CONTINUOUS
 62
250
 10
362.342543033737
 20
751.185281374242
 11
362.342543033738
 21
755.685281374242
  0
LINE
  8
$DDT_AUDIT_GENERATED__27_
  6
CONTINUOUS
 62
250
 10
347.342543033737
 20
761.685281374242
 11
347.342543033737
 21
756.185281374242
  0
LINE
  8
$DDT_AUDIT_GENERATED__27_
  6
CONTINUOUS
 62
250
 10
346.342543033738
 20
751.185281374242
 11
346.342543033738
 21
755.685281374242
  0
ARC
  8
DIMENSION
  6
BYLAYER
 62
250
 10
346.842543033739
 20
755.685281374242
 40
0.500000000000014
 50
89.9999999999902
 51
179.99999999999
  0
ARC
  8
DIMENSION
  6
BYLAYER
 62
250
 10
347.842543033738
 20
761.685281374242
 40
0.500000000000014
 50
90
 51
180
  0
ARC
  8
DIMENSION
  6
BYLAYER
 62
250
 10
361.842543033738
 20
755.685281374242
 40
0.500000000000014
 50
-9.77066398145565E-12
 51
89.9999999999902
  0
ARC
  8
DIMENSION
  6
BYLAYER
 62
250
 10
360.842543033738
 20
761.685281374242
 40
0.500000000000014
 50
0
 51
90
  0
LINE
  8
0
  6
CONTINUOUS
 10
206.842543033739
 20
754.185281374242
 11
226.842543033739
 21
754.185281374242
  0
LINE
  8
0
  6
CONTINUOUS
 10
206.842543033739
 20
751.185281374242
 11
226.842543033739
 21
751.185281374242
  0
LINE
  8
0
  6
CONTINUOUS
 10
203.842543033739
 20
751.185281374242
 11
203.842543033739
 21
754.185281374242
  0
LINE
  8
0
  6
CONTINUOUS
 10
229.842543033739
 20
751.185281374242
 11
229.842543033739
 21
754.185281374242
  0
LINE
  8
0
  6
CONTINUOUS
 10
203.842543033739
 20
754.185281374242
 11
206.844033818593
 21
754.185281374242
  0
LINE
  8
0
  6
CONTINUOUS
 10
203.842543033739
 20
751.185281374242
 11
206.842543033739
 21
751.185281374242
  0
LINE
  8
0
  6
CONTINUOUS
 10
229.842543033739
 20
754.185281374242
 11
226.842543033739
 21
754.185281374242
  0
LINE
  8
0
  6
CONTINUOUS
 10
229.842543033739
 20
751.185281374242
 11
226.842543033739
 21
751.185281374242
  0
LINE
  8
0
  6
CONTINUOUS
 10
206.842543033739
 20
751.185281374242
 11
226.842543033739
 21
751.185281374242
  0
POLYLINE
  8
0
  6
BYBLOCK
 62
250
 66
1
 70
1
  0
VERTEX
  8
0
 10
507.422673684303
 20
376.453638923746
 30
0
  0
VERTEX
  8
0
 10
507.426700331359
 20
376.363943955526
 30
0
  0
VERTEX
  8
0
 10
507.438764058641
 20
376.274610157286
 30
0
  0
VERTEX
  8
0
 10
507.458816289777
 20
376.185997244702
 30
0
  0
VERTEX
  8
0
 10
507.48677628151
 20
376.098462030697
 30
0
  0
VERTEX
  8
0
 10
507.522531448821
 20
376.012356988683
 30
0
  0
VERTEX
  8
0
 10
507.56593781827
 20
375.928028833273
 30
0
  0
VERTEX
  8
0
 10
507.616820607729
 20
375.845817124187
 30
0
  0
VERTEX
  8
0
 10
507.674974930163
 20
375.766052898961
 30
0
  0
VERTEX
  8
0
 10
507.74016661864
 20
375.689057339977
 30
0
  0
VERTEX
  8
0
 10
507.812133169241
 20
375.615140481177
 30
0
  0
VERTEX
  8
0
 10
507.890584798065
 20
375.544599959663
 30
0
  0
VERTEX
  8
0
 10
507.975205608092
 20
375.477719817217
 30
0
  0
VERTEX
  8
0
 10
508.065654861188
 20
375.414769356568
 30
0
  0
VERTEX
  8
0
 10
508.161568350134
 20
375.356002057004
 30
0
  0
VERTEX
  8
0
 10
508.26255986516
 20
375.301654553699
 30
0
  0
VERTEX
  8
0
 10
508.368222749082
 20
375.251945684865
 30
0
  0
VERTEX
  8
0
 10
508.478131534757
 20
375.207075610575
 30
0
  0
VERTEX
  8
0
 10
508.591843658299
 20
375.16722500678
 30
0
  0
VERTEX
  8
0
 10
508.708901241119
 20
375.132554337797
 30
0
  0
VERTEX
  8
0
 10
508.828832933646
 20
375.103203210173
 30
0
  0
VERTEX
  8
0
 10
508.951155813284
 20
375.079289810539
 30
0
  0
VERTEX
  8
0
 10
509.075377328969
 20
375.060910429717
 30
0
  0
VERTEX
  8
0
 10
509.200997284501
 20
375.048139074985
 30
0
  0
VERTEX
  8
0
 10
509.327509852655
 20
375.041027172081
 30
0
  0
VERTEX
  8
0
 10
509.454405611972
 20
375.03960335813
 30
0
  0
VERTEX
  8
0
 10
509.581173598016
 20
375.043873366325
 30
0
  0
VERTEX
  8
0
 10
509.707303360849
 20
375.053820002853
 30
0
  0
VERTEX
  8
0
 10
509.832287020433
 20
375.069403216118
 30
0
  0
VERTEX
  8
0
 10
509.955621311683
 20
375.090560258019
 30
0
  0
VERTEX
  8
0
 10
510.076809610937
 20
375.117205936618
 30
0
  0
VERTEX
  8
0
 10
510.195363935689
 20
375.14923295917
 30
0
  0
VERTEX
  8
0
 10
510.310806909514
 20
375.18651236416
 30
0
  0
VERTEX
  8
0
 10
510.422673684303
 20
375.22889404058
 30
0
  0
VERTEX
  8
0
 10
510.530513812035
 20
375.276207332379
 30
0
  0
VERTEX
  8
0
 10
510.633893058578
 20
375.328261725629
 30
0
  0
VERTEX
  8
0
 10
510.732395152193
 20
375.384847615661
 30
0
  0
VERTEX
  8
0
 10
510.825623459715
 20
375.445737151068
 30
0
  0
VERTEX
  8
0
 10
510.913202583654
 20
375.510685151181
 30
0
  0
VERTEX
  8
0
 10
510.994779873788
 20
375.579430093326
 30
0
  0
VERTEX
  8
0
 10
511.070026847162
 20
375.651695165884
 30
0
  0
VERTEX
  8
0
 10
511.138640510773
 20
375.727189382914
 30
0
  0
VERTEX
  8
0
 10
511.200344581612
 20
375.80560875585
 30
0
  0
VERTEX
  8
0
 10
511.254890599167
 20
375.886637517553
 30
0
  0
VERTEX
  8
0
 10
511.302058925874
 20
375.9699493938
 30
0
  0
VERTEX
  8
0
 10
511.341659631532
 20
376.055208917068
 30
0
  0
VERTEX
  8
0
 10
511.373533258073
 20
376.14207277735
 30
0
  0
VERTEX
  8
0
 10
511.397551461655
 20
376.230191204538
 30
0
  0
VERTEX
  8
0
 10
511.413617529449
 20
376.319209376827
 30
0
  0
VERTEX
  8
0
 10
511.421666769069
 20
376.408768849455
 30
0
  0
VERTEX
  8
0
 10
511.421666769069
 20
376.498508998036
 30
0
  0
VERTEX
  8
0
 10
511.413617529449
 20
376.588068470664
 30
0
  0
VERTEX
  8
0
 10
511.397551461655
 20
376.677086642953
 30
0
  0
VERTEX
  8
0
 10
511.373533258073
 20
376.765205070141
 30
0
  0
VERTEX
  8
0
 10
511.341659631532
 20
376.852068930423
 30
0
  0
VERTEX
  8
0
 10
511.302058925874
 20
376.937328453692
 30
0
  0
VERTEX
  8
0
 10
511.254890599167
 20
377.020640329938
 30
0
  0
VERTEX
  8
0
 10
511.200344581612
 20
377.101669091641
 30
0
  0
VERTEX
  8
0
 10
511.138640510773
 20
377.180088464577
 30
0
  0
VERTEX
  8
0
 10
511.070026847162
 20
377.255582681607
 30
0
  0
VERTEX
  8
0
 10
510.994779873788
 20
377.327847754166
 30
0
  0
VERTEX
  8
0
 10
510.913202583654
 20
377.396592696311
 30
0
  0
VERTEX
  8
0
 10
510.825623459715
 20
377.461540696423
 30
0
  0
VERTEX
  8
0
 10
510.732395152193
 20
377.52243023183
 30
0
  0
VERTEX
  8
0
 10
510.633893058578
 20
377.579016121862
 30
0
  0
VERTEX
  8
0
 10
510.530513812035
 20
377.631070515112
 30
0
  0
VERTEX
  8
0
 10
510.422673684303
 20
377.678383806911
 30
0
  0
VERTEX
  8
0
 10
510.310806909514
 20
377.720765483332
 30
0
  0
VERTEX
  8
0
 10
510.195363935689
 20
377.758044888321
 30
0
  0
VERTEX
  8
0
 10
510.076809610937
 20
377.790071910873
 30
0
  0
VERTEX
  8
0
 10
509.955621311683
 20
377.816717589472
 30
0
  0
VERTEX
  8
0
 10
509.832287020433
 20
377.837874631374
 30
0
  0
VERTEX
  8
0
 10
509.707303360849
 20
377.853457844638
 30
0
  0
VERTEX
  8
0
 10
509.581173598016
 20
377.863404481166
 30
0
  0
VERTEX
  8
0
 10
509.454405611972
 20
377.867674489362
 30
0
  0
VERTEX
  8
0
 10
509.327509852655
 20
377.86625067541
 30
0
  0
VERTEX
  8
0
 10
509.2009972845
 20
377.859138772506
 30
0
  0
VERTEX
  8
0
 10
509.075377328969
 20
377.846367417775
 30
0
  0
VERTEX
  8
0
 10
508.951155813284
 20
377.827988036952
 30
0
  0
VERTEX
  8
0
 10
508.828832933646
 20
377.804074637319
 30
0
  0
VERTEX
  8
0
 10
508.708901241119
 20
377.774723509695
 30
0
  0
VERTEX
  8
0
 10
508.591843658299
 20
377.740052840711
 30
0
  0
VERTEX
  8
0
 10
508.478131534757
 20
377.700202236916
 30
0
  0
VERTEX
  8
0
 10
508.368222749082
 20
377.655332162626
 30
0
  0
VERTEX
  8
0
 10
508.26255986516
 20
377.605623293793
 30
0
  0
VERTEX
  8
0
 10
508.161568350134
 20
377.551275790487
 30
0
  0
VERTEX
  8
0
 10
508.065654861188
 20
377.492508490923
 30
0
  0
VERTEX
  8
0
 10
507.975205608092
 20
377.429558030274
 30
0
  0
VERTEX
  8
0
 10
507.890584798065
 20
377.362677887829
 30
0
  0
VERTEX
  8
0
 10
507.812133169241
 20
377.292137366314
 30
0
  0
VERTEX
  8
0
 10
507.74016661864
 20
377.218220507514
 30
0
  0
VERTEX
  8
0
 10
507.674974930163
 20
377.14122494853
 30
0
  0
VERTEX
  8
0
 10
507.616820607729
 20
377.061460723304
 30
0
  0
VERTEX
  8
0
 10
507.56593781827
 20
376.979249014218
 30
0
  0
VERTEX
  8
0
 10
507.522531448821
 20
376.894920858809
 30
0
  0
VERTEX
  8
0
 10
507.48677628151
 20
376.808815816794
 30
0
  0
VERTEX
  8
0
 10
507.458816289777
 20
376.721280602789
 30
0
  0
VERTEX
  8
0
 10
507.438764058641
 20
376.632667690205
 30
0
  0
VERTEX
  8
0
 10
507.426700331359
 20
376.543333891965
 30
0
  0
VERTEX
  8
0
 10
507.422673684303
 20
376.453638923746
 30
0
  0
SEQEND
  8
0
  0
POLYLINE
  8
0
  6
BYBLOCK
 62
250
 66
1
  0
VERTEX
  8
0
 10
511.408550123592
 20
376.621410746409
 30
0
  0
VERTEX
  8
0
 10
511.389344658161
 20
376.658765725876
 30
0
  0
VERTEX
  8
0
 10
511.368618197472
 20
376.695665713678
 30
0
  0
VERTEX
  8
0
 10
511.346387591353
 20
376.732080711523
 30
0
  0
VERTEX
  8
0
 10
511.322670912444
 20
376.7679811154
 30
0
  0
VERTEX
  8
0
 10
511.297487441505
 20
376.80333773964
 30
0
  0
VERTEX
  8
0
 10
511.270857651744
 20
376.838121840647
 30
0
  0
VERTEX
  8
0
 10
511.242803192171
 20
376.872305140267
 30
0
  0
VERTEX
  8
0
 10
511.213346869997
 20
376.905859848771
 30
0
  0
VERTEX
  8
0
 10
511.182512632098
 20
376.938758687455
 30
0
  0
VERTEX
  8
0
 10
511.150325545538
 20
376.970974910808
 30
0
  0
VERTEX
  8
0
 10
511.116811777201
 20
377.002482328263
 30
0
  0
VERTEX
  8
0
 10
511.081998572508
 20
377.033255325484
 30
0
  0
VERTEX
  8
0
 10
511.045914233276
 20
377.063268885189
 30
0
  0
VERTEX
  8
0
 10
511.008588094705
 20
377.092498607492
 30
0
  0
VERTEX
  8
0
 10
510.970050501532
 20
377.120920729738
 30
0
  0
VERTEX
  8
0
 10
510.930332783358
 20
377.148512145817
 30
0
  0
VERTEX
  8
0
 10
510.889467229182
 20
377.175250424956
 30
0
  0
VERTEX
  8
0
 10
510.847487061153
 20
377.201113829945
 30
0
  0
VERTEX
  8
0
 10
510.804426407555
 20
377.226081334817
 30
0
  0
VERTEX
  8
0
 10
510.760320275067
 20
377.250132641936
 30
0
  0
VERTEX
  8
0
 10
510.715204520304
 20
377.273248198503
 30
0
  0
VERTEX
  8
0
 10
510.669115820664
 20
377.295409212445
 30
0
  0
VERTEX
  8
0
 10
510.622091644512
 20
377.316597667698
 30
0
  0
VERTEX
  8
0
 10
510.574170220723
 20
377.336796338851
 30
0
  0
VERTEX
  8
0
 10
510.525390507597
 20
377.35598880515
 30
0
  0
VERTEX
  8
0
 10
510.475792161191
 20
377.374159463848
 30
0
  0
VERTEX
  8
0
 10
510.425415503083
 20
377.391293542887
 30
0
  0
VERTEX
  8
0
 10
510.374301487585
 20
377.40737711291
 30
0
  0
VERTEX
  8
0
 10
510.322491668454
 20
377.422397098585
 30
0
  0
VERTEX
  8
0
 10
510.27002816511
 20
377.436341289233
 30
0
  0
VERTEX
  8
0
 10
510.216953628393
 20
377.449198348755
 30
0
  0
VERTEX
  8
0
 10
510.16331120589
 20
377.46095782485
 30
0
  0
VERTEX
  8
0
 10
510.109144506856
 20
377.471610157508
 30
0
  0
VERTEX
  8
0
 10
510.054497566765
 20
377.481146686787
 30
0
  0
VERTEX
  8
0
 10
509.999414811508
 20
377.489559659851
 30
0
  0
VERTEX
  8
0
 10
509.943941021277
 20
377.49684223727
 30
0
  0
VERTEX
  8
0
 10
509.888121294161
 20
377.502988498587
 30
0
  0
VERTEX
  8
0
 10
509.832001009483
 20
377.507993447122
 30
0
  0
VERTEX
  8
0
 10
509.775625790906
 20
377.511853014043
 30
0
  0
VERTEX
  8
0
 10
509.719041469348
 20
377.514564061668
 30
0
  0
VERTEX
  8
0
 10
509.662294045716
 20
377.516124386018
 30
0
  0
VERTEX
  8
0
 10
509.605429653515
 20
377.516532718609
 30
0
  0
VERTEX
  8
0
 10
509.548494521341
 20
377.515788727482
 30
0
  0
VERTEX
  8
0
 10
509.491534935298
 20
377.513893017472
 30
0
  0
VERTEX
  8
0
 10
509.434597201371
 20
377.510847129721
 30
0
  0
VERTEX
  8
0
 10
509.37772760778
 20
377.50665354042
 30
0
  0
VERTEX
  8
0
 10
509.320972387348
 20
377.501315658798
 30
0
  0
VERTEX
  8
0
 10
509.264377679918
 20
377.494837824351
 30
0
  0
VERTEX
  8
0
 10
509.207989494843
 20
377.487225303312
 30
0
  0
VERTEX
  8
0
 10
509.15185367358
 20
377.478484284372
 30
0
  0
VERTEX
  8
0
 10
509.096015852423
 20
377.468621873649
 30
0
  0
VERTEX
  8
0
 10
509.040521425406
 20
377.457646088909
 30
0
  0
VERTEX
  8
0
 10
508.985415507394
 20
377.445565853048
 30
0
  0
VERTEX
  8
0
 10
508.930742897409
 20
377.43239098684
 30
0
  0
VERTEX
  8
0
 10
508.876548042211
 20
377.418132200953
 30
0
  0
VERTEX
  8
0
 10
508.822875000164
 20
377.402801087239
 30
0
  0
VERTEX
  8
0
 10
508.769767405416
 20
377.386410109312
 30
0
  0
VERTEX
  8
0
 10
508.717268432429
 20
377.368972592417
 30
0
  0
VERTEX
  8
0
 10
508.665420760878
 20
377.350502712592
 30
0
  0
VERTEX
  8
0
 10
508.614266540955
 20
377.331015485151
 30
0
  0
VERTEX
  8
0
 10
508.563847359102
 20
377.310526752471
 30
0
  0
VERTEX
  8
0
 10
508.514204204203
 20
377.289053171115
 30
0
  0
VERTEX
  8
0
 10
508.465377434261
 20
377.266612198291
 30
0
  0
VERTEX
  8
0
 10
508.417406743589
 20
377.243222077658
 30
0
  0
VERTEX
  8
0
 10
508.37033113054
 20
377.2189018245
 30
0
  0
VERTEX
  8
0
 10
508.324188865805
 20
377.193671210259
 30
0
  0
VERTEX
  8
0
 10
508.279017461295
 20
377.167550746468
 30
0
  0
VERTEX
  8
0
 10
508.234853639649
 20
377.140561668076
 30
0
  0
VERTEX
  8
0
 10
508.191733304382
 20
377.112725916179
 30
0
  0
VERTEX
  8
0
 10
508.149691510691
 20
377.084066120188
 30
0
  0
VERTEX
  8
0
 10
508.108762436961
 20
377.054605579433
 30
0
  0
VERTEX
  8
0
 10
508.068979356977
 20
377.024368244215
 30
0
  0
VERTEX
  8
0
 10
508.030374612876
 20
376.993378696342
 30
0
  0
VERTEX
  8
0
 10
507.992979588852
 20
376.961662129142
 30
0
  0
VERTEX
  8
0
 10
507.956824685642
 20
376.929244326982
 30
0
  0
VERTEX
  8
0
 10
507.921939295811
 20
376.896151644307
 30
0
  0
VERTEX
  8
0
 10
507.88835177986
 20
376.862410984212
 30
0
  0
VERTEX
  8
0
 10
507.856089443165
 20
376.828049776577
 30
0
  0
VERTEX
  8
0
 10
507.825178513784
 20
376.79309595576
 30
0
  0
VERTEX
  8
0
 10
507.795644121131
 20
376.757577937893
 30
0
  0
VERTEX
  8
0
 10
507.767510275547
 20
376.721524597778
 30
0
  0
VERTEX
  8
0
 10
507.740799848783
 20
376.684965245414
 30
0
  0
VERTEX
  8
0
 10
507.715534555403
 20
376.64792960217
 30
0
  0
VERTEX
  8
0
 10
507.691734935133
 20
376.610447776618
 30
0
  0
VERTEX
  8
0
 10
507.669420336163
 20
376.572550240063
 30
0
  0
VERTEX
  8
0
 10
507.648608899415
 20
376.534267801766
 30
0
  0
VERTEX
  8
0
 10
507.629317543799
 20
376.495631583898
 30
0
  0
VERTEX
  8
0
 10
507.611561952456
 20
376.456672996239
 30
0
  0
VERTEX
  8
0
 10
507.595356560008
 20
376.417423710645
 30
0
  0
VERTEX
  8
0
 10
507.580714540825
 20
376.377915635298
 30
0
  0
VERTEX
  8
0
 10
507.567647798314
 20
376.338180888764
 30
0
  0
VERTEX
  8
0
 10
507.556166955242
 20
376.298251773888
 30
0
  0
VERTEX
  8
0
 10
507.546281345098
 20
376.258160751525
 30
0
  0
VERTEX
  8
0
 10
507.53799900451
 20
376.217940414159
 30
0
  0
VERTEX
  8
0
 10
507.531326666705
 20
376.177623459397
 30
0
  0
VERTEX
  8
0
 10
507.526269756042
 20
376.137242663398
 30
0
  0
VERTEX
  8
0
 10
507.522832383598
 20
376.096830854216
 30
0
  0
VERTEX
  8
0
 10
507.521017343825
 20
376.056420885122
 30
0
  0
VERTEX
  8
0
 10
507.520826112283
 20
376.016045607889
 30
0
  0
SEQEND
  8
0
  0
POLYLINE
  8
0
  6
BYBLOCK
 62
250
 66
1
  0
VERTEX
  8
0
 10
511.385836822707
 20
376.183462597232
 30
0
  0
VERTEX
  8
0
 10
511.367095930488
 20
376.216480058345
 30
0
  0
VERTEX
  8
0
 10
511.347147974688
 20
376.249106307392
 30
0
  0
VERTEX
  8
0
 10
511.326005979968
 20
376.281320041647
 30
0
  0
VERTEX
  8
0
 10
511.303683750617
 20
376.313100227724
 30
0
  0
VERTEX
  8
0
 10
511.280195861539
 20
376.344426115317
 30
0
  0
VERTEX
  8
0
 10
511.255557648731
 20
376.375277250746
 30
0
  0
VERTEX
  8
0
 10
511.229785199277
 20
376.405633490311
 30
0
  0
VERTEX
  8
0
 10
511.202895340837
 20
376.435475013446
 30
0
  0
VERTEX
  8
0
 10
511.174905630667
 20
376.464782335659
 30
0
  0
VERTEX
  8
0
 10
511.145834344149
 20
376.493536321257
 30
0
  0
VERTEX
  8
0
 10
511.115700462862
 20
376.521718195837
 30
0
  0
VERTEX
  8
0
 10
511.084523662187
 20
376.549309558546
 30
0
  0
VERTEX
  8
0
 10
511.052324298461
 20
376.576292394094
 30
0
  0
VERTEX
  8
0
 10
511.019123395685
 20
376.60264908452
 30
0
  0
VERTEX
  8
0
 10
510.984942631798
 20
376.628362420692
 30
0
  0
VERTEX
  8
0
 10
510.94980432452
 20
376.653415613545
 30
0
  0
VERTEX
  8
0
 10
510.913731416784
 20
376.677792305042
 30
0
  0
VERTEX
  8
0
 10
510.876747461752
 20
376.701476578858
 30
0
  0
VERTEX
  8
0
 10
510.838876607439
 20
376.724452970767
 30
0
  0
VERTEX
  8
0
 10
510.800143580946
 20
376.746706478744
 30
0
  0
VERTEX
  8
0
 10
510.760573672312
 20
376.768222572756
 30
0
  0
VERTEX
  8
0
 10
510.720192718004
 20
376.788987204253
 30
0
  0
VERTEX
  8
0
 10
510.679027084048
 20
376.808986815339
 30
0
  0
VERTEX
  8
0
 10
510.637103648811
 20
376.828208347624
 30
0
  0
VERTEX
  8
0
 10
510.594449785453
 20
376.846639250751
 30
0
  0
VERTEX
  8
0
 10
510.551093344055
 20
376.864267490589
 30
0
  0
VERTEX
  8
0
 10
510.507062633434
 20
376.881081557093
 30
0
  0
VERTEX
  8
0
 10
510.462386402658
 20
376.897070471819
 30
0
  0
VERTEX
  8
0
 10
510.417093822277
 20
376.912223795088
 30
0
  0
VERTEX
  8
0
 10
510.371214465273
 20
376.926531632809
 30
0
  0
VERTEX
  8
0
 10
510.324778287757
 20
376.939984642933
 30
0
  0
VERTEX
  8
0
 10
510.277815609403
 20
376.952574041557
 30
0
  0
VERTEX
  8
0
 10
510.230357093656
 20
376.964291608658
 30
0
  0
VERTEX
  8
0
 10
510.182433727709
 20
376.975129693457
 30
0
  0
VERTEX
  8
0
 10
510.134076802271
 20
376.985081219423
 30
0
  0
VERTEX
  8
0
 10
510.085317891134
 20
376.994139688881
 30
0
  0
VERTEX
  8
0
 10
510.036188830562
 20
377.002299187266
 30
0
  0
VERTEX
  8
0
 10
509.986721698499
 20
377.00955438698
 30
0
  0
VERTEX
  8
0
 10
509.936948793629
 20
377.015900550868
 30
0
  0
VERTEX
  8
0
 10
509.886902614284
 20
377.021333535315
 30
0
  0
VERTEX
  8
0
 10
509.836615837226
 20
377.025849792952
 30
0
  0
VERTEX
  8
0
 10
509.786121296309
 20
377.029446374968
 30
0
  0
VERTEX
  8
0
 10
509.735451961045
 20
377.032120933039
 30
0
  0
VERTEX
  8
0
 10
509.684640915075
 20
377.033871720861
 30
0
  0
VERTEX
  8
0
 10
509.633721334566
 20
377.034697595286
 30
0
  0
VERTEX
  8
0
 10
509.582726466552
 20
377.034598017076
 30
0
  0
VERTEX
  8
0
 10
509.531689607223
 20
377.033573051248
 30
0
  0
VERTEX
  8
0
 10
509.480644080189
 20
377.031623367035
 30
0
  0
VERTEX
  8
0
 10
509.429623214716
 20
377.02875023745
 30
0
  0
VERTEX
  8
0
 10
509.378660323971
 20
377.024955538449
 30
0
  0
VERTEX
  8
0
 10
509.327788683265
 20
377.020241747716
 30
0
  0
VERTEX
  8
0
 10
509.277041508331
 20
377.014611943035
 30
0
  0
VERTEX
  8
0
 10
509.226451933633
 20
377.008069800288
 30
0
  0
VERTEX
  8
0
 10
509.176052990732
 20
377.000619591049
 30
0
  0
VERTEX
  8
0
 10
509.125877586721
 20
376.992266179801
 30
0
  0
VERTEX
  8
0
 10
509.075958482737
 20
376.983015020754
 30
0
  0
VERTEX
  8
0
 10
509.02632827257
 20
376.972872154289
 30
0
  0
VERTEX
  8
0
 10
508.977019361381
 20
376.961844203008
 30
0
  0
VERTEX
  8
0
 10
508.928063944546
 20
376.949938367417
 30
0
  0
VERTEX
  8
0
 10
508.879493986633
 20
376.937162421218
 30
0
  0
VERTEX
  8
0
 10
508.831341200531
 20
376.92352470624
 30
0
  0
VERTEX
  8
0
 10
508.783637026744
 20
376.909034126983
 30
0
  0
VERTEX
  8
0
 10
508.736412612863
 20
376.893700144815
 30
0
  0
VERTEX
  8
0
 10
508.689698793228
 20
376.877532771786
 30
0
  0
VERTEX
  8
0
 10
508.643526068796
 20
376.860542564094
 30
0
  0
VERTEX
  8
0
 10
508.597924587225
 20
376.842740615192
 30
0
  0
VERTEX
  8
0
 10
508.552924123191
 20
376.824138548547
 30
0
  0
VERTEX
  8
0
 10
508.508554058944
 20
376.804748510047
 30
0
  0
VERTEX
  8
0
 10
508.464843365129
 20
376.784583160071
 30
0
  0
VERTEX
  8
0
 10
508.421820581865
 20
376.763655665226
 30
0
  0
VERTEX
  8
0
 10
508.379513800111
 20
376.741979689748
 30
0
  0
VERTEX
  8
0
 10
508.337950643328
 20
376.719569386577
 30
0
  0
VERTEX
  8
0
 10
508.297158249439
 20
376.696439388124
 30
0
  0
VERTEX
  8
0
 10
508.25716325311
 20
376.672604796708
 30
0
  0
VERTEX
  8
0
 10
508.217991768364
 20
376.648081174701
 30
0
  0
VERTEX
  8
0
 10
508.179669371522
 20
376.622884534366
 30
0
  0
VERTEX
  8
0
 10
508.142221084512
 20
376.5970313274
 30
0
  0
VERTEX
  8
0
 10
508.105671358526
 20
376.570538434194
 30
0
  0
VERTEX
  8
0
 10
508.070044058056
 20
376.543423152812
 30
0
  0
VERTEX
  8
0
 10
508.035362445314
 20
376.515703187693
 30
0
  0
VERTEX
  8
0
 10
508.001649165042
 20
376.487396638096
 30
0
  0
VERTEX
  8
0
 10
507.968926229726
 20
376.458521986277
 30
0
  0
VERTEX
  8
0
 10
507.937215005222
 20
376.429098085426
 30
0
  0
VERTEX
  8
0
 10
507.906536196812
 20
376.399144147356
 30
0
  0
VERTEX
  8
0
 10
507.876909835676
 20
376.368679729956
 30
0
  0
VERTEX
  8
0
 10
507.848355265819
 20
376.337724724426
 30
0
  0
VERTEX
  8
0
 10
507.82089113144
 20
376.306299342286
 30
0
  0
VERTEX
  8
0
 10
507.794535364755
 20
376.274424102179
 30
0
  0
VERTEX
  8
0
 10
507.769305174294
 20
376.242119816475
 30
0
  0
VERTEX
  8
0
 10
507.74521703366
 20
376.209407577683
 30
0
  0
VERTEX
  8
0
 10
507.722286670775
 20
376.176308744676
 30
0
  0
VERTEX
  8
0
 10
507.700529057612
 20
376.142844928749
 30
0
  0
VERTEX
  8
0
 10
507.679958400416
 20
376.109037979503
 30
0
  0
VERTEX
  8
0
 10
507.660588130432
 20
376.074909970584
 30
0
  0
VERTEX
  8
0
 10
507.642430895133
 20
376.040483185269
 30
0
  0
VERTEX
  8
0
 10
507.625498549962
 20
376.005780101913
 30
0
  0
VERTEX
  8
0
 10
507.609802150593
 20
375.970823379276
 30
0
  0
VERTEX
  8
0
 10
507.59535194571
 20
375.935635841729
 30
0
  0
VERTEX
  8
0
 10
507.582157370317
 20
375.900240464348
 30
0
  0
SEQEND
  8
0
  0
POLYLINE
  8
0
  6
BYBLOCK
 62
250
 66
1
  0
VERTEX
  8
0
 10
511.27722479366
 20
375.9241862849
 30
0
  0
VERTEX
  8
0
 10
511.255609563948
 20
375.951150736896
 30
0
  0
VERTEX
  8
0
 10
511.233126203519
 20
375.977736444533
 30
0
  0
VERTEX
  8
0
 10
511.20978594801
 20
376.003930122102
 30
0
  0
VERTEX
  8
0
 10
511.185600461279
 20
376.029718679801
 30
0
  0
VERTEX
  8
0
 10
511.160581829569
 20
376.055089230281
 30
0
  0
VERTEX
  8
0
 10
511.134742555475
 20
376.080029095084
 30
0
  0
VERTEX
  8
0
 10
511.10809555169
 20
376.104525810979
 30
0
  0
VERTEX
  8
0
 10
511.080654134556
 20
376.12856713619
 30
0
  0
VERTEX
  8
0
 10
511.052432017408
 20
376.152141056514
 30
0
  0
VERTEX
  8
0
 10
511.023443303722
 20
376.175235791326
 30
0
  0
VERTEX
  8
0
 10
510.993702480064
 20
376.197839799464
 30
0
  0
VERTEX
  8
0
 10
510.963224408856
 20
376.219941784997
 30
0
  0
VERTEX
  8
0
 10
510.932024320944
 20
376.241530702871
 30
0
  0
VERTEX
  8
0
 10
510.900117807988
 20
376.262595764429
 30
0
  0
VERTEX
  8
0
 10
510.867520814671
 20
376.283126442799
 30
0
  0
VERTEX
  8
0
 10
510.834249630732
 20
376.30311247816
 30
0
  0
VERTEX
  8
0
 10
510.800320882821
 20
376.322543882863
 30
0
  0
VERTEX
  8
0
 10
510.765751526198
 20
376.341410946428
 30
0
  0
VERTEX
  8
0
 10
510.73055883625
 20
376.359704240393
 30
0
  0
VERTEX
  8
0
 10
510.694760399867
 20
376.377414623025
 30
0
  0
VERTEX
  8
0
 10
510.658374106647
 20
376.394533243892
 30
0
  0
VERTEX
  8
0
 10
510.621418139962
 20
376.411051548285
 30
0
  0
VERTEX
  8
0
 10
510.583910967863
 20
376.426961281488
 30
0
  0
VERTEX
  8
0
 10
510.545871333858
 20
376.44225449291
 30
0
  0
VERTEX
  8
0
 10
510.507318247545
 20
376.456923540055
 30
0
  0
VERTEX
  8
0
 10
510.468270975105
 20
376.470961092341
 30
0
  0
VERTEX
  8
0
 10
510.428749029684
 20
376.484360134764
 30
0
  0
VERTEX
  8
0
 10
510.388772161635
 20
376.497113971402
 30
0
  0
VERTEX
  8
0
 10
510.34836034865
 20
376.509216228764
 30
0
  0
VERTEX
  8
0
 10
510.307533785777
 20
376.520660858974
 30
0
  0
VERTEX
  8
0
 10
510.266312875326
 20
376.531442142792
 30
0
  0
VERTEX
  8
0
 10
510.224718216679
 20
376.541554692472
 30
0
  0
VERTEX
  8
0
 10
510.182770595986
 20
376.550993454457
 30
0
  0
VERTEX
  8
0
 10
510.140490975787
 20
376.559753711902
 30
0
  0
VERTEX
  8
0
 10
510.097900484533
 20
376.567831087033
 30
0
  0
VERTEX
  8
0
 10
510.055020406024
 20
376.575221543332
 30
0
  0
VERTEX
  8
0
 10
510.011872168777
 20
376.581921387556
 30
0
  0
VERTEX
  8
0
 10
509.968477335318
 20
376.587927271585
 30
0
  0
VERTEX
  8
0
 10
509.924857591403
 20
376.593236194089
 30
0
  0
VERTEX
  8
0
 10
509.881034735183
 20
376.597845502035
 30
0
  0
VERTEX
  8
0
 10
509.837030666311
 20
376.601752892006
 30
0
  0
VERTEX
  8
0
 10
509.792867374998
 20
376.604956411357
 30
0
  0
VERTEX
  8
0
 10
509.748566931023
 20
376.60745445919
 30
0
  0
VERTEX
  8
0
 10
509.704151472705
 20
376.609245787152
 30
0
  0
VERTEX
  8
0
 10
509.659643195837
 20
376.61032950006
 30
0
  0
VERTEX
  8
0
 10
509.615064342599
 20
376.610705056349
 30
0
  0
VERTEX
  8
0
 10
509.570437190439
 20
376.610372268342
 30
0
  0
VERTEX
  8
0
 10
509.525784040942
 20
376.609331302343
 30
0
  0
VERTEX
  8
0
 10
509.481127208685
 20
376.607582678556
 30
0
  0
VERTEX
  8
0
 10
509.436489010085
 20
376.605127270822
 30
0
  0
VERTEX
  8
0
 10
509.391891752245
 20
376.601966306186
 30
0
  0
VERTEX
  8
0
 10
509.347357721813
 20
376.598101364281
 30
0
  0
VERTEX
  8
0
 10
509.302909173837
 20
376.593534376539
 30
0
  0
VERTEX
  8
0
 10
509.258568320647
 20
376.588267625227
 30
0
  0
VERTEX
  8
0
 10
509.214357320756
 20
376.582303742306
 30
0
  0
VERTEX
  8
0
 10
509.170298267784
 20
376.575645708113
 30
0
  0
VERTEX
  8
0
 10
509.12641317942
 20
376.568296849879
 30
0
  0
VERTEX
  8
0
 10
509.082723986415
 20
376.560260840056
 30
0
  0
VERTEX
  8
0
 10
509.039252521626
 20
376.55154169449
 30
0
  0
VERTEX
  8
0
 10
508.996020509106
 20
376.542143770412
 30
0
  0
VERTEX
  8
0
 10
508.953049553243
 20
376.532071764259
 30
0
  0
VERTEX
  8
0
 10
508.91036112797
 20
376.521330709326
 30
0
  0
VERTEX
  8
0
 10
508.86797656603
 20
376.509925973256
 30
0
  0
VERTEX
  8
0
 10
508.825917048313
 20
376.497863255351
 30
0
  0
VERTEX
  8
0
 10
508.784203593278
 20
376.485148583731
 30
0
  0
VERTEX
  8
0
 10
508.742857046444
 20
376.471788312313
 30
0
  0
VERTEX
  8
0
 10
508.701898069974
 20
376.457789117644
 30
0
  0
VERTEX
  8
0
 10
508.661347132351
 20
376.44315799556
 30
0
  0
VERTEX
  8
0
 10
508.621224498148
 20
376.427902257691
 30
0
  0
VERTEX
  8
0
 10
508.5815502179
 20
376.412029527805
 30
0
  0
VERTEX
  8
0
 10
508.542344118088
 20
376.395547738003
 30
0
  0
VERTEX
  8
0
 10
508.503625791227
 20
376.378465124751
 30
0
  0
VERTEX
  8
0
 10
508.465414586076
 20
376.360790224766
 30
0
  0
VERTEX
  8
0
 10
508.427729597971
 20
376.342531870748
 30
0
  0
VERTEX
  8
0
 10
508.39058965928
 20
376.323699186969
 30
0
  0
VERTEX
  8
0
 10
508.354013329993
 20
376.30430158471
 30
0
  0
VERTEX
  8
0
 10
508.318018888446
 20
376.28434875756
 30
0
  0
VERTEX
  8
0
 10
508.282624322188
 20
376.263850676571
 30
0
  0
VERTEX
  8
0
 10
508.247847318993
 20
376.242817585275
 30
0
  0
VERTEX
  8
0
 10
508.213705258016
 20
376.221259994568
 30
0
  0
VERTEX
  8
0
 10
508.180215201115
 20
376.199188677452
 30
0
  0
VERTEX
  8
0
 10
508.147393884319
 20
376.176614663654
 30
0
  0
VERTEX
  8
0
 10
508.115257709468
 20
376.153549234117
 30
0
  0
VERTEX
  8
0
 10
508.083822736014
 20
376.130003915356
 30
0
  0
VERTEX
  8
0
 10
508.053104672996
 20
376.105990473706
 30
0
  0
VERTEX
  8
0
 10
508.023118871194
 20
376.081520909434
 30
0
  0
VERTEX
  8
0
 10
507.99388031545
 20
376.056607450747
 30
0
  0
VERTEX
  8
0
 10
507.965403617185
 20
376.031262547681
 30
0
  0
VERTEX
  8
0
 10
507.937703007098
 20
376.005498865877
 30
0
  0
VERTEX
  8
0
 10
507.910792328051
 20
375.979329280253
 30
0
  0
VERTEX
  8
0
 10
507.884685028151
 20
375.95276686857
 30
0
  0
VERTEX
  8
0
 10
507.859394154034
 20
375.925824904897
 30
0
  0
VERTEX
  8
0
 10
507.834932344341
 20
375.898516852976
 30
0
  0
VERTEX
  8
0
 10
507.811311823404
 20
375.870856359495
 30
0
  0
VERTEX
  8
0
 10
507.788544395137
 20
375.84285724727
 30
0
  0
VERTEX
  8
0
 10
507.766641437136
 20
375.814533508332
 30
0
  0
VERTEX
  8
0
 10
507.745613894995
 20
375.78589929694
 30
0
  0
VERTEX
  8
0
 10
507.725472276835
 20
375.756968922507
 30
0
  0
VERTEX
  8
0
 10
507.706226648053
 20
375.727756842446
 30
0
  0
SEQEND
  8
0
  0
POLYLINE
  8
0
  6
BYBLOCK
 62
250
 66
1
  0
VERTEX
  8
0
 10
511.06780170513
 20
375.64941450856
 30
0
  0
VERTEX
  8
0
 10
511.044555950602
 20
375.668496994592
 30
0
  0
VERTEX
  8
0
 10
511.020802991268
 20
375.687258678536
 30
0
  0
VERTEX
  8
0
 10
510.996550721294
 20
375.705693325049
 30
0
  0
VERTEX
  8
0
 10
510.971807200791
 20
375.723794807476
 30
0
  0
VERTEX
  8
0
 10
510.946580653133
 20
375.741557109887
 30
0
  0
VERTEX
  8
0
 10
510.920879462228
 20
375.758974329079
 30
0
  0
VERTEX
  8
0
 10
510.894712169725
 20
375.776040676532
 30
0
  0
VERTEX
  8
0
 10
510.868087472182
 20
375.792750480339
 30
0
  0
VERTEX
  8
0
 10
510.841014218175
 20
375.809098187087
 30
0
  0
VERTEX
  8
0
 10
510.81350140535
 20
375.825078363704
 30
0
  0
VERTEX
  8
0
 10
510.785558177443
 20
375.840685699267
 30
0
  0
VERTEX
  8
0
 10
510.757193821233
 20
375.85591500676
 30
0
  0
VERTEX
  8
0
 10
510.72841776346
 20
375.870761224807
 30
0
  0
VERTEX
  8
0
 10
510.699239567691
 20
375.885219419348
 30
0
  0
VERTEX
  8
0
 10
510.66966893114
 20
375.89928478528
 30
0
  0
VERTEX
  8
0
 10
510.639715681449
 20
375.912952648055
 30
0
  0
VERTEX
  8
0
 10
510.609389773418
 20
375.926218465234
 30
0
  0
VERTEX
  8
0
 10
510.578701285696
 20
375.939077827993
 30
0
  0
VERTEX
  8
0
 10
510.547660417437
 20
375.951526462594
 30
0
  0
VERTEX
  8
0
 10
510.516277484904
 20
375.963560231801
 30
0
  0
VERTEX
  8
0
 10
510.484562918045
 20
375.975175136254
 30
0
  0
VERTEX
  8
0
 10
510.452527257024
 20
375.986367315805
 30
0
  0
VERTEX
  8
0
 10
510.420181148719
 20
375.997133050793
 30
0
  0
VERTEX
  8
0
 10
510.387535343183
 20
376.007468763284
 30
0
  0
VERTEX
  8
0
 10
510.354600690072
 20
376.01737101826
 30
0
  0
VERTEX
  8
0
 10
510.321388135041
 20
376.026836524761
 30
0
  0
VERTEX
  8
0
 10
510.287908716101
 20
376.035862136978
 30
0
  0
VERTEX
  8
0
 10
510.254173559955
 20
376.044444855296
 30
0
  0
VERTEX
  8
0
 10
510.2201938783
 20
376.052581827295
 30
0
  0
VERTEX
  8
0
 10
510.185980964097
 20
376.060270348699
 30
0
  0
VERTEX
  8
0
 10
510.151546187824
 20
376.067507864267
 30
0
  0
VERTEX
  8
0
 10
510.116900993692
 20
376.074291968652
 30
0
  0
VERTEX
  8
0
 10
510.082056895841
 20
376.080620407193
 30
0
  0
VERTEX
  8
0
 10
510.047025474521
 20
376.086491076667
 30
0
  0
VERTEX
  8
0
 10
510.011818372232
 20
376.09190202599
 30
0
  0
VERTEX
  8
0
 10
509.976447289864
 20
376.096851456861
 30
0
  0
VERTEX
  8
0
 10
509.940923982806
 20
376.101337724365
 30
0
  0
VERTEX
  8
0
 10
509.905260257034
 20
376.105359337515
 30
0
  0
VERTEX
  8
0
 10
509.869467965194
 20
376.108914959749
 30
0
  0
VERTEX
  8
0
 10
509.833559002661
 20
376.112003409376
 30
0
  0
VERTEX
  8
0
 10
509.797545303583
 20
376.114623659966
 30
0
  0
VERTEX
  8
0
 10
509.761438836917
 20
376.116774840694
 30
0
  0
VERTEX
  8
0
 10
509.725251602452
 20
376.118456236625
 30
0
  0
VERTEX
  8
0
 10
509.688995626819
 20
376.119667288958
 30
0
  0
VERTEX
  8
0
 10
509.652682959494
 20
376.120407595205
 30
0
  0
VERTEX
  8
0
 10
509.616325668796
 20
376.120676909329
 30
0
  0
VERTEX
  8
0
 10
509.579935837871
 20
376.120475141827
 30
0
  0
VERTEX
  8
0
 10
509.543525560684
 20
376.119802359753
 30
0
  0
VERTEX
  8
0
 10
509.507106937992
 20
376.118658786704
 30
0
  0
VERTEX
  8
0
 10
509.470692073327
 20
376.117044802739
 30
0
  0
VERTEX
  8
0
 10
509.434293068971
 20
376.114960944258
 30
0
  0
VERTEX
  8
0
 10
509.397922021935
 20
376.11240790382
 30
0
  0
VERTEX
  8
0
 10
509.361591019941
 20
376.109386529913
 30
0
  0
VERTEX
  8
0
 10
509.325312137398
 20
376.105897826675
 30
0
  0
VERTEX
  8
0
 10
509.289097431397
 20
376.101942953558
 30
0
  0
VERTEX
  8
0
 10
509.252958937699
 20
376.097523224942
 30
0
  0
VERTEX
  8
0
 10
509.216908666736
 20
376.0926401097
 30
0
  0
VERTEX
  8
0
 10
509.18095859962
 20
376.087295230708
 30
0
  0
VERTEX
  8
0
 10
509.14512068416
 20
376.081490364309
 30
0
  0
VERTEX
  8
0
 10
509.109406830893
 20
376.075227439718
 30
0
  0
VERTEX
  8
0
 10
509.073828909124
 20
376.068508538384
 30
0
  0
VERTEX
  8
0
 10
509.038398742983
 20
376.061335893298
 30
0
  0
VERTEX
  8
0
 10
509.003128107493
 20
376.053711888249
 30
0
  0
VERTEX
  8
0
 10
508.968028724658
 20
376.045639057033
 30
0
  0
VERTEX
  8
0
 10
508.933112259567
 20
376.037120082614
 30
0
  0
VERTEX
  8
0
 10
508.898390316518
 20
376.028157796224
 30
0
  0
VERTEX
  8
0
 10
508.863874435161
 20
376.018755176432
 30
0
  0
VERTEX
  8
0
 10
508.829576086661
 20
376.008915348148
 30
0
  0
VERTEX
  8
0
 10
508.795506669888
 20
375.998641581584
 30
0
  0
VERTEX
  8
0
 10
508.761677507628
 20
375.987937291172
 30
0
  0
VERTEX
  8
0
 10
508.728099842819
 20
375.976806034423
 30
0
  0
VERTEX
  8
0
 10
508.694784834815
 20
375.965251510752
 30
0
  0
VERTEX
  8
0
 10
508.66174355568
 20
375.953277560241
 30
0
  0
VERTEX
  8
0
 10
508.628986986503
 20
375.940888162367
 30
0
  0
VERTEX
  8
0
 10
508.596526013751
 20
375.92808743468
 30
0
  0
VERTEX
  8
0
 10
508.564371425652
 20
375.914879631432
 30
0
  0
VERTEX
  8
0
 10
508.53253390861
 20
375.901269142164
 30
0
  0
VERTEX
  8
0
 10
508.501024043651
 20
375.88726049025
 30
0
  0
VERTEX
  8
0
 10
508.469852302907
 20
375.872858331388
 30
0
  0
VERTEX
  8
0
 10
508.439029046136
 20
375.858067452058
 30
0
  0
VERTEX
  8
0
 10
508.408564517282
 20
375.842892767928
 30
0
  0
VERTEX
  8
0
 10
508.378468841064
 20
375.827339322222
 30
0
  0
VERTEX
  8
0
 10
508.348752019617
 20
375.811412284043
 30
0
  0
VERTEX
  8
0
 10
508.319423929166
 20
375.795116946656
 30
0
  0
VERTEX
  8
0
 10
508.290494316742
 20
375.778458725729
 30
0
  0
VERTEX
  8
0
 10
508.261972796945
 20
375.761443157529
 30
0
  0
VERTEX
  8
0
 10
508.233868848747
 20
375.744075897089
 30
0
  0
VERTEX
  8
0
 10
508.206191812343
 20
375.726362716324
 30
0
  0
VERTEX
  8
0
 10
508.178950886046
 20
375.708309502113
 30
0
  0
VERTEX
  8
0
 10
508.152155123229
 20
375.689922254344
 30
0
  0
VERTEX
  8
0
 10
508.125813429319
 20
375.671207083919
 30
0
  0
VERTEX
  8
0
 10
508.099934558835
 20
375.652170210723
 30
0
  0
VERTEX
  8
0
 10
508.074527112478
 20
375.632817961557
 30
0
  0
VERTEX
  8
0
 10
508.049599534277
 20
375.613156768037
 30
0
  0
VERTEX
  8
0
 10
508.025160108776
 20
375.593193164454
 30
0
  0
VERTEX
  8
0
 10
508.001216958285
 20
375.572933785602
 30
0
  0
VERTEX
  8
0
 10
507.977778040181
 20
375.552385364577
 30
0
  0
VERTEX
  8
0
 10
507.95485114426
 20
375.531554730534
 30
0
  0
VERTEX
  8
0
 10
507.932443890153
 20
375.510448806421
 30
0
  0
SEQEND
  8
0
  0
POLYLINE
  8
0
  6
BYBLOCK
 62
250
 66
1
  0
VERTEX
  8
0
 10
510.185397843374
 20
375.14630348039
 30
0
  0
VERTEX
  8
0
 10
510.172375096426
 20
375.149095962107
 30
0
  0
VERTEX
  8
0
 10
510.159321148704
 20
375.151823559376
 30
0
  0
VERTEX
  8
0
 10
510.14623662302
 20
375.154486142062
 30
0
  0
VERTEX
  8
0
 10
510.133122143642
 20
375.157083583133
 30
0
  0
VERTEX
  8
0
 10
510.119978336267
 20
375.159615758662
 30
0
  0
VERTEX
  8
0
 10
510.106805827995
 20
375.162082547838
 30
0
  0
VERTEX
  8
0
 10
510.09360524729
 20
375.164483832971
 30
0
  0
VERTEX
  8
0
 10
510.080377223961
 20
375.166819499493
 30
0
  0
VERTEX
  8
0
 10
510.06712238912
 20
375.169089435969
 30
0
  0
VERTEX
  8
0
 10
510.053841375165
 20
375.171293534098
 30
0
  0
VERTEX
  8
0
 10
510.040534815737
 20
375.173431688723
 30
0
  0
VERTEX
  8
0
 10
510.027203345699
 20
375.175503797831
 30
0
  0
VERTEX
  8
0
 10
510.013847601103
 20
375.17750976256
 30
0
  0
VERTEX
  8
0
 10
510.000468219157
 20
375.179449487205
 30
0
  0
VERTEX
  8
0
 10
509.987065838198
 20
375.181322879221
 30
0
  0
VERTEX
  8
0
 10
509.97364109766
 20
375.183129849227
 30
0
  0
VERTEX
  8
0
 10
509.960194638043
 20
375.184870311012
 30
0
  0
VERTEX
  8
0
 10
509.946727100886
 20
375.186544181538
 30
0
  0
VERTEX
  8
0
 10
509.933239128731
 20
375.188151380944
 30
0
  0
VERTEX
  8
0
 10
509.919731365095
 20
375.189691832549
 30
0
  0
VERTEX
  8
0
 10
509.90620445444
 20
375.191165462857
 30
0
  0
VERTEX
  8
0
 10
509.892659042142
 20
375.192572201561
 30
0
  0
VERTEX
  8
0
 10
509.879095774459
 20
375.193911981545
 30
0
  0
VERTEX
  8
0
 10
509.865515298501
 20
375.195184738887
 30
0
  0
VERTEX
  8
0
 10
509.851918262199
 20
375.196390412864
 30
0
  0
VERTEX
  8
0
 10
509.838305314274
 20
375.197528945951
 30
0
  0
VERTEX
  8
0
 10
509.824677104207
 20
375.19860028383
 30
0
  0
VERTEX
  8
0
 10
509.811034282206
 20
375.199604375386
 30
0
  0
VERTEX
  8
0
 10
509.797377499176
 20
375.200541172713
 30
0
  0
VERTEX
  8
0
 10
509.78370740669
 20
375.201410631116
 30
0
  0
VERTEX
  8
0
 10
509.770024656954
 20
375.202212709114
 30
0
  0
VERTEX
  8
0
 10
509.756329902778
 20
375.202947368438
 30
0
  0
VERTEX
  8
0
 10
509.742623797547
 20
375.203614574037
 30
0
  0
VERTEX
  8
0
 10
509.728906995185
 20
375.204214294079
 30
0
  0
VERTEX
  8
0
 10
509.715180150126
 20
375.204746499951
 30
0
  0
VERTEX
  8
0
 10
509.701443917287
 20
375.205211166262
 30
0
  0
VERTEX
  8
0
 10
509.687698952028
 20
375.205608270841
 30
0
  0
VERTEX
  8
0
 10
509.673945910129
 20
375.205937794742
 30
0
  0
VERTEX
  8
0
 10
509.660185447754
 20
375.206199722244
 30
0
  0
VERTEX
  8
0
 10
509.646418221422
 20
375.206394040851
 30
0
  0
VERTEX
  8
0
 10
509.632644887973
 20
375.206520741291
 30
0
  0
VERTEX
  8
0
 10
509.61886610454
 20
375.206579817518
 30
0
  0
VERTEX
  8
0
 10
509.605082528515
 20
375.206571266716
 30
0
  0
VERTEX
  8
0
 10
509.59129481752
 20
375.206495089291
 30
0
  0
VERTEX
  8
0
 10
509.577503629372
 20
375.206351288878
 30
0
  0
VERTEX
  8
0
 10
509.563709622056
 20
375.206139872338
 30
0
  0
VERTEX
  8
0
 10
509.549913453691
 20
375.205860849758
 30
0
  0
VERTEX
  8
0
 10
509.536115782498
 20
375.205514234449
 30
0
  0
VERTEX
  8
0
 10
509.522317266772
 20
375.20510004295
 30
0
  0
VERTEX
  8
0
 10
509.508518564845
 20
375.204618295021
 30
0
  0
VERTEX
  8
0
 10
509.494720335061
 20
375.204069013647
 30
0
  0
VERTEX
  8
0
 10
509.48092323574
 20
375.203452225034
 30
0
  0
VERTEX
  8
0
 10
509.467127925149
 20
375.20276795861
 30
0
  0
VERTEX
  8
0
 10
509.453335061467
 20
375.202016247021
 30
0
  0
VERTEX
  8
0
 10
509.43954530276
 20
375.201197126132
 30
0
  0
VERTEX
  8
0
 10
509.425759306942
 20
375.200310635023
 30
0
  0
VERTEX
  8
0
 10
509.411977731752
 20
375.199356815989
 30
0
  0
VERTEX
  8
0
 10
509.398201234715
 20
375.198335714538
 30
0
  0
VERTEX
  8
0
 10
509.384430473113
 20
375.197247379387
 30
0
  0
VERTEX
  8
0
 10
509.370666103956
 20
375.196091862461
 30
0
  0
VERTEX
  8
0
 10
509.35690878395
 20
375.19486921889
 30
0
  0
VERTEX
  8
0
 10
509.343159169463
 20
375.193579507006
 30
0
  0
VERTEX
  8
0
 10
509.329417916494
 20
375.192222788344
 30
0
  0
VERTEX
  8
0
 10
509.315685680647
 20
375.190799127632
 30
0
  0
VERTEX
  8
0
 10
509.301963117093
 20
375.189308592794
 30
0
  0
VERTEX
  8
0
 10
509.288250880542
 20
375.187751254943
 30
0
  0
VERTEX
  8
0
 10
509.274549625211
 20
375.186127188383
 30
0
  0
VERTEX
  8
0
 10
509.260860004793
 20
375.184436470597
 30
0
  0
VERTEX
  8
0
 10
509.247182672428
 20
375.18267918225
 30
0
  0
VERTEX
  8
0
 10
509.233518280668
 20
375.180855407184
 30
0
  0
VERTEX
  8
0
 10
509.219867481446
 20
375.178965232411
 30
0
  0
VERTEX
  8
0
 10
509.20623092605
 20
375.177008748113
 30
0
  0
VERTEX
  8
0
 10
509.192609265086
 20
375.174986047635
 30
0
  0
VERTEX
  8
0
 10
509.17900314845
 20
375.172897227481
 30
0
  0
VERTEX
  8
0
 10
509.165413225296
 20
375.170742387308
 30
0
  0
VERTEX
  8
0
 10
509.151840144007
 20
375.168521629927
 30
0
  0
VERTEX
  8
0
 10
509.13828455216
 20
375.16623506129
 30
0
  0
VERTEX
  8
0
 10
509.124747096499
 20
375.16388279049
 30
0
  0
VERTEX
  8
0
 10
509.111228422903
 20
375.161464929756
 30
0
  0
VERTEX
  8
0
 10
509.097729176354
 20
375.158981594444
 30
0
  0
VERTEX
  8
0
 10
509.084250000909
 20
375.156432903036
 30
0
  0
VERTEX
  8
0
 10
509.070791539664
 20
375.153818977131
 30
0
  0
VERTEX
  8
0
 10
509.05735443473
 20
375.151139941442
 30
0
  0
VERTEX
  8
0
 10
509.043939327197
 20
375.148395923785
 30
0
  0
VERTEX
  8
0
 10
509.030546857107
 20
375.145587055079
 30
0
  0
VERTEX
  8
0
 10
509.01717766342
 20
375.142713469337
 30
0
  0
VERTEX
  8
0
 10
509.003832383988
 20
375.139775303659
 30
0
  0
VERTEX
  8
0
 10
508.99051165552
 20
375.136772698227
 30
0
  0
VERTEX
  8
0
 10
508.977216113555
 20
375.133705796295
 30
0
  0
VERTEX
  8
0
 10
508.963946392429
 20
375.130574744188
 30
0
  0
VERTEX
  8
0
 10
508.950703125247
 20
375.127379691289
 30
0
  0
VERTEX
  8
0
 10
508.937486943853
 20
375.124120790036
 30
0
  0
VERTEX
  8
0
 10
508.924298478795
 20
375.120798195913
 30
0
  0
VERTEX
  8
0
 10
508.911138359303
 20
375.117412067442
 30
0
  0
VERTEX
  8
0
 10
508.898007213251
 20
375.113962566177
 30
0
  0
VERTEX
  8
0
 10
508.884905667134
 20
375.110449856696
 30
0
  0
VERTEX
  8
0
 10
508.871834346032
 20
375.106874106591
 30
0
  0
VERTEX
  8
0
 10
508.858793873584
 20
375.103235486464
 30
0
  0
VERTEX
  8
0
 10
508.845784871959
 20
375.099534169914
 30
0
  0
SEQEND
  8
0
  0
POLYLINE
  8
0
  6
BYBLOCK
 62
250
 66
1
  0
VERTEX
  8
0
 10
510.743648308301
 20
375.391794752946
 30
0
  0
VERTEX
  8
0
 10
510.722282156602
 20
375.402667555312
 30
0
  0
VERTEX
  8
0
 10
510.700697538839
 20
375.413327924518
 30
0
  0
VERTEX
  8
0
 10
510.678898371976
 20
375.423773926024
 30
0
  0
VERTEX
  8
0
 10
510.656888611912
 20
375.434003664194
 30
0
  0
VERTEX
  8
0
 10
510.634672252762
 20
375.444015282634
 30
0
  0
VERTEX
  8
0
 10
510.612253326133
 20
375.453806964535
 30
0
  0
VERTEX
  8
0
 10
510.589635900391
 20
375.463376932998
 30
0
  0
VERTEX
  8
0
 10
510.566824079924
 20
375.47272345136
 30
0
  0
VERTEX
  8
0
 10
510.543822004398
 20
375.481844823506
 30
0
  0
VERTEX
  8
0
 10
510.520633848002
 20
375.490739394179
 30
0
  0
VERTEX
  8
0
 10
510.497263818697
 20
375.49940554928
 30
0
  0
VERTEX
  8
0
 10
510.473716157445
 20
375.50784171616
 30
0
  0
VERTEX
  8
0
 10
510.449995137444
 20
375.516046363906
 30
0
  0
VERTEX
  8
0
 10
510.426105063353
 20
375.52401800362
 30
0
  0
VERTEX
  8
0
 10
510.402050270506
 20
375.531755188687
 30
0
  0
VERTEX
  8
0
 10
510.377835124132
 20
375.539256515039
 30
0
  0
VERTEX
  8
0
 10
510.353464018558
 20
375.546520621407
 30
0
  0
VERTEX
  8
0
 10
510.328941376411
 20
375.553546189575
 30
0
  0
VERTEX
  8
0
 10
510.304271647821
 20
375.56033194461
 30
0
  0
VERTEX
  8
0
 10
510.279459309608
 20
375.566876655101
 30
0
  0
VERTEX
  8
0
 10
510.25450886447
 20
375.573179133377
 30
0
  0
VERTEX
  8
0
 10
510.229424840169
 20
375.579238235727
 30
0
  0
VERTEX
  8
0
 10
510.204211788708
 20
375.585052862605
 30
0
  0
VERTEX
  8
0
 10
510.178874285503
 20
375.590621958829
 30
0
  0
VERTEX
  8
0
 10
510.153416928557
 20
375.595944513775
 30
0
  0
VERTEX
  8
0
 10
510.127844337618
 20
375.601019561556
 30
0
  0
VERTEX
  8
0
 10
510.102161153352
 20
375.605846181205
 30
0
  0
VERTEX
  8
0
 10
510.076372036488
 20
375.610423496832
 30
0
  0
VERTEX
  8
0
 10
510.050481666983
 20
375.614750677792
 30
0
  0
VERTEX
  8
0
 10
510.024494743167
 20
375.61882693883
 30
0
  0
VERTEX
  8
0
 10
509.998415980891
 20
375.622651540227
 30
0
  0
VERTEX
  8
0
 10
509.972250112673
 20
375.626223787932
 30
0
  0
VERTEX
  8
0
 10
509.946001886838
 20
375.629543033688
 30
0
  0
VERTEX
  8
0
 10
509.919676066655
 20
375.632608675151
 30
0
  0
VERTEX
  8
0
 10
509.893277429476
 20
375.635420155998
 30
0
  0
VERTEX
  8
0
 10
509.866810765867
 20
375.63797696603
 30
0
  0
VERTEX
  8
0
 10
509.840280878737
 20
375.640278641262
 30
0
  0
VERTEX
  8
0
 10
509.813692582469
 20
375.642324764008
 30
0
  0
VERTEX
  8
0
 10
509.787050702047
 20
375.644114962959
 30
0
  0
VERTEX
  8
0
 10
509.760360072177
 20
375.645648913246
 30
0
  0
VERTEX
  8
0
 10
509.733625536412
 20
375.646926336503
 30
0
  0
VERTEX
  8
0
 10
509.706851946274
 20
375.647947000916
 30
0
  0
VERTEX
  8
0
 10
509.68004416037
 20
375.648710721265
 30
0
  0
VERTEX
  8
0
 10
509.653207043514
 20
375.649217358957
 30
0
  0
VERTEX
  8
0
 10
509.626345465842
 20
375.649466822054
 30
0
  0
VERTEX
  8
0
 10
509.59946430193
 20
375.649459065284
 30
0
  0
VERTEX
  8
0
 10
509.572568429906
 20
375.649194090055
 30
0
  0
VERTEX
  8
0
 10
509.545662730571
 20
375.648671944453
 30
0
  0
VERTEX
  8
0
 10
509.518752086505
 20
375.64789272323
 30
0
  0
VERTEX
  8
0
 10
509.491841381188
 20
375.646856567794
 30
0
  0
VERTEX
  8
0
 10
509.46493549811
 20
375.645563666174
 30
0
  0
VERTEX
  8
0
 10
509.438039319888
 20
375.644014252995
 30
0
  0
VERTEX
  8
0
 10
509.411157727373
 20
375.642208609428
 30
0
  0
VERTEX
  8
0
 10
509.384295598775
 20
375.640147063143
 30
0
  0
VERTEX
  8
0
 10
509.357457808769
 20
375.637829988251
 30
0
  0
VERTEX
  8
0
 10
509.330649227612
 20
375.63525780523
 30
0
  0
VERTEX
  8
0
 10
509.303874720263
 20
375.632430980856
 30
0
  0
VERTEX
  8
0
 10
509.277139145496
 20
375.629350028113
 30
0
  0
VERTEX
  8
0
 10
509.250447355021
 20
375.626015506102
 30
0
  0
VERTEX
  8
0
 10
509.223804192602
 20
375.622428019938
 30
0
  0
VERTEX
  8
0
 10
509.197214493178
 20
375.618588220645
 30
0
  0
VERTEX
  8
0
 10
509.170683081986
 20
375.61449680503
 30
0
  0
VERTEX
  8
0
 10
509.144214773686
 20
375.610154515564
 30
0
  0
VERTEX
  8
0
 10
509.117814371487
 20
375.605562140243
 30
0
  0
VERTEX
  8
0
 10
509.091486666274
 20
375.600720512446
 30
0
  0
VERTEX
  8
0
 10
509.065236435742
 20
375.595630510784
 30
0
  0
VERTEX
  8
0
 10
509.039068443522
 20
375.59029305894
 30
0
  0
VERTEX
  8
0
 10
509.012987438327
 20
375.584709125503
 30
0
  0
VERTEX
  8
0
 10
508.98699815308
 20
375.578879723791
 30
0
  0
VERTEX
  8
0
 10
508.961105304062
 20
375.572805911665
 30
0
  0
VERTEX
  8
0
 10
508.935313590051
 20
375.566488791342
 30
0
  0
VERTEX
  8
0
 10
508.909627691477
 20
375.55992950919
 30
0
  0
VERTEX
  8
0
 10
508.884052269561
 20
375.553129255524
 30
0
  0
VERTEX
  8
0
 10
508.858591965482
 20
375.546089264386
 30
0
  0
VERTEX
  8
0
 10
508.833251399525
 20
375.538810813326
 30
0
  0
VERTEX
  8
0
 10
508.808035170247
 20
375.531295223165
 30
0
  0
VERTEX
  8
0
 10
508.782947853641
 20
375.523543857758
 30
0
  0
VERTEX
  8
0
 10
508.757994002308
 20
375.515558123747
 30
0
  0
VERTEX
  8
0
 10
508.733178144626
 20
375.507339470305
 30
0
  0
VERTEX
  8
0
 10
508.708504783934
 20
375.498889388872
 30
0
  0
VERTEX
  8
0
 10
508.683978397711
 20
375.490209412886
 30
0
  0
VERTEX
  8
0
 10
508.659603436765
 20
375.481301117503
 30
0
  0
VERTEX
  8
0
 10
508.635384324424
 20
375.472166119314
 30
0
  0
VERTEX
  8
0
 10
508.611325455735
 20
375.462806076049
 30
0
  0
VERTEX
  8
0
 10
508.587431196665
 20
375.453222686275
 30
0
  0
VERTEX
  8
0
 10
508.563705883309
 20
375.443417689093
 30
0
  0
VERTEX
  8
0
 10
508.540153821103
 20
375.433392863817
 30
0
  0
VERTEX
  8
0
 10
508.516779284046
 20
375.423150029653
 30
0
  0
VERTEX
  8
0
 10
508.493586513918
 20
375.412691045371
 30
0
  0
VERTEX
  8
0
 10
508.470579719515
 20
375.402017808965
 30
0
  0
VERTEX
  8
0
 10
508.447763075884
 20
375.391132257308
 30
0
  0
VERTEX
  8
0
 10
508.425140723566
 20
375.380036365804
 30
0
  0
VERTEX
  8
0
 10
508.402716767843
 20
375.368732148025
 30
0
  0
VERTEX
  8
0
 10
508.380495277994
 20
375.35722165535
 30
0
  0
VERTEX
  8
0
 10
508.358480286556
 20
375.345506976591
 30
0
  0
VERTEX
  8
0
 10
508.336675788595
 20
375.333590237612
 30
0
  0
VERTEX
  8
0
 10
508.315085740975
 20
375.321473600946
 30
0
  0
VERTEX
  8
0
 10
508.293714061648
 20
375.309159265401
 30
0
  0
VERTEX
  8
0
 10
508.272564628934
 20
375.296649465662
 30
0
  0
SEQEND
  8
0
  0
LINE
  8
$DDT_AUDIT_GENERATED__30_
  6
BYLAYER
 62
250
 10
195.912732013612
 20
242.727503149095
 11
370.706813478179
 21
242.727503149095
  0
LINE
  8
$DDT_AUDIT_GENERATED__30_
  6
BYLAYER
 62
250
 10
195.912732013612
 20
242.727503149095
 11
207.503841929081
 21
245.833331690326
  0
LINE
  8
$DDT_AUDIT_GENERATED__30_
  6
BYLAYER
 62
250
 10
195.912732013612
 20
242.727503149095
 11
207.503841929081
 21
239.621674607865
  0
LINE
  8
$DDT_AUDIT_GENERATED__30_
  6
BYLAYER
 62
250
 10
370.706813478179
 20
242.727503149095
 11
359.115703562711
 21
239.621674607865
  0
LINE
  8
$DDT_AUDIT_GENERATED__30_
  6
BYLAYER
 62
250
 10
370.706813478179
 20
242.727503149095
 11
359.115703562711
 21
245.833331690326
  0
TEXT
  8
$DDT_AUDIT_GENERATED__30_
 62
250
  6
BYLAYER
 62
250
 10
272.85983085827
 20
239.727503149095
 40
14
  1
175
  7
Font_0
 72
1
 11
283.35983085827
 21
246.727503149095
 73
2
  0
LINE
  8
$DDT_AUDIT_GENERATED__30_
  6
BYLAYER
 62
250
 10
371.877118682804
 20
417.81150343597
 11
406.990104133708
 21
417.81150343597
  0
LINE
  8
$DDT_AUDIT_GENERATED__30_
  6
BYLAYER
 62
250
 10
371.877118682804
 20
277.81150343597
 11
406.990104133708
 21
277.81150343597
  0
LINE
  8
$DDT_AUDIT_GENERATED__30_
  6
BYLAYER
 62
250
 10
399.51743628886
 20
417.81150343597
 11
399.51743628886
 21
277.81150343597
  0
LINE
  8
$DDT_AUDIT_GENERATED__30_
  6
BYLAYER
 62
250
 10
399.51743628886
 20
417.81150343597
 11
402.62326483009
 21
406.220393520501
  0
LINE
  8
$DDT_AUDIT_GENERATED__30_
  6
BYLAYER
 62
250
 10
399.51743628886
 20
417.81150343597
 11
396.41160774763
 21
406.220393520501
  0
LINE
  8
$DDT_AUDIT_GENERATED__30_
  6
BYLAYER
 62
250
 10
399.51743628886
 20
277.81150343597
 11
396.41160774763
 21
289.402613351439
  0
LINE
  8
$DDT_AUDIT_GENERATED__30_
  6
BYLAYER
 62
250
 10
399.51743628886
 20
277.81150343597
 11
402.62326483009
 21
289.402613351439
  0
TEXT
  8
$DDT_AUDIT_GENERATED__30_
 62
250
  6
BYLAYER
 62
250
 10
402.51743628886
 20
337.31150343597
 40
14
  1
140
  7
Font_0
 50
90
 72
1
 11
395.51743628886
 21
347.81150343597
 73
2
  0
LINE
  8
$DDT_AUDIT_GENERATED__30_
  6
BYLAYER
 62
250
 10
809.01736471416
 20
423.81150343597
 11
809.01736471416
 21
269.724173310344
  0
LINE
  8
$DDT_AUDIT_GENERATED__30_
  6
BYLAYER
 62
250
 10
809.01736471416
 20
423.81150343597
 11
812.12319325539
 21
412.220393520502
  0
LINE
  8
$DDT_AUDIT_GENERATED__30_
  6
BYLAYER
 62
250
 10
809.01736471416
 20
423.81150343597
 11
805.91153617293
 21
412.220393520502
  0
LINE
  8
$DDT_AUDIT_GENERATED__30_
  6
BYLAYER
 62
250
 10
809.01736471416
 20
269.724173310344
 11
805.91153617293
 21
281.315283225813
  0
LINE
  8
$DDT_AUDIT_GENERATED__30_
  6
BYLAYER
 62
250
 10
809.01736471416
 20
269.724173310344
 11
812.12319325539
 21
281.315283225813
  0
TEXT
  8
$DDT_AUDIT_GENERATED__30_
 62
250
  6
BYLAYER
 62
250
 10
807.454362043886
 20
329.267838373157
 40
14
  1
(154)
  7
Font_0
 50
90
 72
1
 11
800.454362043886
 21
346.767838373157
 73
2
  0
LINE
  8
シリズム2
  6
CONTINUOUS
 62
250
 10
1040.69905011308
 20
291.68650343598
 11
1040.69905011308
 21
302.78650343598
  0
LINE
  8
シリズム2
  6
CONTINUOUS
 62
250
 10
1042.24905011308
 20
293.43650343598
 11
1042.24905011308
 21
299.03650343598
  0
LINE
  8
シリズム2
  6
CONTINUOUS
 62
250
 10
1043.89905011308
 20
295.73650343598
 11
1043.89905011308
 21
298.73650343598
  0
LINE
  8
シリズム2
  6
CONTINUOUS
 62
250
 10
1052.69905011308
 20
291.68650343598
 11
1052.69905011308
 21
302.78650343598
  0
LINE
  8
シリズム2
  6
CONTINUOUS
 62
250
 10
1051.14905011308
 20
293.43650343598
 11
1051.14905011308
 21
299.03650343598
  0
LINE
  8
シリズム2
  6
CONTINUOUS
 62
250
 10
1049.49905011308
 20
295.73650343598
 11
1049.49905011308
 21
298.73650343598
  0
LINE
  8
シリズム2
  6
CONTINUOUS
 62
250
 10
1040.69905011308
 20
291.68650343598
 11
1052.69905011308
 21
291.68650343598
  0
LINE
  8
シリズム2
  6
CONTINUOUS
 62
250
 10
1042.24905011308
 20
293.43650343598
 11
1051.14905011308
 21
293.43650343598
  0
LINE
  8
シリズム2
  6
CONTINUOUS
 62
250
 10
1043.89905011308
 20
295.73650343598
 11
1049.49905011308
 21
295.73650343598
  0
LINE
  8
シリズム2
  6
CONTINUOUS
 62
250
 10
1040.69905011308
 20
302.78650343598
 11
1052.69905011308
 21
302.78650343598
  0
LINE
  8
シリズム2
  6
CONTINUOUS
 62
250
 10
1044.24905011308
 20
301.03650343598
 11
1049.14905011308
 21
301.03650343598
  0
LINE
  8
シリズム2
  6
CONTINUOUS
 62
250
 10
1051.14905011308
 20
299.03650343598
 11
1049.14905011308
 21
301.03650343598
  0
LINE
  8
シリズム2
  6
CONTINUOUS
 62
250
 10
1042.24905011308
 20
299.03650343598
 11
1044.24905011308
 21
301.03650343598
  0
LINE
  8
シリズム2
  6
CONTINUOUS
 62
250
 10
1043.89905011308
 20
298.73650343598
 11
1049.49905011308
 21
298.73650343598
  0
CIRCLE
  8
0
  6
CONTINUOUS
 62
4
 10
1046.69905011308
 20
297.23650343598
 40
13
  0
LINE
  8
$DDT_AUDIT_GENERATED__27_
  6
CONTINUOUS
 62
7
 10
782.529444748347
 20
361.862323106184
 11
782.529444748347
 21
374.862323106184
  0
LINE
  8
$DDT_AUDIT_GENERATED__27_
  6
CONTINUOUS
 62
7
 10
776.529444748347
 20
375.862323106184
 11
776.529444748347
 21
360.862323106184
  0
LINE
  8
$DDT_AUDIT_GENERATED__27_
  6
CONTINUOUS
 62
7
 10
776.529444748347
 20
361.362323106184
 11
782.029444748347
 21
361.362323106184
  0
LINE
  8
$DDT_AUDIT_GENERATED__27_
  6
CONTINUOUS
 62
7
 10
771.529444748347
 20
360.362323106184
 11
776.029444748347
 21
360.362323106184
  0
LINE
  8
$DDT_AUDIT_GENERATED__27_
  6
CONTINUOUS
 62
7
 10
782.029444748347
 20
375.362323106184
 11
776.529444748347
 21
375.362323106184
  0
LINE
  8
$DDT_AUDIT_GENERATED__27_
  6
CONTINUOUS
 62
7
 10
771.529444748347
 20
376.362323106184
 11
776.029444748347
 21
376.362323106184
  0
ARC
  8
DIMENSION
  6
CONTINUOUS
 62
250
 10
776.029444748347
 20
375.862323106184
 40
0.5
 50
360
 51
450
  0
ARC
  8
DIMENSION
  6
CONTINUOUS
 62
250
 10
782.029444748347
 20
374.862323106184
 40
0.5
 50
360
 51
450
  0
ARC
  8
DIMENSION
  6
CONTINUOUS
 62
250
 10
776.029444748347
 20
360.862323106184
 40
0.5
 50
270
 51
360
  0
ARC
  8
DIMENSION
  6
CONTINUOUS
 62
250
 10
782.029444748347
 20
361.862323106184
 40
0.5
 50
270
 51
360
  0
LINE
  8
$DDT_AUDIT_GENERATED__27_
  6
BYLAYER
 62
250
 10
775.059959941395
 20
355.256301940956
 11
775.059959960668
 21
331.47587045283
  0
LINE
  8
$DDT_AUDIT_GENERATED__27_
  6
BYLAYER
 62
250
 10
773.259959939634
 20
357.429094160357
 11
773.259959952564
 21
341.475870452832
  0
LINE
  8
$DDT_AUDIT_GENERATED__27_
  6
BYLAYER
 62
250
 10
775.059959987736
 20
298.07909416032
 11
775.059959991346
 21
293.624576575996
  0
LINE
  8
$DDT_AUDIT_GENERATED__27_
  6
BYLAYER
 62
250
 10
773.259959991467
 20
293.475870452836
 11
773.259959995074
 21
289.024678589101
  0
LINE
  8
DIMENSION
  6
BYLAYER
 62
250
 10
771.459959988893
 20
296.651886383291
 11
771.459959995074
 21
289.024678587643
  0
ARC
  8
0
  6
CONTINUOUS
 62
250
 10
772.359959995074
 20
289.024678588372
 40
0.899999999999949
 50
180.00000004643
 51
4.64301952E-8
  0
LINE
  8
$DDT_AUDIT_GENERATED__27_
  6
BYLAYER
 62
250
 10
774.472988481041
 20
297.492122658291
 11
776.596356086513
 21
299.61549024688
  0
LINE
  8
$DDT_AUDIT_GENERATED__27_
  6
BYLAYER
 62
250
 10
774.481263038668
 20
300.045981618004
 11
774.796356085909
 21
300.36107466274
  0
ARC
  8
0
  6
CONTINUOUS
 62
250
 10
772.359959988893
 20
296.65188638402
 40
0.899999999999949
 50
171.139848425787
 51
180.00000004643
  0
ARC
  8
0
  6
CONTINUOUS
 62
250
 10
775.959959985975
 20
300.251886352478
 40
0.899999999999949
 50
314.999999772218
 51
4.64301952E-8
  0
ARC
  8
0
  6
CONTINUOUS
 62
250
 10
774.15995998537
 20
300.997470768338
 40
0.899999999999949
 50
314.999999772218
 51
4.64301952E-8
  0
LINE
  8
$DDT_AUDIT_GENERATED__27_
  6
BYLAYER
 62
250
 10
776.85995994079
 20
356.001886349639
 11
776.859959960668
 21
331.47587045283
  0
LINE
  8
$DDT_AUDIT_GENERATED__27_
  6
BYLAYER
 62
250
 10
771.723563832293
 20
358.965490279914
 11
774.796356047011
 21
355.892698040764
  0
LINE
  8
$DDT_AUDIT_GENERATED__27_
  6
BYLAYER
 62
250
 10
773.523563831688
 20
359.711074688598
 11
776.596356046407
 21
356.638282449448
  0
ARC
  8
0
  6
CONTINUOUS
 62
250
 10
772.359959937891
 20
359.601886380452
 40
0.899999999999949
 50
180.00000004643
 51
224.999999772236
  0
ARC
  8
0
  6
CONTINUOUS
 62
250
 10
774.159959937286
 20
360.347470789136
 40
0.899999999999949
 50
180.00000004643
 51
224.999999772236
  0
ARC
  8
0
  6
CONTINUOUS
 62
250
 10
775.959959940808
 20
356.00188634891
 40
0.900000000000034
 50
4.64301952E-8
 51
44.9999997722363
  0
ARC
  8
0
  6
CONTINUOUS
 62
250
 10
774.159959941413
 20
355.256301940227
 40
0.899999999999949
 50
4.64301952E-8
 51
44.9999997722363
  0
LINE
  8
DIMENSION
  6
BYLAYER
 62
250
 10
773.259959992359
 20
293.475870452836
 11
773.259959992359
 21
288.911475358096
  0
ARC
  8
DIMENSION
  6
BYLAYER
 62
250
 10
771.259959992359
 20
292.375576973234
 40
4.00000000000003
 50
299.999999999997
 51
36.7693067449744
  0
LINE
  8
シリズム2
  6
BYLAYER
 62
250
 10
774.423171972531
 20
284.23650343598
 11
771.423171972531
 21
284.23650343598
  0
LINE
  8
0
  6
BYBLOCK
 62
250
 10
774.423171972531
 20
289.927293907799
 11
774.423171972531
 21
284.23650343598
  0
LINE
  8
シリズム2
  6
BYLAYER
 62
250
 10
771.459959991466
 20
293.475870452836
 11
774.459975738032
 21
293.475870452836
  0
LINE
  8
シリズム2
  6
BYLAYER
 62
250
 10
774.492375951819
 20
303.47587045283
 11
777.492391698385
 21
303.47587045283
  0
LINE
  8
シリズム2
  6
BYLAYER
 62
250
 10
777.583112296984
 20
331.47587045283
 11
774.583096550418
 21
331.47587045283
  0
LINE
  8
シリズム2
  6
BYLAYER
 62
250
 10
774.615496764204
 20
341.475870452832
 11
771.615481017636
 21
341.475870452832
  0
LINE
  8
0
  6
BYBLOCK
 62
250
 10
771.615481017636
 20
341.475870452832
 11
771.459959991466
 21
293.475870452836
  0
LINE
  8
0
  6
BYBLOCK
 62
250
 10
774.615496764204
 20
341.475870452832
 11
774.583096550418
 21
331.47587045283
  0
LINE
  8
0
  6
BYBLOCK
 62
250
 10
774.492375951819
 20
303.47587045283
 11
774.459944244983
 21
293.466150439719
  0
LINE
  8
0
  6
BYBLOCK
 62
250
 10
777.583112296984
 20
331.47587045283
 11
777.492391698385
 21
303.47587045283
  0
LINE
  8
0
  6
BYBLOCK
 62
250
 10
777.4599914846
 20
293.475870452836
 11
777.459928498499
 21
293.456430426602
  0
LINE
  8
0
  6
BYBLOCK
 62
250
 10
775.05995998537
 20
300.997470769067
 11
775.05995998537
 21
303.47587045283
  0
LINE
  8
0
  6
BYBLOCK
 62
250
 10
776.859959985974
 20
300.251886353208
 11
776.859959985974
 21
303.47587045283
  0
LINE
  8
0
  6
BYBLOCK
 62
250
 10
366.439829083296
 20
751.185281374242
 11
366.439829083296
 21
757.185281374242
  0
LINE
  8
0
  6
BYBLOCK
 62
250
 10
343.939829083296
 20
751.185281374242
 11
343.939829083296
 21
757.185281374242
  0
LINE
  8
0
  6
BYBLOCK
 62
250
 10
343.939829083296
 20
751.185281374242
 11
366.439829083296
 21
751.185281374242
  0
LINE
  8
0
  6
BYBLOCK
 62
250
 10
343.939829083296
 20
754.185281374242
 11
346.342543033738
 21
754.185281374242
  0
LINE
  8
0
  6
BYBLOCK
 62
250
 10
343.939829083296
 20
757.185281374242
 11
347.342543033738
 21
757.185281374242
  0
LINE
  8
0
  6
BYBLOCK
 62
250
 10
362.342543033738
 20
754.185281374242
 11
366.439829083296
 21
754.185281374242
  0
LINE
  8
0
  6
BYBLOCK
 62
250
 10
361.342543033737
 20
757.185281374242
 11
366.439829083296
 21
757.185281374242
  0
LINE
  8
シリズム2
  6
BYLAYER
 62
250
 10
261.202183787692
 20
496.185281374242
 11
261.202183787692
 21
495.685281374242
  0
LINE
  8
シリズム2
  6
BYLAYER
 62
250
 10
262.352183787693
 20
495.685281374242
 11
262.352183787693
 21
494.685281374242
  0
LINE
  8
シリズム2
  6
BYLAYER
 62
250
 10
269.352183787692
 20
495.685281374242
 11
269.352183787692
 21
494.685281374242
  0
LINE
  8
シリズム2
  6
BYLAYER
 62
250
 10
270.502183787693
 20
496.185281374242
 11
270.502183787693
 21
495.685281374242
  0
LINE
  8
0
  6
BYBLOCK
 62
250
 10
261.202183787692
 20
496.185281374242
 11
270.502183787693
 21
496.185281374242
  0
LINE
  8
0
  6
BYBLOCK
 62
250
 10
261.202183787692
 20
495.685281374242
 11
270.502183787693
 21
495.685281374242
  0
LINE
  8
0
  6
BYBLOCK
 62
250
 10
262.352183787693
 20
494.685281374242
 11
269.352183787692
 21
494.685281374242
  0
LINE
  8
シリズム2
  6
BYLAYER
 62
250
 10
280.502183787692
 20
496.185281374242
 11
280.502183787692
 21
495.685281374242
  0
LINE
  8
シリズム2
  6
BYLAYER
 62
250
 10
279.352183787693
 20
495.685281374242
 11
279.352183787693
 21
494.685281374242
  0
LINE
  8
シリズム2
  6
BYLAYER
 62
250
 10
272.352183787692
 20
495.685281374242
 11
272.352183787692
 21
494.685281374242
  0
LINE
  8
シリズム2
  6
BYLAYER
 62
250
 10
271.202183787693
 20
496.185281374242
 11
271.202183787693
 21
495.685281374242
  0
LINE
  8
0
  6
BYBLOCK
 62
250
 10
271.202183787693
 20
496.185281374242
 11
280.502183787692
 21
496.185281374242
  0
LINE
  8
0
  6
BYBLOCK
 62
250
 10
271.202183787693
 20
495.685281374242
 11
280.502183787692
 21
495.685281374242
  0
LINE
  8
0
  6
BYBLOCK
 62
250
 10
272.352183787692
 20
494.685281374242
 11
279.352183787693
 21
494.685281374242
  0
LINE
  8
シリズム2
  6
BYLAYER
 62
250
 10
516.423171972531
 20
327.36150343597
 11
515.92317197253
 21
327.36150343597
  0
LINE
  8
シリズム2
  6
BYLAYER
 62
250
 10
515.92317197253
 20
326.21150343597
 11
514.923171972531
 21
326.21150343597
  0
LINE
  8
シリズム2
  6
BYLAYER
 62
250
 10
515.92317197253
 20
319.21150343597
 11
514.923171972531
 21
319.21150343597
  0
LINE
  8
シリズム2
  6
BYLAYER
 62
250
 10
516.423171972531
 20
318.06150343597
 11
515.92317197253
 21
318.06150343597
  0
LINE
  8
0
  6
BYBLOCK
 62
250
 10
516.423171972531
 20
318.06150343597
 11
516.423171972531
 21
327.36150343597
  0
LINE
  8
0
  6
BYBLOCK
 62
250
 10
515.92317197253
 20
318.06150343597
 11
515.92317197253
 21
327.36150343597
  0
LINE
  8
0
  6
BYBLOCK
 62
250
 10
514.923171972531
 20
319.21150343597
 11
514.923171972531
 21
326.21150343597
  0
LINE
  8
シリズム2
  6
BYLAYER
 62
250
 10
281.345493159066
 20
496.185281374242
 11
281.345493159066
 21
495.685281374242
  0
LINE
  8
シリズム2
  6
BYLAYER
 62
250
 10
280.416182769374
 20
495.685281374242
 11
280.416182769374
 21
495.185281374242
  0
LINE
  8
シリズム2
  6
BYLAYER
 62
250
 10
261.316182769374
 20
495.685281374242
 11
261.316182769374
 21
495.185281374242
  0
LINE
  8
シリズム2
  6
BYLAYER
 62
250
 10
260.345493159067
 20
496.185281374242
 11
260.345493159067
 21
495.685281374242
  0
LINE
  8
0
  6
BYBLOCK
 62
250
 10
260.345493159067
 20
496.185281374242
 11
281.345493159066
 21
496.185281374242
  0
LINE
  8
0
  6
BYBLOCK
 62
250
 10
260.345493159067
 20
495.685281374242
 11
261.316182769374
 21
495.685281374242
  0
LINE
  8
0
  6
BYBLOCK
 62
250
 10
261.316182769374
 20
495.185281374242
 11
262.352183787693
 21
495.185281374242
  0
LINE
  8
0
  6
BYBLOCK
 62
250
 10
278.328795614452
 20
494.685281374242
 11
275.845493159067
 21
492.282229065139
  0
LINE
  8
0
  6
BYBLOCK
 62
250
 10
275.845493159067
 20
492.282229065139
 11
270.025423660621
 21
495.185281374242
  0
LINE
  8
0
  6
BYBLOCK
 62
250
 10
269.352183787692
 20
495.185281374242
 11
272.352183787692
 21
495.185281374242
  0
LINE
  8
0
  6
BYBLOCK
 62
250
 10
270.502183787693
 20
495.685281374242
 11
271.202183787693
 21
495.685281374242
  0
LINE
  8
0
  6
BYBLOCK
 62
250
 10
280.416182769374
 20
495.685281374242
 11
281.345493159066
 21
495.685281374242
  0
LINE
  8
0
  6
BYBLOCK
 62
250
 10
279.352183787693
 20
495.185281374242
 11
280.416182769374
 21
495.185281374242
  0
LINE
  8
シリズム2
  6
BYLAYER
 62
250
 10
515.423171972532
 20
307.31150343597
 11
513.423171972531
 21
307.31150343597
  0
LINE
  8
シリズム2
  6
BYLAYER
 62
250
 10
515.423171972532
 20
297.31150343597
 11
513.423171972531
 21
297.31150343597
  0
LINE
  8
シリズム2
  6
BYLAYER
 62
250
 10
515.423171972532
 20
295.91150343597
 11
515.923171972532
 21
295.91150343597
  0
LINE
  8
シリズム2
  6
BYLAYER
 62
250
 10
515.423171972532
 20
308.71150343597
 11
515.923171972532
 21
308.71150343597
  0
LINE
  8
シリズム2
  6
BYLAYER
 62
250
 10
515.923171972532
 20
309.81150343597
 11
516.423171972531
 21
309.81150343597
  0
LINE
  8
シリズム2
  6
BYLAYER
 62
250
 10
515.923171972532
 20
294.81150343597
 11
516.423171972531
 21
294.81150343597
  0
LINE
  8
0
  6
BYBLOCK
 62
250
 10
516.423171972531
 20
309.81150343597
 11
516.423171972531
 21
294.81150343597
  0
LINE
  8
0
  6
BYBLOCK
 62
250
 10
515.923171972532
 20
309.81150343597
 11
515.923171972532
 21
294.81150343597
  0
LINE
  8
0
  6
BYBLOCK
 62
250
 10
515.423171972532
 20
308.71150343597
 11
515.423171972532
 21
295.91150343597
  0
LINE
  8
0
  6
BYBLOCK
 62
250
 10
513.423171972531
 20
307.31150343597
 11
513.423171972531
 21
297.31150343597
  0
LINE
  8
0
  6
CONTINUOUS
 62
250
 10
516.423171972532
 20
242.727503149095
 11
771.423171972531
 21
242.727503149095
  0
LINE
  8
0
  6
CONTINUOUS
 62
250
 10
516.423171972532
 20
242.727503149095
 11
525.116504409133
 21
245.056874555018
  0
LINE
  8
0
  6
CONTINUOUS
 62
250
 10
516.423171972532
 20
242.727503149095
 11
525.116504409133
 21
240.398131743173
  0
LINE
  8
0
  6
CONTINUOUS
 62
250
 10
771.423171972531
 20
242.727503149095
 11
762.729839535929
 21
240.398131743173
  0
LINE
  8
0
  6
CONTINUOUS
 62
250
 10
771.423171972531
 20
242.727503149095
 11
762.729839535929
 21
245.056874555018
  0
POINT
  8
0
 62
250
 10
516.423171972532
 20
277.81150343597
  0
POINT
  8
0
 62
250
 10
771.423171972531
 20
277.81150343597
  0
TEXT
  8
0
 62
250
  6
CONTINUOUS
 62
250
 10
633.423171972531
 20
243.727503149096
 40
14
  1
255
  7
Font_0
 72
1
 11
643.923171972531
 21
243.727503149096
  0
LINE
  8
0
  6
DASHDOT
 62
250
 10
493.166323398449
 20
362.2473129493
 11
523.335325523776
 21
362.2473129493
  0
LINE
  8
0
  6
CONTINUOUS
 62
250
 10
516.423171972531
 20
242.727503149095
 11
498.51124007512
 21
242.727503149095
  0
POINT
  8
0
 62
250
 10
516.423171972531
 20
362.2473129493
  0
POINT
  8
0
 62
250
 10
498.51124007512
 20
362.2473129493
  0
TEXT
  8
0
 62
250
  6
CONTINUOUS
 62
250
 10
458.403837356983
 20
243.727503149095
 40
14
  1
17.9
  7
Font_0
 72
1
 11
472.403837356983
 21
243.727503149095
  0
LINE
  8
0
  6
CONTINUOUS
 62
250
 10
498.51124007512
 20
242.727503149095
 11
460.643578157493
 21
242.727503149095
  0
LINE
  8
0
  6
CONTINUOUS
 62
250
 10
498.51124007512
 20
242.727503149095
 11
489.817907638519
 21
240.398131743172
  0
LINE
  8
0
  6
CONTINUOUS
 62
250
 10
498.51124007512
 20
242.727503149095
 11
489.817907638519
 21
245.056874555018
  0
LINE
  8
0
  6
CONTINUOUS
 62
250
 10
951.732721698113
 20
239.482284938936
 11
1018.88512169811
 21
239.482284938936
  0
LINE
  8
0
  6
CONTINUOUS
 62
250
 10
1046.69905011308
 20
291.68650343598
 11
1018.88512169811
 21
239.482284938936
  0
LINE
  8
0
  6
CONTINUOUS
 62
250
 10
1046.69905011308
 20
291.68650343598
 11
1044.6671016998
 21
282.918881999936
  0
LINE
  8
0
  6
CONTINUOUS
 62
250
 10
1046.69905011308
 20
291.68650343598
 11
1040.55552044998
 21
285.10949474824
  0
LINE
  8
$DDT_AUDIT_GENERATED__30_
  6
BYLAYER
 62
250
 10
195.842543033737
 20
276.81150343597
 11
195.842543033737
 21
238.882880983656
  0
LINE
  8
$DDT_AUDIT_GENERATED__30_
  6
BYLAYER
 62
250
 10
370.877118682802
 20
276.81150343597
 11
370.877118682802
 21
239.139040488145
  0
LINE
  8
0
  6
CONTINUOUS
 62
250
 10
498.51124007512
 20
349.616296321993
 11
498.51124007512
 21
238.741184845085
  0
LINE
  8
0
  6
CONTINUOUS
 62
250
 10
516.423171972531
 20
358.2473129493
 11
516.423171972531
 21
238.262495704766
  0
LINE
  8
0
  6
CONTINUOUS
 62
250
 10
516.423171972532
 20
273.81150343597
 11
516.423171972532
 21
238.262495704769
  0
LINE
  8
0
  6
CONTINUOUS
 62
250
 10
771.423171972531
 20
273.81150343597
 11
771.423171972531
 21
239.277075717961
  0
LINE
  8
$DDT_AUDIT_GENERATED__30_
  6
BYLAYER
 62
250
 10
762.390914359907
 20
269.724173310344
 11
812.366081241617
 21
269.724173310344
  0
LINE
  8
$DDT_AUDIT_GENERATED__30_
  6
BYLAYER
 62
250
 10
712.723171972531
 20
423.81150343597
 11
812.325651693525
 21
423.81150343597
  0
POLYLINE
  8
0
 62
250
  6
CONTINUOUS
 10
0.0
 20
0.0
 30
0.0
 66
1
 70
     1
 40
0.13
 41
0.13
  0
VERTEX
  8
0
 10
848.796186867039
  20
792.995209225333
  0
VERTEX
  8
0
 10
788.796186867039
  20
792.995209225333
  0
VERTEX
  8
0
 10
788.796186867039
  20
762.995209225333
  0
VERTEX
  8
0
 10
848.796186867039
  20
762.995209225333
  0
SEQEND
100
AcDbEntity
  8
0
  0
POLYLINE
  8
0
 62
250
  6
CONTINUOUS
 10
0.0
 20
0.0
 30
0.0
 66
1
 70
     1
 40
0.13
 41
0.13
  0
VERTEX
  8
0
 10
968.796186867039
  20
792.995209225333
  0
VERTEX
  8
0
 10
848.796186867039
  20
792.995209225333
  0
VERTEX
  8
0
 10
848.796186867039
  20
762.995209225333
  0
VERTEX
  8
0
 10
968.796186867039
  20
762.995209225333
  0
SEQEND
100
AcDbEntity
  8
0
  0
POLYLINE
  8
0
 62
250
  6
CONTINUOUS
 10
0.0
 20
0.0
 30
0.0
 66
1
 70
     1
 40
0.13
 41
0.13
  0
VERTEX
  8
0
 10
1168.79618686704
  20
792.995209225333
  0
VERTEX
  8
0
 10
968.796186867039
  20
792.995209225333
  0
VERTEX
  8
0
 10
968.796186867039
  20
762.995209225333
  0
VERTEX
  8
0
 10
1168.79618686704
  20
762.995209225333
  0
SEQEND
100
AcDbEntity
  8
0
  0
POLYLINE
  8
0
 62
250
  6
CONTINUOUS
 10
0.0
 20
0.0
 30
0.0
 66
1
 70
     1
 40
0.13
 41
0.13
  0
VERTEX
  8
0
 10
848.796186867039
  20
762.995209225333
  0
VERTEX
  8
0
 10
788.796186867039
  20
762.995209225333
  0
VERTEX
  8
0
 10
788.796186867039
  20
732.995209225333
  0
VERTEX
  8
0
 10
848.796186867039
  20
732.995209225333
  0
SEQEND
100
AcDbEntity
  8
0
  0
POLYLINE
  8
0
 62
250
  6
CONTINUOUS
 10
0.0
 20
0.0
 30
0.0
 66
1
 70
     1
 40
0.13
 41
0.13
  0
VERTEX
  8
0
 10
968.796186867039
  20
762.995209225333
  0
VERTEX
  8
0
 10
848.796186867039
  20
762.995209225333
  0
VERTEX
  8
0
 10
848.796186867039
  20
732.995209225333
  0
VERTEX
  8
0
 10
968.796186867039
  20
732.995209225333
  0
SEQEND
100
AcDbEntity
  8
0
  0
POLYLINE
  8
0
 62
250
  6
CONTINUOUS
 10
0.0
 20
0.0
 30
0.0
 66
1
 70
     1
 40
0.13
 41
0.13
  0
VERTEX
  8
0
 10
1168.79618686704
  20
762.995209225333
  0
VERTEX
  8
0
 10
968.796186867039
  20
762.995209225333
  0
VERTEX
  8
0
 10
968.796186867039
  20
732.995209225333
  0
VERTEX
  8
0
 10
1168.79618686704
  20
732.995209225333
  0
SEQEND
100
AcDbEntity
  8
0
  0
POLYLINE
  8
0
 62
250
  6
CONTINUOUS
 10
0.0
 20
0.0
 30
0.0
 66
1
 70
     1
 40
0.13
 41
0.13
  0
VERTEX
  8
0
 10
848.796186867039
  20
732.995209225333
  0
VERTEX
  8
0
 10
788.796186867039
  20
732.995209225333
  0
VERTEX
  8
0
 10
788.796186867039
  20
702.995209225333
  0
VERTEX
  8
0
 10
848.796186867039
  20
702.995209225333
  0
SEQEND
100
AcDbEntity
  8
0
  0
POLYLINE
  8
0
 62
250
  6
CONTINUOUS
 10
0.0
 20
0.0
 30
0.0
 66
1
 70
     1
 40
0.13
 41
0.13
  0
VERTEX
  8
0
 10
968.796186867039
  20
732.995209225333
  0
VERTEX
  8
0
 10
848.796186867039
  20
732.995209225333
  0
VERTEX
  8
0
 10
848.796186867039
  20
702.995209225333
  0
VERTEX
  8
0
 10
968.796186867039
  20
702.995209225333
  0
SEQEND
100
AcDbEntity
  8
0
  0
POLYLINE
  8
0
 62
250
  6
CONTINUOUS
 10
0.0
 20
0.0
 30
0.0
 66
1
 70
     1
 40
0.13
 41
0.13
  0
VERTEX
  8
0
 10
1168.79618686704
  20
732.995209225333
  0
VERTEX
  8
0
 10
968.796186867039
  20
732.995209225333
  0
VERTEX
  8
0
 10
968.796186867039
  20
702.995209225333
  0
VERTEX
  8
0
 10
1168.79618686704
  20
702.995209225333
  0
SEQEND
100
AcDbEntity
  8
0
  0
POLYLINE
  8
0
 62
250
  6
CONTINUOUS
 10
0.0
 20
0.0
 30
0.0
 66
1
 70
     1
 40
0.13
 41
0.13
  0
VERTEX
  8
0
 10
848.796186867039
  20
702.995209225333
  0
VERTEX
  8
0
 10
788.796186867039
  20
702.995209225333
  0
VERTEX
  8
0
 10
788.796186867039
  20
672.995209225333
  0
VERTEX
  8
0
 10
848.796186867039
  20
672.995209225333
  0
SEQEND
100
AcDbEntity
  8
0
  0
POLYLINE
  8
0
 62
250
  6
CONTINUOUS
 10
0.0
 20
0.0
 30
0.0
 66
1
 70
     1
 40
0.13
 41
0.13
  0
VERTEX
  8
0
 10
968.796186867039
  20
702.995209225333
  0
VERTEX
  8
0
 10
848.796186867039
  20
702.995209225333
  0
VERTEX
  8
0
 10
848.796186867039
  20
672.995209225333
  0
VERTEX
  8
0
 10
968.796186867039
  20
672.995209225333
  0
SEQEND
100
AcDbEntity
  8
0
  0
POLYLINE
  8
0
 62
250
  6
CONTINUOUS
 10
0.0
 20
0.0
 30
0.0
 66
1
 70
     1
 40
0.13
 41
0.13
  0
VERTEX
  8
0
 10
1168.79618686704
  20
702.995209225333
  0
VERTEX
  8
0
 10
968.796186867039
  20
702.995209225333
  0
VERTEX
  8
0
 10
968.796186867039
  20
672.995209225333
  0
VERTEX
  8
0
 10
1168.79618686704
  20
672.995209225333
  0
SEQEND
100
AcDbEntity
  8
0
  0
TEXT
  8
0
 62
250
  6
CONTINUOUS
 62
250
 10
806.041577659505
 20
771.927750686946
 40
12
  1
品番
  7
Font_0
 11
806.041577659505
 21
783.927750686946
 73
3
  0
TEXT
  8
0
 62
250
  6
CONTINUOUS
 62
250
 10
890.796186867039
 20
771.927750686946
 40
12
  1
型　式
  7
Font_0
 11
890.796186867039
 21
783.927750686946
 73
3
  0
TEXT
  8
0
 62
250
  6
CONTINUOUS
 62
250
 10
1035.79618686704
 20
771.927750686946
 40
12
  1
LVF波長範囲
  7
Font_0
 11
1035.79618686704
 21
783.927750686946
 73
3
  0
TEXT
  8
0
 62
250
  6
CONTINUOUS
 62
250
 10
812.796186867039
 20
741.927750686946
 40
12
  1
１
  7
Font_0
 11
812.796186867039
 21
753.927750686946
 73
3
  0
TEXT
  8
0
 62
250
  6
CONTINUOUS
 62
250
 10
881.796186867039
 20
741.927750686946
 40
12
  1
KT-M1020D
  7
Font_0
 11
881.796186867039
 21
753.927750686946
 73
3
  0
TEXT
  8
0
 62
250
  6
CONTINUOUS
 62
250
 10
1026.79618686704
 20
741.927750686946
 40
12
  1
1250 ～ 2500 nm
  7
Font_0
 11
1026.79618686704
 21
753.927750686946
 73
3
  0
TEXT
  8
0
 62
250
  6
CONTINUOUS
 62
250
 10
812.796186867039
 20
711.927750686946
 40
12
  1
２
  7
Font_0
 11
812.796186867039
 21
723.927750686946
 73
3
  0
TEXT
  8
0
 62
250
  6
CONTINUOUS
 62
250
 10
881.796186867039
 20
711.927750686946
 40
12
  1
KT-M1021D
  7
Font_0
 11
881.796186867039
 21
723.927750686946
 73
3
  0
TEXT
  8
0
 62
250
  6
CONTINUOUS
 62
250
 10
1026.79618686704
 20
711.927750686946
 40
12
  1
900 ～ 1250 nm
  7
Font_0
 11
1026.79618686704
 21
723.927750686946
 73
3
  0
TEXT
  8
0
 62
250
  6
CONTINUOUS
 62
250
 10
812.796186867039
 20
681.927750686946
 40
12
  1
３
  7
Font_0
 11
812.796186867039
 21
693.927750686946
 73
3
  0
TEXT
  8
0
 62
250
  6
CONTINUOUS
 62
250
 10
881.796186867039
 20
681.927750686946
 40
12
  1
KT-M1022D
  7
Font_0
 11
881.796186867039
 21
693.927750686946
 73
3
  0
TEXT
  8
0
 62
250
  6
CONTINUOUS
 62
250
 10
1029.79618686704
 20
681.927750686946
 40
12
  1
400 ～ 700 nm
  7
Font_0
 11
1029.79618686704
 21
693.927750686946
 73
3
  0
TEXT
  8
0
 62
250
  6
CONTINUOUS
 62
250
 10
997.338706075126
 20
104.804231186033
 40
10.5
  1
波長可変光源装置
  7
Font_0
 11
997.338706075126
 21
115.304231186033
 73
3
  0
TEXT
  8
0
 62
250
  6
CONTINUOUS
 62
250
 10
1006.48520018046
 20
133.374790318645
 40
10.5
  1
TSTT-006-100
  7
Font_0
 11
1006.48520018046
 21
143.874790318645
 73
3
  0
ENDSEC
  0
EOF
