999
Outputted By AR_CAD Ver.1.5.4a
  0
SECTION
  2
HEADER
  9
$ACADVER
  1
AC1014
  9
$DWGCODEPAGE
  3
ANSI_932
  9
$EXTMIN
 10
0
 20
0
  9
$EXTMAX
 10
594
 20
420
  9
$INSBASE
 10
0.0
 20
0.0
 30
0.0
  9
$HANDLING
 70
     1
  9
$HANDSEED
  5
794
  9
$LTSCALE
 40
1
  0
ENDSEC
  0
SECTION
  2
TABLES
  0
TABLE
  2
VPORT
  5
1
100
AcDbSymbolTable
 70
     1
  0
VPORT
  5
30
100
AcDbSymbolTableRecord
100
AcDbViewportTableRecord
  2
*ACTIVE
 70
     0
 10
0.0
 20
0.0
 11
1.0
 21
1.0
 12
210.0
 22
148.5
 13
0.0
 23
0.0
 14
10.0
 24
10.0
 15
10.0
 25
10.0
 16
0.0
 26
0.0
 36
1.0
 17
0.0
 27
0.0
 37
0.0
 40
302.94
 41
1.333333
 42
50.0
 43
0.0
 44
0.0
 50
0.0
 51
0.0
 71
     0
 72
   100
 73
     1
 74
     1
 75
     0
 76
     0
 77
     0
 78
     0
  0
ENDTAB
  0
TABLE
  2
LTYPE
  5
2
100
AcDbSymbolTable
 70
     10
  0
LTYPE
  5
31
100
AcDbSymbolTableRecord
100
AcDbLinetypeTableRecord
  2
BYBLOCK
 70
    64
 3

 72
    65
 73
    0
 40
    0
  0
LTYPE
  5
32
100
AcDbSymbolTableRecord
100
AcDbLinetypeTableRecord
  2
BYLAYER
 70
    64
 3

 72
    65
 73
    0
 40
    0
  0
LTYPE
  5
33
100
AcDbSymbolTableRecord
100
AcDbLinetypeTableRecord
  2
CONTINUOUS
 70
    64
 3
CONTINUOUS
 72
    65
 73
    0
 40
    0
  0
LTYPE
  5
34
100
AcDbSymbolTableRecord
100
AcDbLinetypeTableRecord
  2
DASHED
 70
    64
 3

 72
    65
 73
    2
 40
    19.05
 49
    12.7
 74
    0
 49
    -6.35
 74
    0
  0
LTYPE
  5
35
100
AcDbSymbolTableRecord
100
AcDbLinetypeTableRecord
  2
DOT
 70
    64
 3

 72
    65
 73
    2
 40
    0.5
 49
    0.25
 74
    0
 49
    -0.25
 74
    0
  0
LTYPE
  5
36
100
AcDbSymbolTableRecord
100
AcDbLinetypeTableRecord
  2
DASHDOT
 70
    64
 3

 72
    65
 73
    4
 40
    3.5
 49
    1.84210526315789
 74
    0
 49
    -0.552631578947368
 74
    0
 49
    0.552631578947368
 74
    0
 49
    -0.552631578947368
 74
    0
  0
LTYPE
  5
37
100
AcDbSymbolTableRecord
100
AcDbLinetypeTableRecord
  2
DIVIDE
 70
    64
 3

 72
    65
 73
    6
 40
    3.5
 49
    1.4
 74
    0
 49
    -0.42
 74
    0
 49
    0.42
 74
    0
 49
    -0.42
 74
    0
 49
    0.42
 74
    0
 49
    -0.42
 74
    0
  0
LTYPE
  5
38
100
AcDbSymbolTableRecord
100
AcDbLinetypeTableRecord
  2
HIDDEN
 70
    64
 3

 72
    65
 73
    2
 40
    9.525
 49
    6.35
 74
    0
 49
    -3.175
 74
    0
  0
LTYPE
  5
39
100
AcDbSymbolTableRecord
100
AcDbLinetypeTableRecord
  2
CENTER
 70
    64
 3

 72
    65
 73
    4
 40
    50.8
 49
    31.75
 74
    0
 49
    -6.35
 74
    0
 49
    6.35
 74
    0
 49
    -6.35
 74
    0
  0
LTYPE
  5
3A
100
AcDbSymbolTableRecord
100
AcDbLinetypeTableRecord
  2
PHANTOM
 70
    64
 3

 72
    65
 73
    6
 40
    63.5
 49
    31.75
 74
    0
 49
    -6.35
 74
    0
 49
    6.35
 74
    0
 49
    -6.35
 74
    0
 49
    6.35
 74
    0
 49
    -6.35
 74
    0
  0
LTYPE
  5
3B
100
AcDbSymbolTableRecord
100
AcDbLinetypeTableRecord
  2
RUPTURE
 70
    64
 3

 72
    65
 73
    2
 40
    4
 49
    2
 74
    0
 49
    -2
 74
    0
  0
ENDTAB
  0
TABLE
  2
LAYER
  5
3
100
AcDbSymbolTable
 70
   257
  0
LAYER
  5
3C
100
AcDbSymbolTableRecord
100
AcDbLayerTableRecord
  2
0-0
 70
    0
 62
7
  6
CONTINUOUS
  0
LAYER
  5
3D
100
AcDbSymbolTableRecord
100
AcDbLayerTableRecord
  2
0-1
 70
    0
 62
7
  6
CONTINUOUS
  0
LAYER
  5
3E
100
AcDbSymbolTableRecord
100
AcDbLayerTableRecord
  2
0-2
 70
    0
 62
9
  6
CONTINUOUS
  0
LAYER
  5
3F
100
AcDbSymbolTableRecord
100
AcDbLayerTableRecord
  2
0-3
 70
    0
 62
7
  6
CONTINUOUS
  0
LAYER
  5
40
100
AcDbSymbolTableRecord
100
AcDbLayerTableRecord
  2
0-4
 70
    0
 62
6
  6
CONTINUOUS
  0
LAYER
  5
41
100
AcDbSymbolTableRecord
100
AcDbLayerTableRecord
  2
0-5
 70
    0
 62
1
  6
CONTINUOUS
  0
LAYER
  5
42
100
AcDbSymbolTableRecord
100
AcDbLayerTableRecord
  2
0-6
 70
    0
 62
7
  6
CONTINUOUS
  0
LAYER
  5
43
100
AcDbSymbolTableRecord
100
AcDbLayerTableRecord
  2
0-7
 70
    0
 62
51
  6
CONTINUOUS
  0
LAYER
  5
44
100
AcDbSymbolTableRecord
100
AcDbLayerTableRecord
  2
0-8
 70
    0
 62
61
  6
CONTINUOUS
  0
LAYER
  5
45
100
AcDbSymbolTableRecord
100
AcDbLayerTableRecord
  2
0-9
 70
    0
 62
111
  6
CONTINUOUS
  0
LAYER
  5
46
100
AcDbSymbolTableRecord
100
AcDbLayerTableRecord
  2
0-a
 70
    0
 62
91
  6
CONTINUOUS
  0
LAYER
  5
47
100
AcDbSymbolTableRecord
100
AcDbLayerTableRecord
  2
0-b
 70
    0
 62
131
  6
CONTINUOUS
  0
LAYER
  5
48
100
AcDbSymbolTableRecord
100
AcDbLayerTableRecord
  2
0-c
 70
    0
 62
7
  6
CONTINUOUS
  0
LAYER
  5
49
100
AcDbSymbolTableRecord
100
AcDbLayerTableRecord
  2
0-d
 70
    0
 62
7
  6
CONTINUOUS
  0
LAYER
  5
4A
100
AcDbSymbolTableRecord
100
AcDbLayerTableRecord
  2
0-e
 70
    0
 62
7
  6
CONTINUOUS
  0
LAYER
  5
4B
100
AcDbSymbolTableRecord
100
AcDbLayerTableRecord
  2
0-f
 70
    0
 62
7
  6
CONTINUOUS
  0
LAYER
  5
4C
100
AcDbSymbolTableRecord
100
AcDbLayerTableRecord
  2
1-0
 70
    0
 62
7
  6
CONTINUOUS
  0
LAYER
  5
4D
100
AcDbSymbolTableRecord
100
AcDbLayerTableRecord
  2
1-1
 70
    0
 62
70
  6
CONTINUOUS
  0
LAYER
  5
4E
100
AcDbSymbolTableRecord
100
AcDbLayerTableRecord
  2
1-2
 70
    0
 62
211
  6
CONTINUOUS
  0
LAYER
  5
4F
100
AcDbSymbolTableRecord
100
AcDbLayerTableRecord
  2
1-3
 70
    0
 62
137
  6
CONTINUOUS
  0
LAYER
  5
50
100
AcDbSymbolTableRecord
100
AcDbLayerTableRecord
  2
1-4
 70
    0
 62
4
  6
CONTINUOUS
  0
LAYER
  5
51
100
AcDbSymbolTableRecord
100
AcDbLayerTableRecord
  2
1-5
 70
    0
 62
131
  6
CONTINUOUS
  0
LAYER
  5
52
100
AcDbSymbolTableRecord
100
AcDbLayerTableRecord
  2
1-6
 70
    0
 62
4
  6
CONTINUOUS
  0
LAYER
  5
53
100
AcDbSymbolTableRecord
100
AcDbLayerTableRecord
  2
1-7
 70
    0
 62
4
  6
CONTINUOUS
  0
LAYER
  5
54
100
AcDbSymbolTableRecord
100
AcDbLayerTableRecord
  2
1-8
 70
    0
 62
7
  6
CONTINUOUS
  0
LAYER
  5
55
100
AcDbSymbolTableRecord
100
AcDbLayerTableRecord
  2
1-9
 70
    0
 62
7
  6
CONTINUOUS
  0
LAYER
  5
56
100
AcDbSymbolTableRecord
100
AcDbLayerTableRecord
  2
1-a
 70
    0
 62
7
  6
CONTINUOUS
  0
LAYER
  5
57
100
AcDbSymbolTableRecord
100
AcDbLayerTableRecord
  2
1-b
 70
    0
 62
7
  6
CONTINUOUS
  0
LAYER
  5
58
100
AcDbSymbolTableRecord
100
AcDbLayerTableRecord
  2
1-c
 70
    0
 62
7
  6
CONTINUOUS
  0
LAYER
  5
59
100
AcDbSymbolTableRecord
100
AcDbLayerTableRecord
  2
1-d
 70
    0
 62
7
  6
CONTINUOUS
  0
LAYER
  5
5A
100
AcDbSymbolTableRecord
100
AcDbLayerTableRecord
  2
1-e
 70
    0
 62
7
  6
CONTINUOUS
  0
LAYER
  5
5B
100
AcDbSymbolTableRecord
100
AcDbLayerTableRecord
  2
1-f
 70
    0
 62
7
  6
CONTINUOUS
  0
LAYER
  5
5C
100
AcDbSymbolTableRecord
100
AcDbLayerTableRecord
  2
2-0
 70
    0
 62
7
  6
CONTINUOUS
  0
LAYER
  5
5D
100
AcDbSymbolTableRecord
100
AcDbLayerTableRecord
  2
2-1
 70
    0
 62
7
  6
CONTINUOUS
  0
LAYER
  5
5E
100
AcDbSymbolTableRecord
100
AcDbLayerTableRecord
  2
2-2
 70
    0
 62
7
  6
CONTINUOUS
  0
LAYER
  5
5F
100
AcDbSymbolTableRecord
100
AcDbLayerTableRecord
  2
2-3
 70
    0
 62
7
  6
CONTINUOUS
  0
LAYER
  5
60
100
AcDbSymbolTableRecord
100
AcDbLayerTableRecord
  2
2-4
 70
    0
 62
7
  6
CONTINUOUS
  0
LAYER
  5
61
100
AcDbSymbolTableRecord
100
AcDbLayerTableRecord
  2
2-5
 70
    0
 62
7
  6
CONTINUOUS
  0
LAYER
  5
62
100
AcDbSymbolTableRecord
100
AcDbLayerTableRecord
  2
2-6
 70
    0
 62
7
  6
CONTINUOUS
  0
LAYER
  5
63
100
AcDbSymbolTableRecord
100
AcDbLayerTableRecord
  2
2-7
 70
    0
 62
7
  6
CONTINUOUS
  0
LAYER
  5
64
100
AcDbSymbolTableRecord
100
AcDbLayerTableRecord
  2
2-8
 70
    0
 62
7
  6
CONTINUOUS
  0
LAYER
  5
65
100
AcDbSymbolTableRecord
100
AcDbLayerTableRecord
  2
2-9
 70
    0
 62
7
  6
CONTINUOUS
  0
LAYER
  5
66
100
AcDbSymbolTableRecord
100
AcDbLayerTableRecord
  2
2-a
 70
    0
 62
7
  6
CONTINUOUS
  0
LAYER
  5
67
100
AcDbSymbolTableRecord
100
AcDbLayerTableRecord
  2
2-b
 70
    0
 62
7
  6
CONTINUOUS
  0
LAYER
  5
68
100
AcDbSymbolTableRecord
100
AcDbLayerTableRecord
  2
2-c
 70
    0
 62
7
  6
CONTINUOUS
  0
LAYER
  5
69
100
AcDbSymbolTableRecord
100
AcDbLayerTableRecord
  2
2-d
 70
    0
 62
7
  6
CONTINUOUS
  0
LAYER
  5
6A
100
AcDbSymbolTableRecord
100
AcDbLayerTableRecord
  2
2-e
 70
    0
 62
7
  6
CONTINUOUS
  0
LAYER
  5
6B
100
AcDbSymbolTableRecord
100
AcDbLayerTableRecord
  2
2-f
 70
    0
 62
7
  6
CONTINUOUS
  0
LAYER
  5
6C
100
AcDbSymbolTableRecord
100
AcDbLayerTableRecord
  2
3-0
 70
    0
 62
7
  6
CONTINUOUS
  0
LAYER
  5
6D
100
AcDbSymbolTableRecord
100
AcDbLayerTableRecord
  2
3-1
 70
    0
 62
7
  6
CONTINUOUS
  0
LAYER
  5
6E
100
AcDbSymbolTableRecord
100
AcDbLayerTableRecord
  2
3-2
 70
    0
 62
7
  6
CONTINUOUS
  0
LAYER
  5
6F
100
AcDbSymbolTableRecord
100
AcDbLayerTableRecord
  2
3-3
 70
    0
 62
7
  6
CONTINUOUS
  0
LAYER
  5
70
100
AcDbSymbolTableRecord
100
AcDbLayerTableRecord
  2
3-4
 70
    0
 62
7
  6
CONTINUOUS
  0
LAYER
  5
71
100
AcDbSymbolTableRecord
100
AcDbLayerTableRecord
  2
3-5
 70
    0
 62
7
  6
CONTINUOUS
  0
LAYER
  5
72
100
AcDbSymbolTableRecord
100
AcDbLayerTableRecord
  2
3-6
 70
    0
 62
7
  6
CONTINUOUS
  0
LAYER
  5
73
100
AcDbSymbolTableRecord
100
AcDbLayerTableRecord
  2
3-7
 70
    0
 62
7
  6
CONTINUOUS
  0
LAYER
  5
74
100
AcDbSymbolTableRecord
100
AcDbLayerTableRecord
  2
3-8
 70
    0
 62
7
  6
CONTINUOUS
  0
LAYER
  5
75
100
AcDbSymbolTableRecord
100
AcDbLayerTableRecord
  2
3-9
 70
    0
 62
7
  6
CONTINUOUS
  0
LAYER
  5
76
100
AcDbSymbolTableRecord
100
AcDbLayerTableRecord
  2
3-a
 70
    0
 62
7
  6
CONTINUOUS
  0
LAYER
  5
77
100
AcDbSymbolTableRecord
100
AcDbLayerTableRecord
  2
3-b
 70
    0
 62
7
  6
CONTINUOUS
  0
LAYER
  5
78
100
AcDbSymbolTableRecord
100
AcDbLayerTableRecord
  2
3-c
 70
    0
 62
7
  6
CONTINUOUS
  0
LAYER
  5
79
100
AcDbSymbolTableRecord
100
AcDbLayerTableRecord
  2
3-d
 70
    0
 62
7
  6
CONTINUOUS
  0
LAYER
  5
7A
100
AcDbSymbolTableRecord
100
AcDbLayerTableRecord
  2
3-e
 70
    0
 62
7
  6
CONTINUOUS
  0
LAYER
  5
7B
100
AcDbSymbolTableRecord
100
AcDbLayerTableRecord
  2
3-f
 70
    0
 62
7
  6
CONTINUOUS
  0
LAYER
  5
7C
100
AcDbSymbolTableRecord
100
AcDbLayerTableRecord
  2
4-0
 70
    0
 62
7
  6
CONTINUOUS
  0
LAYER
  5
7D
100
AcDbSymbolTableRecord
100
AcDbLayerTableRecord
  2
4-1
 70
    0
 62
7
  6
CONTINUOUS
  0
LAYER
  5
7E
100
AcDbSymbolTableRecord
100
AcDbLayerTableRecord
  2
4-2
 70
    0
 62
7
  6
CONTINUOUS
  0
LAYER
  5
7F
100
AcDbSymbolTableRecord
100
AcDbLayerTableRecord
  2
4-3
 70
    0
 62
7
  6
CONTINUOUS
  0
LAYER
  5
80
100
AcDbSymbolTableRecord
100
AcDbLayerTableRecord
  2
4-4
 70
    0
 62
7
  6
CONTINUOUS
  0
LAYER
  5
81
100
AcDbSymbolTableRecord
100
AcDbLayerTableRecord
  2
4-5
 70
    0
 62
7
  6
CONTINUOUS
  0
LAYER
  5
82
100
AcDbSymbolTableRecord
100
AcDbLayerTableRecord
  2
4-6
 70
    0
 62
7
  6
CONTINUOUS
  0
LAYER
  5
83
100
AcDbSymbolTableRecord
100
AcDbLayerTableRecord
  2
4-7
 70
    0
 62
7
  6
CONTINUOUS
  0
LAYER
  5
84
100
AcDbSymbolTableRecord
100
AcDbLayerTableRecord
  2
4-8
 70
    0
 62
7
  6
CONTINUOUS
  0
LAYER
  5
85
100
AcDbSymbolTableRecord
100
AcDbLayerTableRecord
  2
4-9
 70
    0
 62
7
  6
CONTINUOUS
  0
LAYER
  5
86
100
AcDbSymbolTableRecord
100
AcDbLayerTableRecord
  2
4-a
 70
    0
 62
7
  6
CONTINUOUS
  0
LAYER
  5
87
100
AcDbSymbolTableRecord
100
AcDbLayerTableRecord
  2
4-b
 70
    0
 62
7
  6
CONTINUOUS
  0
LAYER
  5
88
100
AcDbSymbolTableRecord
100
AcDbLayerTableRecord
  2
4-c
 70
    0
 62
7
  6
CONTINUOUS
  0
LAYER
  5
89
100
AcDbSymbolTableRecord
100
AcDbLayerTableRecord
  2
4-d
 70
    0
 62
7
  6
CONTINUOUS
  0
LAYER
  5
8A
100
AcDbSymbolTableRecord
100
AcDbLayerTableRecord
  2
4-e
 70
    0
 62
7
  6
CONTINUOUS
  0
LAYER
  5
8B
100
AcDbSymbolTableRecord
100
AcDbLayerTableRecord
  2
4-f
 70
    0
 62
7
  6
CONTINUOUS
  0
LAYER
  5
8C
100
AcDbSymbolTableRecord
100
AcDbLayerTableRecord
  2
5-0
 70
    0
 62
7
  6
CONTINUOUS
  0
LAYER
  5
8D
100
AcDbSymbolTableRecord
100
AcDbLayerTableRecord
  2
5-1
 70
    0
 62
7
  6
CONTINUOUS
  0
LAYER
  5
8E
100
AcDbSymbolTableRecord
100
AcDbLayerTableRecord
  2
5-2
 70
    0
 62
7
  6
CONTINUOUS
  0
LAYER
  5
8F
100
AcDbSymbolTableRecord
100
AcDbLayerTableRecord
  2
5-3
 70
    0
 62
7
  6
CONTINUOUS
  0
LAYER
  5
90
100
AcDbSymbolTableRecord
100
AcDbLayerTableRecord
  2
5-4
 70
    0
 62
7
  6
CONTINUOUS
  0
LAYER
  5
91
100
AcDbSymbolTableRecord
100
AcDbLayerTableRecord
  2
5-5
 70
    0
 62
7
  6
CONTINUOUS
  0
LAYER
  5
92
100
AcDbSymbolTableRecord
100
AcDbLayerTableRecord
  2
5-6
 70
    0
 62
7
  6
CONTINUOUS
  0
LAYER
  5
93
100
AcDbSymbolTableRecord
100
AcDbLayerTableRecord
  2
5-7
 70
    0
 62
7
  6
CONTINUOUS
  0
LAYER
  5
94
100
AcDbSymbolTableRecord
100
AcDbLayerTableRecord
  2
5-8
 70
    0
 62
7
  6
CONTINUOUS
  0
LAYER
  5
95
100
AcDbSymbolTableRecord
100
AcDbLayerTableRecord
  2
5-9
 70
    0
 62
7
  6
CONTINUOUS
  0
LAYER
  5
96
100
AcDbSymbolTableRecord
100
AcDbLayerTableRecord
  2
5-a
 70
    0
 62
7
  6
CONTINUOUS
  0
LAYER
  5
97
100
AcDbSymbolTableRecord
100
AcDbLayerTableRecord
  2
5-b
 70
    0
 62
7
  6
CONTINUOUS
  0
LAYER
  5
98
100
AcDbSymbolTableRecord
100
AcDbLayerTableRecord
  2
5-c
 70
    0
 62
7
  6
CONTINUOUS
  0
LAYER
  5
99
100
AcDbSymbolTableRecord
100
AcDbLayerTableRecord
  2
5-d
 70
    0
 62
7
  6
CONTINUOUS
  0
LAYER
  5
9A
100
AcDbSymbolTableRecord
100
AcDbLayerTableRecord
  2
5-e
 70
    0
 62
7
  6
CONTINUOUS
  0
LAYER
  5
9B
100
AcDbSymbolTableRecord
100
AcDbLayerTableRecord
  2
5-f
 70
    0
 62
7
  6
CONTINUOUS
  0
LAYER
  5
9C
100
AcDbSymbolTableRecord
100
AcDbLayerTableRecord
  2
6-0
 70
    0
 62
7
  6
CONTINUOUS
  0
LAYER
  5
9D
100
AcDbSymbolTableRecord
100
AcDbLayerTableRecord
  2
6-1
 70
    0
 62
7
  6
CONTINUOUS
  0
LAYER
  5
9E
100
AcDbSymbolTableRecord
100
AcDbLayerTableRecord
  2
6-2
 70
    0
 62
7
  6
CONTINUOUS
  0
LAYER
  5
9F
100
AcDbSymbolTableRecord
100
AcDbLayerTableRecord
  2
6-3
 70
    0
 62
7
  6
CONTINUOUS
  0
LAYER
  5
A0
100
AcDbSymbolTableRecord
100
AcDbLayerTableRecord
  2
6-4
 70
    0
 62
7
  6
CONTINUOUS
  0
LAYER
  5
A1
100
AcDbSymbolTableRecord
100
AcDbLayerTableRecord
  2
6-5
 70
    0
 62
7
  6
CONTINUOUS
  0
LAYER
  5
A2
100
AcDbSymbolTableRecord
100
AcDbLayerTableRecord
  2
6-6
 70
    0
 62
7
  6
CONTINUOUS
  0
LAYER
  5
A3
100
AcDbSymbolTableRecord
100
AcDbLayerTableRecord
  2
6-7
 70
    0
 62
7
  6
CONTINUOUS
  0
LAYER
  5
A4
100
AcDbSymbolTableRecord
100
AcDbLayerTableRecord
  2
6-8
 70
    0
 62
7
  6
CONTINUOUS
  0
LAYER
  5
A5
100
AcDbSymbolTableRecord
100
AcDbLayerTableRecord
  2
6-9
 70
    0
 62
7
  6
CONTINUOUS
  0
LAYER
  5
A6
100
AcDbSymbolTableRecord
100
AcDbLayerTableRecord
  2
6-a
 70
    0
 62
7
  6
CONTINUOUS
  0
LAYER
  5
A7
100
AcDbSymbolTableRecord
100
AcDbLayerTableRecord
  2
6-b
 70
    0
 62
7
  6
CONTINUOUS
  0
LAYER
  5
A8
100
AcDbSymbolTableRecord
100
AcDbLayerTableRecord
  2
6-c
 70
    0
 62
7
  6
CONTINUOUS
  0
LAYER
  5
A9
100
AcDbSymbolTableRecord
100
AcDbLayerTableRecord
  2
6-d
 70
    0
 62
7
  6
CONTINUOUS
  0
LAYER
  5
AA
100
AcDbSymbolTableRecord
100
AcDbLayerTableRecord
  2
6-e
 70
    0
 62
7
  6
CONTINUOUS
  0
LAYER
  5
AB
100
AcDbSymbolTableRecord
100
AcDbLayerTableRecord
  2
6-f
 70
    0
 62
7
  6
CONTINUOUS
  0
LAYER
  5
AC
100
AcDbSymbolTableRecord
100
AcDbLayerTableRecord
  2
7-0
 70
    0
 62
7
  6
CONTINUOUS
  0
LAYER
  5
AD
100
AcDbSymbolTableRecord
100
AcDbLayerTableRecord
  2
7-1
 70
    0
 62
7
  6
CONTINUOUS
  0
LAYER
  5
AE
100
AcDbSymbolTableRecord
100
AcDbLayerTableRecord
  2
7-2
 70
    0
 62
7
  6
CONTINUOUS
  0
LAYER
  5
AF
100
AcDbSymbolTableRecord
100
AcDbLayerTableRecord
  2
7-3
 70
    0
 62
7
  6
CONTINUOUS
  0
LAYER
  5
B0
100
AcDbSymbolTableRecord
100
AcDbLayerTableRecord
  2
7-4
 70
    0
 62
7
  6
CONTINUOUS
  0
LAYER
  5
B1
100
AcDbSymbolTableRecord
100
AcDbLayerTableRecord
  2
7-5
 70
    0
 62
7
  6
CONTINUOUS
  0
LAYER
  5
B2
100
AcDbSymbolTableRecord
100
AcDbLayerTableRecord
  2
7-6
 70
    0
 62
7
  6
CONTINUOUS
  0
LAYER
  5
B3
100
AcDbSymbolTableRecord
100
AcDbLayerTableRecord
  2
7-7
 70
    0
 62
7
  6
CONTINUOUS
  0
LAYER
  5
B4
100
AcDbSymbolTableRecord
100
AcDbLayerTableRecord
  2
7-8
 70
    0
 62
7
  6
CONTINUOUS
  0
LAYER
  5
B5
100
AcDbSymbolTableRecord
100
AcDbLayerTableRecord
  2
7-9
 70
    0
 62
7
  6
CONTINUOUS
  0
LAYER
  5
B6
100
AcDbSymbolTableRecord
100
AcDbLayerTableRecord
  2
7-a
 70
    0
 62
7
  6
CONTINUOUS
  0
LAYER
  5
B7
100
AcDbSymbolTableRecord
100
AcDbLayerTableRecord
  2
7-b
 70
    0
 62
7
  6
CONTINUOUS
  0
LAYER
  5
B8
100
AcDbSymbolTableRecord
100
AcDbLayerTableRecord
  2
7-c
 70
    0
 62
7
  6
CONTINUOUS
  0
LAYER
  5
B9
100
AcDbSymbolTableRecord
100
AcDbLayerTableRecord
  2
7-d
 70
    0
 62
7
  6
CONTINUOUS
  0
LAYER
  5
BA
100
AcDbSymbolTableRecord
100
AcDbLayerTableRecord
  2
7-e
 70
    0
 62
7
  6
CONTINUOUS
  0
LAYER
  5
BB
100
AcDbSymbolTableRecord
100
AcDbLayerTableRecord
  2
7-f
 70
    0
 62
7
  6
CONTINUOUS
  0
LAYER
  5
BC
100
AcDbSymbolTableRecord
100
AcDbLayerTableRecord
  2
8-0
 70
    0
 62
7
  6
CONTINUOUS
  0
LAYER
  5
BD
100
AcDbSymbolTableRecord
100
AcDbLayerTableRecord
  2
8-1
 70
    0
 62
7
  6
CONTINUOUS
  0
LAYER
  5
BE
100
AcDbSymbolTableRecord
100
AcDbLayerTableRecord
  2
8-2
 70
    0
 62
7
  6
CONTINUOUS
  0
LAYER
  5
BF
100
AcDbSymbolTableRecord
100
AcDbLayerTableRecord
  2
8-3
 70
    0
 62
7
  6
CONTINUOUS
  0
LAYER
  5
C0
100
AcDbSymbolTableRecord
100
AcDbLayerTableRecord
  2
8-4
 70
    0
 62
7
  6
CONTINUOUS
  0
LAYER
  5
C1
100
AcDbSymbolTableRecord
100
AcDbLayerTableRecord
  2
8-5
 70
    0
 62
7
  6
CONTINUOUS
  0
LAYER
  5
C2
100
AcDbSymbolTableRecord
100
AcDbLayerTableRecord
  2
8-6
 70
    0
 62
7
  6
CONTINUOUS
  0
LAYER
  5
C3
100
AcDbSymbolTableRecord
100
AcDbLayerTableRecord
  2
8-7
 70
    0
 62
7
  6
CONTINUOUS
  0
LAYER
  5
C4
100
AcDbSymbolTableRecord
100
AcDbLayerTableRecord
  2
8-8
 70
    0
 62
7
  6
CONTINUOUS
  0
LAYER
  5
C5
100
AcDbSymbolTableRecord
100
AcDbLayerTableRecord
  2
8-9
 70
    0
 62
7
  6
CONTINUOUS
  0
LAYER
  5
C6
100
AcDbSymbolTableRecord
100
AcDbLayerTableRecord
  2
8-a
 70
    0
 62
7
  6
CONTINUOUS
  0
LAYER
  5
C7
100
AcDbSymbolTableRecord
100
AcDbLayerTableRecord
  2
8-b
 70
    0
 62
7
  6
CONTINUOUS
  0
LAYER
  5
C8
100
AcDbSymbolTableRecord
100
AcDbLayerTableRecord
  2
8-c
 70
    0
 62
7
  6
CONTINUOUS
  0
LAYER
  5
C9
100
AcDbSymbolTableRecord
100
AcDbLayerTableRecord
  2
8-d
 70
    0
 62
7
  6
CONTINUOUS
  0
LAYER
  5
CA
100
AcDbSymbolTableRecord
100
AcDbLayerTableRecord
  2
8-e
 70
    0
 62
7
  6
CONTINUOUS
  0
LAYER
  5
CB
100
AcDbSymbolTableRecord
100
AcDbLayerTableRecord
  2
8-f
 70
    0
 62
7
  6
CONTINUOUS
  0
LAYER
  5
CC
100
AcDbSymbolTableRecord
100
AcDbLayerTableRecord
  2
9-0
 70
    0
 62
7
  6
CONTINUOUS
  0
LAYER
  5
CD
100
AcDbSymbolTableRecord
100
AcDbLayerTableRecord
  2
9-1
 70
    0
 62
7
  6
CONTINUOUS
  0
LAYER
  5
CE
100
AcDbSymbolTableRecord
100
AcDbLayerTableRecord
  2
9-2
 70
    0
 62
7
  6
CONTINUOUS
  0
LAYER
  5
CF
100
AcDbSymbolTableRecord
100
AcDbLayerTableRecord
  2
9-3
 70
    0
 62
7
  6
CONTINUOUS
  0
LAYER
  5
D0
100
AcDbSymbolTableRecord
100
AcDbLayerTableRecord
  2
9-4
 70
    0
 62
7
  6
CONTINUOUS
  0
LAYER
  5
D1
100
AcDbSymbolTableRecord
100
AcDbLayerTableRecord
  2
9-5
 70
    0
 62
7
  6
CONTINUOUS
  0
LAYER
  5
D2
100
AcDbSymbolTableRecord
100
AcDbLayerTableRecord
  2
9-6
 70
    0
 62
7
  6
CONTINUOUS
  0
LAYER
  5
D3
100
AcDbSymbolTableRecord
100
AcDbLayerTableRecord
  2
9-7
 70
    0
 62
7
  6
CONTINUOUS
  0
LAYER
  5
D4
100
AcDbSymbolTableRecord
100
AcDbLayerTableRecord
  2
9-8
 70
    0
 62
7
  6
CONTINUOUS
  0
LAYER
  5
D5
100
AcDbSymbolTableRecord
100
AcDbLayerTableRecord
  2
9-9
 70
    0
 62
7
  6
CONTINUOUS
  0
LAYER
  5
D6
100
AcDbSymbolTableRecord
100
AcDbLayerTableRecord
  2
9-a
 70
    0
 62
7
  6
CONTINUOUS
  0
LAYER
  5
D7
100
AcDbSymbolTableRecord
100
AcDbLayerTableRecord
  2
9-b
 70
    0
 62
7
  6
CONTINUOUS
  0
LAYER
  5
D8
100
AcDbSymbolTableRecord
100
AcDbLayerTableRecord
  2
9-c
 70
    0
 62
7
  6
CONTINUOUS
  0
LAYER
  5
D9
100
AcDbSymbolTableRecord
100
AcDbLayerTableRecord
  2
9-d
 70
    0
 62
7
  6
CONTINUOUS
  0
LAYER
  5
DA
100
AcDbSymbolTableRecord
100
AcDbLayerTableRecord
  2
9-e
 70
    0
 62
7
  6
CONTINUOUS
  0
LAYER
  5
DB
100
AcDbSymbolTableRecord
100
AcDbLayerTableRecord
  2
9-f
 70
    0
 62
7
  6
CONTINUOUS
  0
LAYER
  5
DC
100
AcDbSymbolTableRecord
100
AcDbLayerTableRecord
  2
a-0
 70
    0
 62
7
  6
CONTINUOUS
  0
LAYER
  5
DD
100
AcDbSymbolTableRecord
100
AcDbLayerTableRecord
  2
a-1
 70
    0
 62
7
  6
CONTINUOUS
  0
LAYER
  5
DE
100
AcDbSymbolTableRecord
100
AcDbLayerTableRecord
  2
a-2
 70
    0
 62
7
  6
CONTINUOUS
  0
LAYER
  5
DF
100
AcDbSymbolTableRecord
100
AcDbLayerTableRecord
  2
a-3
 70
    0
 62
7
  6
CONTINUOUS
  0
LAYER
  5
E0
100
AcDbSymbolTableRecord
100
AcDbLayerTableRecord
  2
a-4
 70
    0
 62
7
  6
CONTINUOUS
  0
LAYER
  5
E1
100
AcDbSymbolTableRecord
100
AcDbLayerTableRecord
  2
a-5
 70
    0
 62
7
  6
CONTINUOUS
  0
LAYER
  5
E2
100
AcDbSymbolTableRecord
100
AcDbLayerTableRecord
  2
a-6
 70
    0
 62
7
  6
CONTINUOUS
  0
LAYER
  5
E3
100
AcDbSymbolTableRecord
100
AcDbLayerTableRecord
  2
a-7
 70
    0
 62
7
  6
CONTINUOUS
  0
LAYER
  5
E4
100
AcDbSymbolTableRecord
100
AcDbLayerTableRecord
  2
a-8
 70
    0
 62
7
  6
CONTINUOUS
  0
LAYER
  5
E5
100
AcDbSymbolTableRecord
100
AcDbLayerTableRecord
  2
a-9
 70
    0
 62
7
  6
CONTINUOUS
  0
LAYER
  5
E6
100
AcDbSymbolTableRecord
100
AcDbLayerTableRecord
  2
a-a
 70
    0
 62
7
  6
CONTINUOUS
  0
LAYER
  5
E7
100
AcDbSymbolTableRecord
100
AcDbLayerTableRecord
  2
a-b
 70
    0
 62
7
  6
CONTINUOUS
  0
LAYER
  5
E8
100
AcDbSymbolTableRecord
100
AcDbLayerTableRecord
  2
a-c
 70
    0
 62
7
  6
CONTINUOUS
  0
LAYER
  5
E9
100
AcDbSymbolTableRecord
100
AcDbLayerTableRecord
  2
a-d
 70
    0
 62
7
  6
CONTINUOUS
  0
LAYER
  5
EA
100
AcDbSymbolTableRecord
100
AcDbLayerTableRecord
  2
a-e
 70
    0
 62
7
  6
CONTINUOUS
  0
LAYER
  5
EB
100
AcDbSymbolTableRecord
100
AcDbLayerTableRecord
  2
a-f
 70
    0
 62
7
  6
CONTINUOUS
  0
LAYER
  5
EC
100
AcDbSymbolTableRecord
100
AcDbLayerTableRecord
  2
b-0
 70
    0
 62
7
  6
CONTINUOUS
  0
LAYER
  5
ED
100
AcDbSymbolTableRecord
100
AcDbLayerTableRecord
  2
b-1
 70
    0
 62
7
  6
CONTINUOUS
  0
LAYER
  5
EE
100
AcDbSymbolTableRecord
100
AcDbLayerTableRecord
  2
b-2
 70
    0
 62
7
  6
CONTINUOUS
  0
LAYER
  5
EF
100
AcDbSymbolTableRecord
100
AcDbLayerTableRecord
  2
b-3
 70
    0
 62
7
  6
CONTINUOUS
  0
LAYER
  5
F0
100
AcDbSymbolTableRecord
100
AcDbLayerTableRecord
  2
b-4
 70
    0
 62
7
  6
CONTINUOUS
  0
LAYER
  5
F1
100
AcDbSymbolTableRecord
100
AcDbLayerTableRecord
  2
b-5
 70
    0
 62
7
  6
CONTINUOUS
  0
LAYER
  5
F2
100
AcDbSymbolTableRecord
100
AcDbLayerTableRecord
  2
b-6
 70
    0
 62
7
  6
CONTINUOUS
  0
LAYER
  5
F3
100
AcDbSymbolTableRecord
100
AcDbLayerTableRecord
  2
b-7
 70
    0
 62
7
  6
CONTINUOUS
  0
LAYER
  5
F4
100
AcDbSymbolTableRecord
100
AcDbLayerTableRecord
  2
b-8
 70
    0
 62
7
  6
CONTINUOUS
  0
LAYER
  5
F5
100
AcDbSymbolTableRecord
100
AcDbLayerTableRecord
  2
b-9
 70
    0
 62
7
  6
CONTINUOUS
  0
LAYER
  5
F6
100
AcDbSymbolTableRecord
100
AcDbLayerTableRecord
  2
b-a
 70
    0
 62
7
  6
CONTINUOUS
  0
LAYER
  5
F7
100
AcDbSymbolTableRecord
100
AcDbLayerTableRecord
  2
b-b
 70
    0
 62
7
  6
CONTINUOUS
  0
LAYER
  5
F8
100
AcDbSymbolTableRecord
100
AcDbLayerTableRecord
  2
b-c
 70
    0
 62
7
  6
CONTINUOUS
  0
LAYER
  5
F9
100
AcDbSymbolTableRecord
100
AcDbLayerTableRecord
  2
b-d
 70
    0
 62
7
  6
CONTINUOUS
  0
LAYER
  5
FA
100
AcDbSymbolTableRecord
100
AcDbLayerTableRecord
  2
b-e
 70
    0
 62
7
  6
CONTINUOUS
  0
LAYER
  5
FB
100
AcDbSymbolTableRecord
100
AcDbLayerTableRecord
  2
b-f
 70
    0
 62
7
  6
CONTINUOUS
  0
LAYER
  5
FC
100
AcDbSymbolTableRecord
100
AcDbLayerTableRecord
  2
c-0
 70
    0
 62
7
  6
CONTINUOUS
  0
LAYER
  5
FD
100
AcDbSymbolTableRecord
100
AcDbLayerTableRecord
  2
c-1
 70
    0
 62
7
  6
CONTINUOUS
  0
LAYER
  5
FE
100
AcDbSymbolTableRecord
100
AcDbLayerTableRecord
  2
c-2
 70
    0
 62
7
  6
CONTINUOUS
  0
LAYER
  5
FF
100
AcDbSymbolTableRecord
100
AcDbLayerTableRecord
  2
c-3
 70
    0
 62
7
  6
CONTINUOUS
  0
LAYER
  5
100
100
AcDbSymbolTableRecord
100
AcDbLayerTableRecord
  2
c-4
 70
    0
 62
7
  6
CONTINUOUS
  0
LAYER
  5
101
100
AcDbSymbolTableRecord
100
AcDbLayerTableRecord
  2
c-5
 70
    0
 62
7
  6
CONTINUOUS
  0
LAYER
  5
102
100
AcDbSymbolTableRecord
100
AcDbLayerTableRecord
  2
c-6
 70
    0
 62
7
  6
CONTINUOUS
  0
LAYER
  5
103
100
AcDbSymbolTableRecord
100
AcDbLayerTableRecord
  2
c-7
 70
    0
 62
7
  6
CONTINUOUS
  0
LAYER
  5
104
100
AcDbSymbolTableRecord
100
AcDbLayerTableRecord
  2
c-8
 70
    0
 62
7
  6
CONTINUOUS
  0
LAYER
  5
105
100
AcDbSymbolTableRecord
100
AcDbLayerTableRecord
  2
c-9
 70
    0
 62
7
  6
CONTINUOUS
  0
LAYER
  5
106
100
AcDbSymbolTableRecord
100
AcDbLayerTableRecord
  2
c-a
 70
    0
 62
7
  6
CONTINUOUS
  0
LAYER
  5
107
100
AcDbSymbolTableRecord
100
AcDbLayerTableRecord
  2
c-b
 70
    0
 62
7
  6
CONTINUOUS
  0
LAYER
  5
108
100
AcDbSymbolTableRecord
100
AcDbLayerTableRecord
  2
c-c
 70
    0
 62
7
  6
CONTINUOUS
  0
LAYER
  5
109
100
AcDbSymbolTableRecord
100
AcDbLayerTableRecord
  2
c-d
 70
    0
 62
7
  6
CONTINUOUS
  0
LAYER
  5
10A
100
AcDbSymbolTableRecord
100
AcDbLayerTableRecord
  2
c-e
 70
    0
 62
7
  6
CONTINUOUS
  0
LAYER
  5
10B
100
AcDbSymbolTableRecord
100
AcDbLayerTableRecord
  2
c-f
 70
    0
 62
7
  6
CONTINUOUS
  0
LAYER
  5
10C
100
AcDbSymbolTableRecord
100
AcDbLayerTableRecord
  2
d-0
 70
    0
 62
7
  6
CONTINUOUS
  0
LAYER
  5
10D
100
AcDbSymbolTableRecord
100
AcDbLayerTableRecord
  2
d-1
 70
    0
 62
7
  6
CONTINUOUS
  0
LAYER
  5
10E
100
AcDbSymbolTableRecord
100
AcDbLayerTableRecord
  2
d-2
 70
    0
 62
7
  6
CONTINUOUS
  0
LAYER
  5
10F
100
AcDbSymbolTableRecord
100
AcDbLayerTableRecord
  2
d-3
 70
    0
 62
7
  6
CONTINUOUS
  0
LAYER
  5
110
100
AcDbSymbolTableRecord
100
AcDbLayerTableRecord
  2
d-4
 70
    0
 62
7
  6
CONTINUOUS
  0
LAYER
  5
111
100
AcDbSymbolTableRecord
100
AcDbLayerTableRecord
  2
d-5
 70
    0
 62
7
  6
CONTINUOUS
  0
LAYER
  5
112
100
AcDbSymbolTableRecord
100
AcDbLayerTableRecord
  2
d-6
 70
    0
 62
7
  6
CONTINUOUS
  0
LAYER
  5
113
100
AcDbSymbolTableRecord
100
AcDbLayerTableRecord
  2
d-7
 70
    0
 62
7
  6
CONTINUOUS
  0
LAYER
  5
114
100
AcDbSymbolTableRecord
100
AcDbLayerTableRecord
  2
d-8
 70
    0
 62
7
  6
CONTINUOUS
  0
LAYER
  5
115
100
AcDbSymbolTableRecord
100
AcDbLayerTableRecord
  2
d-9
 70
    0
 62
7
  6
CONTINUOUS
  0
LAYER
  5
116
100
AcDbSymbolTableRecord
100
AcDbLayerTableRecord
  2
d-a
 70
    0
 62
7
  6
CONTINUOUS
  0
LAYER
  5
117
100
AcDbSymbolTableRecord
100
AcDbLayerTableRecord
  2
d-b
 70
    0
 62
7
  6
CONTINUOUS
  0
LAYER
  5
118
100
AcDbSymbolTableRecord
100
AcDbLayerTableRecord
  2
d-c
 70
    0
 62
7
  6
CONTINUOUS
  0
LAYER
  5
119
100
AcDbSymbolTableRecord
100
AcDbLayerTableRecord
  2
d-d
 70
    0
 62
7
  6
CONTINUOUS
  0
LAYER
  5
11A
100
AcDbSymbolTableRecord
100
AcDbLayerTableRecord
  2
d-e
 70
    0
 62
7
  6
CONTINUOUS
  0
LAYER
  5
11B
100
AcDbSymbolTableRecord
100
AcDbLayerTableRecord
  2
d-f
 70
    0
 62
7
  6
CONTINUOUS
  0
LAYER
  5
11C
100
AcDbSymbolTableRecord
100
AcDbLayerTableRecord
  2
e-0
 70
    0
 62
7
  6
CONTINUOUS
  0
LAYER
  5
11D
100
AcDbSymbolTableRecord
100
AcDbLayerTableRecord
  2
e-1
 70
    0
 62
7
  6
CONTINUOUS
  0
LAYER
  5
11E
100
AcDbSymbolTableRecord
100
AcDbLayerTableRecord
  2
e-2
 70
    0
 62
7
  6
CONTINUOUS
  0
LAYER
  5
11F
100
AcDbSymbolTableRecord
100
AcDbLayerTableRecord
  2
e-3
 70
    0
 62
7
  6
CONTINUOUS
  0
LAYER
  5
120
100
AcDbSymbolTableRecord
100
AcDbLayerTableRecord
  2
e-4
 70
    0
 62
7
  6
CONTINUOUS
  0
LAYER
  5
121
100
AcDbSymbolTableRecord
100
AcDbLayerTableRecord
  2
e-5
 70
    0
 62
7
  6
CONTINUOUS
  0
LAYER
  5
122
100
AcDbSymbolTableRecord
100
AcDbLayerTableRecord
  2
e-6
 70
    0
 62
7
  6
CONTINUOUS
  0
LAYER
  5
123
100
AcDbSymbolTableRecord
100
AcDbLayerTableRecord
  2
e-7
 70
    0
 62
7
  6
CONTINUOUS
  0
LAYER
  5
124
100
AcDbSymbolTableRecord
100
AcDbLayerTableRecord
  2
e-8
 70
    0
 62
7
  6
CONTINUOUS
  0
LAYER
  5
125
100
AcDbSymbolTableRecord
100
AcDbLayerTableRecord
  2
e-9
 70
    0
 62
7
  6
CONTINUOUS
  0
LAYER
  5
126
100
AcDbSymbolTableRecord
100
AcDbLayerTableRecord
  2
e-a
 70
    0
 62
7
  6
CONTINUOUS
  0
LAYER
  5
127
100
AcDbSymbolTableRecord
100
AcDbLayerTableRecord
  2
e-b
 70
    0
 62
7
  6
CONTINUOUS
  0
LAYER
  5
128
100
AcDbSymbolTableRecord
100
AcDbLayerTableRecord
  2
e-c
 70
    0
 62
7
  6
CONTINUOUS
  0
LAYER
  5
129
100
AcDbSymbolTableRecord
100
AcDbLayerTableRecord
  2
e-d
 70
    0
 62
7
  6
CONTINUOUS
  0
LAYER
  5
12A
100
AcDbSymbolTableRecord
100
AcDbLayerTableRecord
  2
e-e
 70
    0
 62
7
  6
CONTINUOUS
  0
LAYER
  5
12B
100
AcDbSymbolTableRecord
100
AcDbLayerTableRecord
  2
e-f
 70
    0
 62
7
  6
CONTINUOUS
  0
LAYER
  5
12C
100
AcDbSymbolTableRecord
100
AcDbLayerTableRecord
  2
f-0
 70
    0
 62
7
  6
CONTINUOUS
  0
LAYER
  5
12D
100
AcDbSymbolTableRecord
100
AcDbLayerTableRecord
  2
f-1
 70
    0
 62
7
  6
CONTINUOUS
  0
LAYER
  5
12E
100
AcDbSymbolTableRecord
100
AcDbLayerTableRecord
  2
f-2
 70
    0
 62
7
  6
CONTINUOUS
  0
LAYER
  5
12F
100
AcDbSymbolTableRecord
100
AcDbLayerTableRecord
  2
f-3
 70
    0
 62
7
  6
CONTINUOUS
  0
LAYER
  5
130
100
AcDbSymbolTableRecord
100
AcDbLayerTableRecord
  2
f-4
 70
    0
 62
7
  6
CONTINUOUS
  0
LAYER
  5
131
100
AcDbSymbolTableRecord
100
AcDbLayerTableRecord
  2
f-5
 70
    0
 62
7
  6
CONTINUOUS
  0
LAYER
  5
132
100
AcDbSymbolTableRecord
100
AcDbLayerTableRecord
  2
f-6
 70
    0
 62
7
  6
CONTINUOUS
  0
LAYER
  5
133
100
AcDbSymbolTableRecord
100
AcDbLayerTableRecord
  2
f-7
 70
    0
 62
7
  6
CONTINUOUS
  0
LAYER
  5
134
100
AcDbSymbolTableRecord
100
AcDbLayerTableRecord
  2
f-8
 70
    0
 62
7
  6
CONTINUOUS
  0
LAYER
  5
135
100
AcDbSymbolTableRecord
100
AcDbLayerTableRecord
  2
f-9
 70
    0
 62
7
  6
CONTINUOUS
  0
LAYER
  5
136
100
AcDbSymbolTableRecord
100
AcDbLayerTableRecord
  2
f-a
 70
    0
 62
7
  6
CONTINUOUS
  0
LAYER
  5
137
100
AcDbSymbolTableRecord
100
AcDbLayerTableRecord
  2
f-b
 70
    0
 62
7
  6
CONTINUOUS
  0
LAYER
  5
138
100
AcDbSymbolTableRecord
100
AcDbLayerTableRecord
  2
f-c
 70
    0
 62
7
  6
CONTINUOUS
  0
LAYER
  5
139
100
AcDbSymbolTableRecord
100
AcDbLayerTableRecord
  2
f-d
 70
    0
 62
7
  6
CONTINUOUS
  0
LAYER
  5
13A
100
AcDbSymbolTableRecord
100
AcDbLayerTableRecord
  2
f-e
 70
    0
 62
7
  6
CONTINUOUS
  0
LAYER
  5
13B
100
AcDbSymbolTableRecord
100
AcDbLayerTableRecord
  2
f-f
 70
    0
 62
7
  6
CONTINUOUS
  0
LAYER
  5
13C
100
AcDbSymbolTableRecord
100
AcDbLayerTableRecord
  2
0
 70
   64
 62
    7
  6
CONTINUOUS
  0
ENDTAB
  0
TABLE
  2
STYLE
  5
4
100
AcDbSymbolTable
 70
     1
  0
STYLE
  5
13D
100
AcDbSymbolTableRecord
100
AcDbTextStyleTableRecord
  2
Standard
 70
     0
 40
0.0
 41
1.0
 50
0.0
 71
     0
 42
3.2
  3
TXT
  4
BIGFONT
  0
STYLE
  5
13E
100
AcDbSymbolTableRecord
100
AcDbTextStyleTableRecord
  2
Font_0
 70
     0
 40
0.0
 41
1.0
 50
0.0
 71
     0
 42
3.2
  3
MS Gothic.ttf
  4

1001
ACAD
1000
MS Gothic
1071
  32817
  0
ENDTAB
  0
TABLE
  2
VIEW
  5
5
100
AcDbSymbolTable
 70
     0
  0
ENDTAB
  0
TABLE
  2
UCS
  5
6
100
AcDbSymbolTable
 70
     0
  0
ENDTAB
  0
TABLE
  2
APPID
  5
7
100
AcDbSymbolTable
 70
     1
  0
APPID
  5
13F
100
AcDbSymbolTableRecord
100
AcDbRegAppTableRecord
  2
ACAD
 70
     0
  0
ENDTAB
  0
TABLE
  2
DIMSTYLE
  5
8
100
AcDbSymbolTable
 70
     1
  0
DIMSTYLE
105
2A
100
AcDbSymbolTableRecord
100
AcDbDimStyleTableRecord
  2
STANDARD
 70
     0
  3

  4

  5

  6

  7

 40
1.0
 41
2.5
 42
2.0
 43
7.0
 44
1.25
 45
0.0
 46
0.0
 47
0.0
 48
0.0
 71
     0
 72
     0
 73
     0
 74
     0
 75
     0
 76
     0
 77
     1
 78
     0
140
2.5
141
2.5
142
0.0
143
0.0394
144
1.0
145
0.0
146
1.0
147
1.0
170
     0
171
     2
172
     0
173
     0
174
     1
175
     0
176
     0
177
     0
178
     0
270
     2
271
     2
272
     4
273
     2
274
     2
275
     0
280
     0
281
     0
282
     0
283
     1
284
     0
285
     0
286
     0
287
     3
288
     0
  0
ENDTAB
  0
TABLE
  2
BLOCK_RECORD
  5
9
100
AcDbSymbolTable
 70
     0
  0
BLOCK_RECORD
  5
140
100
AcDbSymbolTableRecord
100
AcDbBlockTableRecord
  2
*MODEL_SPACE
  0
BLOCK_RECORD
  5
141
100
AcDbSymbolTableRecord
100
AcDbBlockTableRecord
  2
*PAPER_SPACE
  0
BLOCK_RECORD
  5
142
100
AcDbSymbolTableRecord
100
AcDbBlockTableRecord
  2
KCAD_OPEN
  0
BLOCK_RECORD
  5
143
100
AcDbSymbolTableRecord
100
AcDbBlockTableRecord
  2
KCAD_DOTSMALL
  0
BLOCK_RECORD
  5
144
100
AcDbSymbolTableRecord
100
AcDbBlockTableRecord
  2
KCAD_NONE
  0
BLOCK_RECORD
  5
145
100
AcDbSymbolTableRecord
100
AcDbBlockTableRecord
  2
_CLOSED
  0
BLOCK_RECORD
  5
146
100
AcDbSymbolTableRecord
100
AcDbBlockTableRecord
  2
_DOT
  0
BLOCK_RECORD
  5
147
100
AcDbSymbolTableRecord
100
AcDbBlockTableRecord
  2
_CLOSEDBLANK
  0
BLOCK_RECORD
  5
148
100
AcDbSymbolTableRecord
100
AcDbBlockTableRecord
  2
_OBLIQUE
  0
BLOCK_RECORD
  5
149
100
AcDbSymbolTableRecord
100
AcDbBlockTableRecord
  2
_ARCHTICK
  0
BLOCK_RECORD
  5
14A
100
AcDbSymbolTableRecord
100
AcDbBlockTableRecord
  2
_OPEN
  0
BLOCK_RECORD
  5
14B
100
AcDbSymbolTableRecord
100
AcDbBlockTableRecord
  2
_ORIGIN
  0
BLOCK_RECORD
  5
14C
100
AcDbSymbolTableRecord
100
AcDbBlockTableRecord
  2
_OPEN90
  0
BLOCK_RECORD
  5
14D
100
AcDbSymbolTableRecord
100
AcDbBlockTableRecord
  2
_OPEN30
  0
BLOCK_RECORD
  5
14E
100
AcDbSymbolTableRecord
100
AcDbBlockTableRecord
  2
_DOTBLANK
  0
BLOCK_RECORD
  5
14F
100
AcDbSymbolTableRecord
100
AcDbBlockTableRecord
  2
_DOTSMALL
  0
BLOCK_RECORD
  5
150
100
AcDbSymbolTableRecord
100
AcDbBlockTableRecord
  2
_BOXFILLED
  0
BLOCK_RECORD
  5
151
100
AcDbSymbolTableRecord
100
AcDbBlockTableRecord
  2
_BOXBLANK
  0
BLOCK_RECORD
  5
152
100
AcDbSymbolTableRecord
100
AcDbBlockTableRecord
  2
_DATUMFILLED
  0
BLOCK_RECORD
  5
153
100
AcDbSymbolTableRecord
100
AcDbBlockTableRecord
  2
_DATUMBLANK
  0
BLOCK_RECORD
  5
154
100
AcDbSymbolTableRecord
100
AcDbBlockTableRecord
  2
_INTEGRAL
  0
BLOCK_RECORD
  5
155
100
AcDbSymbolTableRecord
100
AcDbBlockTableRecord
  2
_ORIGIN2
  0
BLOCK_RECORD
  5
156
100
AcDbSymbolTableRecord
100
AcDbBlockTableRecord
  2
KCAD_OPEN30
  0
BLOCK_RECORD
  5
157
100
AcDbSymbolTableRecord
100
AcDbBlockTableRecord
  2
_SMALL
  0
BLOCK_RECORD
  5
158
100
AcDbSymbolTableRecord
100
AcDbBlockTableRecord
  2
KCAD_OPEN_2
  0
BLOCK_RECORD
  5
159
100
AcDbSymbolTableRecord
100
AcDbBlockTableRecord
  2
KCAD_OPEN30_2
  0
BLOCK_RECORD
  5
15A
100
AcDbSymbolTableRecord
100
AcDbBlockTableRecord
  2
KCAD_OPEN30ANG
  0
BLOCK_RECORD
  5
15B
100
AcDbSymbolTableRecord
100
AcDbBlockTableRecord
  2
KCAD_DOTANG
  0
ENDTAB
  0
ENDSEC
  0
SECTION
  2
BLOCKS
  0
BLOCK
  5
15D
100
AcDbEntity
  8
0
100
AcDbBlockBegin
2
*MODEL_SPACE
 70
     0
 10
0.0
 20
0.0
 30
0.0
  3
*MODEL_SPACE
  1

  0
ENDBLK
  5
15E
100
AcDbEntity
  8
0-0
100
AcDbBlockEnd
  0
BLOCK
  5
15F
100
AcDbEntity
 67
     1
  8
0-0
100
AcDbBlockBegin
  2
*PAPER_SPACE
 70
     0
 10
0.0
 20
0.0
 30
0.0
  3
*PAPER_SPACE
  1

  0
ENDBLK
  5
160
100
AcDbEntity
 67
     1
  8
0-0
100
AcDbBlockEnd
  0
BLOCK
  5
161
100
AcDbEntity
  8
0-0
100
AcDbBlockBegin
  2
KCAD_OPEN
 70
    0
 10
0
 20
0
 30
0.0
  3
KCAD_OPEN
  1

  0
LINE
  5
162
100
AcDbEntity
  8
0-0
100
AcDbLine
  6
CONTINUOUS
370
  -2
 10
0
 20
0
 11
-1
 21
0
  0
LINE
  5
163
100
AcDbEntity
  8
0-0
100
AcDbLine
  6
CONTINUOUS
370
  -2
 10
0
 20
0
 11
-1
 21
0.158384
  0
LINE
  5
164
100
AcDbEntity
  8
0-0
100
AcDbLine
  6
CONTINUOUS
370
  -2
 10
0
 20
0
 11
-1
 21
-0.158384
  0
ENDBLK
  5
165
100
AcDbEntity
  8
0-0
 67
     1
100
AcDbBlockEnd
  0
BLOCK
  5
166
100
AcDbEntity
  8
0-0
100
AcDbBlockBegin
  2
KCAD_DOTSMALL
 70
    0
 10
0
 20
0
 30
0.0
  3
KCAD_DOTSMALL
  1

  0
ARC
  5
167
100
AcDbEntity
  8
0-1
100
AcDbCircle
  6
BYLAYER
370
50
 10
-4.99999999999945E-5
 20
7.66236195586662E-18
 40
0.06257
100
AcDbArc
 50
0
 51
180
  0
ARC
  5
168
100
AcDbEntity
  8
0-1
100
AcDbCircle
  6
BYLAYER
370
50
 10
-4.99999999999945E-5
 20
7.66914580885986E-18
 40
0.06257
100
AcDbArc
 50
-180
 51
0
  0
LINE
  5
169
100
AcDbEntity
  8
0-0
100
AcDbLine
  6
CONTINUOUS
370
  -2
 10
0
 20
0
 11
-1
 21
0
  0
ENDBLK
  5
16A
100
AcDbEntity
  8
0-0
 67
     1
100
AcDbBlockEnd
  0
BLOCK
  5
16B
100
AcDbEntity
  8
0-0
100
AcDbBlockBegin
  2
KCAD_NONE
 70
    0
 10
0
 20
0
 30
0.0
  3
KCAD_NONE
  1

  0
LINE
  5
16C
100
AcDbEntity
  8
0-0
100
AcDbLine
  6
CONTINUOUS
370
  -2
 10
0
 20
0
 11
-1
 21
0
  0
ENDBLK
  5
16D
100
AcDbEntity
  8
0-0
 67
     1
100
AcDbBlockEnd
  0
BLOCK
  5
16E
100
AcDbEntity
  8
0-0
100
AcDbBlockBegin
  2
_CLOSED
 70
    0
 10
0
 20
0
 30
0.0
  3
_CLOSED
  1

  0
LINE
  5
16F
100
AcDbEntity
  8
0-0
100
AcDbLine
  6
CONTINUOUS
370
  -2
 10
-1
 20
0.166667
 11
0
 21
0
  0
LINE
  5
170
100
AcDbEntity
  8
0-0
100
AcDbLine
  6
CONTINUOUS
370
  -2
 10
0
 20
0
 11
-1
 21
-0.166667
  0
LINE
  5
171
100
AcDbEntity
  8
0-0
100
AcDbLine
  6
CONTINUOUS
370
  -2
 10
-1
 20
0.166667
 11
-1
 21
-0.166667
  0
LINE
  5
172
100
AcDbEntity
  8
0-0
100
AcDbLine
  6
CONTINUOUS
370
  -2
 10
0
 20
0
 11
-1
 21
0
  0
ENDBLK
  5
173
100
AcDbEntity
  8
0-0
 67
     1
100
AcDbBlockEnd
  0
BLOCK
  5
174
100
AcDbEntity
  8
0-0
100
AcDbBlockBegin
  2
_DOT
 70
    0
 10
0
 20
0
 30
0.0
  3
_DOT
  1

  0
ARC
  5
175
100
AcDbEntity
  8
0-0
100
AcDbCircle
  6
BYBLOCK
370
50
 10
0
 20
3.06287113727155E-17
 40
0.25
100
AcDbArc
 50
-180
 51
0
  0
ARC
  5
176
100
AcDbEntity
  8
0-0
100
AcDbCircle
  6
BYBLOCK
370
50
 10
0
 20
6.12303176911189E-17
 40
0.25
100
AcDbArc
 50
0
 51
180
  0
LINE
  5
177
100
AcDbEntity
  8
0-0
100
AcDbLine
  6
CONTINUOUS
370
  -2
 10
-0.5
 20
0
 11
-1
 21
0
  0
ENDBLK
  5
178
100
AcDbEntity
  8
0-0
 67
     1
100
AcDbBlockEnd
  0
BLOCK
  5
179
100
AcDbEntity
  8
0-0
100
AcDbBlockBegin
  2
_CLOSEDBLANK
 70
    0
 10
0
 20
0
 30
0.0
  3
_CLOSEDBLANK
  1

  0
LINE
  5
17A
100
AcDbEntity
  8
0-0
100
AcDbLine
  6
CONTINUOUS
370
  -2
 10
-1
 20
0.166667
 11
0
 21
0
  0
LINE
  5
17B
100
AcDbEntity
  8
0-0
100
AcDbLine
  6
CONTINUOUS
370
  -2
 10
0
 20
0
 11
-1
 21
-0.166667
  0
LINE
  5
17C
100
AcDbEntity
  8
0-0
100
AcDbLine
  6
CONTINUOUS
370
  -2
 10
-1
 20
0.166667
 11
-1
 21
-0.166667
  0
ENDBLK
  5
17D
100
AcDbEntity
  8
0-0
 67
     1
100
AcDbBlockEnd
  0
BLOCK
  5
17E
100
AcDbEntity
  8
0-0
100
AcDbBlockBegin
  2
_OBLIQUE
 70
    0
 10
0
 20
0
 30
0.0
  3
_OBLIQUE
  1

  0
LINE
  5
17F
100
AcDbEntity
  8
0-0
100
AcDbLine
  6
CONTINUOUS
370
  -2
 10
-0.5
 20
-0.5
 11
0.5
 21
0.5
  0
ENDBLK
  5
180
100
AcDbEntity
  8
0-0
 67
     1
100
AcDbBlockEnd
  0
BLOCK
  5
181
100
AcDbEntity
  8
0-0
100
AcDbBlockBegin
  2
_ARCHTICK
 70
    0
 10
0
 20
0
 30
0.0
  3
_ARCHTICK
  1

  0
LWPOLYLINE
  5
182
100
AcDbEntity
  8
0-0
100
AcDbPolyline
  6
BYBLOCK
370
15
 90
     2
 10
-0.5
  20
-0.5
 10
0.5
  20
0.5
  0
ENDBLK
  5
183
100
AcDbEntity
  8
0-0
 67
     1
100
AcDbBlockEnd
  0
BLOCK
  5
184
100
AcDbEntity
  8
0-0
100
AcDbBlockBegin
  2
_OPEN
 70
    0
 10
0
 20
0
 30
0.0
  3
_OPEN
  1

  0
LINE
  5
185
100
AcDbEntity
  8
0-0
100
AcDbLine
  6
CONTINUOUS
370
  -2
 10
-1
 20
0.166667
 11
0
 21
0
  0
LINE
  5
186
100
AcDbEntity
  8
0-0
100
AcDbLine
  6
CONTINUOUS
370
  -2
 10
0
 20
0
 11
-1
 21
-0.166667
  0
LINE
  5
187
100
AcDbEntity
  8
0-0
100
AcDbLine
  6
CONTINUOUS
370
  -2
 10
0
 20
0
 11
-1
 21
0
  0
ENDBLK
  5
188
100
AcDbEntity
  8
0-0
 67
     1
100
AcDbBlockEnd
  0
BLOCK
  5
189
100
AcDbEntity
  8
0-0
100
AcDbBlockBegin
  2
_ORIGIN
 70
    0
 10
0
 20
0
 30
0.0
  3
_ORIGIN
  1

  0
CIRCLE
  5
18A
100
AcDbEntity
  8
0-0
100
AcDbCircle
  6
BYBLOCK
 10
0
 20
0
 40
0.5
  0
LINE
  5
18B
100
AcDbEntity
  8
0-0
100
AcDbLine
  6
CONTINUOUS
370
  -2
 10
0
 20
0
 11
-1
 21
0
  0
ENDBLK
  5
18C
100
AcDbEntity
  8
0-0
 67
     1
100
AcDbBlockEnd
  0
BLOCK
  5
18D
100
AcDbEntity
  8
0-0
100
AcDbBlockBegin
  2
_OPEN90
 70
    0
 10
0
 20
0
 30
0.0
  3
_OPEN90
  1

  0
LINE
  5
18E
100
AcDbEntity
  8
0-0
100
AcDbLine
  6
CONTINUOUS
370
  -2
 10
-0.5
 20
0.5
 11
0
 21
0
  0
LINE
  5
18F
100
AcDbEntity
  8
0-0
100
AcDbLine
  6
CONTINUOUS
370
  -2
 10
0
 20
0
 11
-0.5
 21
-0.5
  0
LINE
  5
190
100
AcDbEntity
  8
0-0
100
AcDbLine
  6
CONTINUOUS
370
  -2
 10
0
 20
0
 11
-1
 21
0
  0
ENDBLK
  5
191
100
AcDbEntity
  8
0-0
 67
     1
100
AcDbBlockEnd
  0
BLOCK
  5
192
100
AcDbEntity
  8
0-0
100
AcDbBlockBegin
  2
_OPEN30
 70
    0
 10
0
 20
0
 30
0.0
  3
_OPEN30
  1

  0
LINE
  5
193
100
AcDbEntity
  8
0-0
100
AcDbLine
  6
CONTINUOUS
370
  -2
 10
-1
 20
0.267949
 11
0
 21
0
  0
LINE
  5
194
100
AcDbEntity
  8
0-0
100
AcDbLine
  6
CONTINUOUS
370
  -2
 10
0
 20
0
 11
-1
 21
-0.267949
  0
LINE
  5
195
100
AcDbEntity
  8
0-0
100
AcDbLine
  6
CONTINUOUS
370
  -2
 10
0
 20
0
 11
-1
 21
0
  0
ENDBLK
  5
196
100
AcDbEntity
  8
0-0
 67
     1
100
AcDbBlockEnd
  0
BLOCK
  5
197
100
AcDbEntity
  8
0-0
100
AcDbBlockBegin
  2
_DOTBLANK
 70
    0
 10
0
 20
0
 30
0.0
  3
_DOTBLANK
  1

  0
CIRCLE
  5
198
100
AcDbEntity
  8
0-0
100
AcDbCircle
  6
BYBLOCK
 10
0
 20
0
 40
0.5
  0
LINE
  5
199
100
AcDbEntity
  8
0-0
100
AcDbLine
  6
CONTINUOUS
370
  -2
 10
-0.5
 20
0
 11
-1
 21
0
  0
ENDBLK
  5
19A
100
AcDbEntity
  8
0-0
 67
     1
100
AcDbBlockEnd
  0
BLOCK
  5
19B
100
AcDbEntity
  8
0-0
100
AcDbBlockBegin
  2
_DOTSMALL
 70
    0
 10
0
 20
0
 30
0.0
  3
_DOTSMALL
  1

  0
ARC
  5
19C
100
AcDbEntity
  8
0-0
100
AcDbCircle
  6
BYBLOCK
370
50
 10
0
 20
7.65717784317887E-18
 40
0.0625
100
AcDbArc
 50
-180
 51
0
  0
ARC
  5
19D
100
AcDbEntity
  8
0-0
100
AcDbCircle
  6
BYBLOCK
370
50
 10
0
 20
1.53075794227797E-17
 40
0.0625
100
AcDbArc
 50
0
 51
180
  0
ENDBLK
  5
19E
100
AcDbEntity
  8
0-0
 67
     1
100
AcDbBlockEnd
  0
BLOCK
  5
19F
100
AcDbEntity
  8
0-0
100
AcDbBlockBegin
  2
_BOXFILLED
 70
    0
 10
0
 20
0
 30
0.0
  3
_BOXFILLED
  1

  0
SOLID
  5
1A0
100
AcDbEntity
  8
0-0
100
AcDbTrace
 10
-0.5
 20
0.5
 30
0.0
 11
0.5
 21
0.5
 31
0.0
 12
-0.5
 22
-0.5
 32
0.0
 13
0.5
 23
-0.5
 33
0.0
  0
LINE
  5
1A1
100
AcDbEntity
  8
0-0
100
AcDbLine
  6
CONTINUOUS
370
  -2
 10
-0.5
 20
0
 11
-1
 21
0
  0
ENDBLK
  5
1A2
100
AcDbEntity
  8
0-0
 67
     1
100
AcDbBlockEnd
  0
BLOCK
  5
1A3
100
AcDbEntity
  8
0-0
100
AcDbBlockBegin
  2
_BOXBLANK
 70
    0
 10
0
 20
0
 30
0.0
  3
_BOXBLANK
  1

  0
LINE
  5
1A4
100
AcDbEntity
  8
0-0
100
AcDbLine
  6
CONTINUOUS
370
  -2
 10
-0.5
 20
-0.5
 11
0.5
 21
-0.5
  0
LINE
  5
1A5
100
AcDbEntity
  8
0-0
100
AcDbLine
  6
CONTINUOUS
370
  -2
 10
0.5
 20
-0.5
 11
0.5
 21
0.5
  0
LINE
  5
1A6
100
AcDbEntity
  8
0-0
100
AcDbLine
  6
CONTINUOUS
370
  -2
 10
0.5
 20
0.5
 11
-0.5
 21
0.5
  0
LINE
  5
1A7
100
AcDbEntity
  8
0-0
100
AcDbLine
  6
CONTINUOUS
370
  -2
 10
-0.5
 20
0.5
 11
-0.5
 21
-0.5
  0
LINE
  5
1A8
100
AcDbEntity
  8
0-0
100
AcDbLine
  6
CONTINUOUS
370
  -2
 10
-0.5
 20
0
 11
-1
 21
0
  0
ENDBLK
  5
1A9
100
AcDbEntity
  8
0-0
 67
     1
100
AcDbBlockEnd
  0
BLOCK
  5
1AA
100
AcDbEntity
  8
0-0
100
AcDbBlockBegin
  2
_DATUMFILLED
 70
    0
 10
0
 20
0
 30
0.0
  3
_DATUMFILLED
  1

  0
SOLID
  5
1AB
100
AcDbEntity
  8
0-0
100
AcDbTrace
 10
0
 20
0.57735
 30
0.0
 11
-1
 21
0
 31
0.0
 12
0
 22
-0.57735
 32
0.0
 13
0
 23
-0.57735
 33
0.0
  0
ENDBLK
  5
1AC
100
AcDbEntity
  8
0-0
 67
     1
100
AcDbBlockEnd
  0
BLOCK
  5
1AD
100
AcDbEntity
  8
0-0
100
AcDbBlockBegin
  2
_DATUMBLANK
 70
    0
 10
0
 20
0
 30
0.0
  3
_DATUMBLANK
  1

  0
LINE
  5
1AE
100
AcDbEntity
  8
0-0
100
AcDbLine
  6
CONTINUOUS
370
  -2
 10
0
 20
0.57735
 11
-1
 21
0
  0
LINE
  5
1AF
100
AcDbEntity
  8
0-0
100
AcDbLine
  6
CONTINUOUS
370
  -2
 10
-1
 20
0
 11
0
 21
-0.57735
  0
LINE
  5
1B0
100
AcDbEntity
  8
0-0
100
AcDbLine
  6
CONTINUOUS
370
  -2
 10
0
 20
-0.57735
 11
0
 21
0.57735
  0
ENDBLK
  5
1B1
100
AcDbEntity
  8
0-0
 67
     1
100
AcDbBlockEnd
  0
BLOCK
  5
1B2
100
AcDbEntity
  8
0-0
100
AcDbBlockBegin
  2
_INTEGRAL
 70
    0
 10
0
 20
0
 30
0.0
  3
_INTEGRAL
  1

  0
ARC
  5
1B3
100
AcDbEntity
  8
0-0
100
AcDbCircle
  6
BYBLOCK
 10
0.444888
 20
-0.091335
 40
0.454167
100
AcDbArc
 50
102
 51
168
  0
ARC
  5
1B4
100
AcDbEntity
  8
0-0
100
AcDbCircle
  6
BYBLOCK
 10
-0.444888
 20
0.091335
 40
0.454167
100
AcDbArc
 50
282
 51
348
  0
ENDBLK
  5
1B5
100
AcDbEntity
  8
0-0
 67
     1
100
AcDbBlockEnd
  0
BLOCK
  5
1B6
100
AcDbEntity
  8
0-0
100
AcDbBlockBegin
  2
_ORIGIN2
 70
    0
 10
0
 20
0
 30
0.0
  3
_ORIGIN2
  1

  0
CIRCLE
  5
1B7
100
AcDbEntity
  8
0-0
100
AcDbCircle
  6
CONTINUOUS
370
  -2
 10
0
 20
0
 40
0.5
  0
CIRCLE
  5
1B8
100
AcDbEntity
  8
0-0
100
AcDbCircle
  6
CONTINUOUS
370
  -2
 10
0
 20
0
 40
0.25
  0
LINE
  5
1B9
100
AcDbEntity
  8
0-0
100
AcDbLine
  6
CONTINUOUS
370
  -2
 10
-0.5
 20
0
 11
-1
 21
0
  0
ENDBLK
  5
1BA
100
AcDbEntity
  8
0-0
 67
     1
100
AcDbBlockEnd
  0
BLOCK
  5
1BB
100
AcDbEntity
  8
0-0
100
AcDbBlockBegin
  2
KCAD_OPEN30
 70
    0
 10
0
 20
0
 30
0.0
  3
KCAD_OPEN30
  1

  0
LINE
  5
1BC
100
AcDbEntity
  8
0-0
100
AcDbLine
  6
CONTINUOUS
370
  -2
 10
0
 20
0
 11
-1
 21
0
  0
LINE
  5
1BD
100
AcDbEntity
  8
0-0
100
AcDbLine
  6
CONTINUOUS
370
  -2
 10
0
 20
0
 11
-1
 21
0.267949192431123
  0
LINE
  5
1BE
100
AcDbEntity
  8
0-0
100
AcDbLine
  6
CONTINUOUS
370
  -2
 10
0
 20
0
 11
-1
 21
-0.267949192431123
  0
ENDBLK
  5
1BF
100
AcDbEntity
  8
0-0
 67
     1
100
AcDbBlockEnd
  0
BLOCK
  5
1C0
100
AcDbEntity
  8
0-0
100
AcDbBlockBegin
  2
_SMALL
 70
    0
 10
0
 20
0
 30
0.0
  3
_SMALL
  1

  0
CIRCLE
  5
1C1
100
AcDbEntity
  8
0-0
100
AcDbCircle
  6
BYBLOCK
370
  -2
 10
0
 20
0
 40
0.25
  0
ENDBLK
  5
1C2
100
AcDbEntity
  8
0-0
 67
     1
100
AcDbBlockEnd
  0
BLOCK
  5
1C3
100
AcDbEntity
  8
0-0
100
AcDbBlockBegin
  2
KCAD_OPEN_2
 70
    0
 10
0
 20
0
 30
0.0
  3
KCAD_OPEN_2
  1

  0
LINE
  5
1C4
100
AcDbEntity
  8
0-0
100
AcDbLine
  6
CONTINUOUS
370
  -2
 10
0
 20
0
 11
-2
 21
0
  0
LINE
  5
1C5
100
AcDbEntity
  8
0-0
100
AcDbLine
  6
CONTINUOUS
370
  -2
 10
0
 20
0
 11
-2
 21
0.316768880649073
  0
LINE
  5
1C6
100
AcDbEntity
  8
0-0
100
AcDbLine
  6
CONTINUOUS
370
  -2
 10
0
 20
0
 11
-2
 21
-0.316768880649073
  0
LINE
  5
1C7
100
AcDbEntity
  8
0-0
100
AcDbLine
  6
CONTINUOUS
370
  -2
 10
-2
 20
0
 11
-4
 21
0
  0
ENDBLK
  5
1C8
100
AcDbEntity
  8
0-0
 67
     1
100
AcDbBlockEnd
  0
BLOCK
  5
1C9
100
AcDbEntity
  8
0-0
100
AcDbBlockBegin
  2
KCAD_OPEN30_2
 70
    0
 10
0
 20
0
 30
0.0
  3
KCAD_OPEN30_2
  1

  0
LINE
  5
1CA
100
AcDbEntity
  8
0-0
100
AcDbLine
  6
CONTINUOUS
370
  -2
 10
0
 20
0
 11
-2
 21
0
  0
LINE
  5
1CB
100
AcDbEntity
  8
0-0
100
AcDbLine
  6
CONTINUOUS
370
  -2
 10
0
 20
0
 11
-2
 21
0.535898384862246
  0
LINE
  5
1CC
100
AcDbEntity
  8
0-0
100
AcDbLine
  6
CONTINUOUS
370
  -2
 10
0
 20
0
 11
-2
 21
-0.535898384862246
  0
LINE
  5
1CD
100
AcDbEntity
  8
0-0
100
AcDbLine
  6
CONTINUOUS
370
  -2
 10
-2
 20
0
 11
-4
 21
0
  0
ENDBLK
  5
1CE
100
AcDbEntity
  8
0-0
 67
     1
100
AcDbBlockEnd
  0
BLOCK
  5
1CF
100
AcDbEntity
  8
0-0
100
AcDbBlockBegin
  2
KCAD_OPEN30ANG
 70
    0
 10
0
 20
0
 30
0.0
  3
KCAD_OPEN30ANG
  1

  0
LINE
  5
1D0
100
AcDbEntity
  8
0-0
100
AcDbLine
  6
CONTINUOUS
370
  -2
 10
0
 20
0
 11
-1
 21
-0.267949
  0
LINE
  5
1D1
100
AcDbEntity
  8
0-0
100
AcDbLine
  6
CONTINUOUS
370
  -2
 10
-1
 20
0.267949
 11
0
 21
0
  0
ENDBLK
  5
1D2
100
AcDbEntity
  8
0-0
 67
     1
100
AcDbBlockEnd
  0
BLOCK
  5
1D3
100
AcDbEntity
  8
0-0
100
AcDbBlockBegin
  2
KCAD_DOTANG
 70
    0
 10
0
 20
0
 30
0.0
  3
KCAD_DOTANG
  1

  0
ARC
  5
1D4
100
AcDbEntity
  8
0-0
100
AcDbCircle
  6
BYBLOCK
370
50
 10
0
 20
3.06287113727155E-17
 40
0.25
100
AcDbArc
 50
-180
 51
0
  0
ARC
  5
1D5
100
AcDbEntity
  8
0-0
100
AcDbCircle
  6
BYBLOCK
370
50
 10
0
 20
6.12303176911189E-17
 40
0.25
100
AcDbArc
 50
0
 51
180
  0
ENDBLK
  5
1D6
100
AcDbEntity
  8
0-0
 67
     1
100
AcDbBlockEnd
  0
ENDSEC
  0
SECTION
  2
ENTITIES
  0
LINE
  5
1D7
100
AcDbEntity
  8
0-c
100
AcDbLine
  6
CONTINUOUS
370
30
 10
798.5
 20
566
 11
48.5
 21
566
  0
LINE
  5
1D8
100
AcDbEntity
  8
0-c
100
AcDbLine
  6
CONTINUOUS
370
30
 10
798.5
 20
566
 11
798.5
 21
38
  0
LINE
  5
1D9
100
AcDbEntity
  8
0-c
100
AcDbLine
  6
CONTINUOUS
370
15
 10
44.5
 20
302
 11
48.5
 21
302
  0
LINE
  5
1DA
100
AcDbEntity
  8
0-c
100
AcDbLine
  6
CONTINUOUS
370
30
 10
798.5
 20
38
 11
48.5
 21
38
  0
LINE
  5
1DB
100
AcDbEntity
  8
0-d
100
AcDbLine
  6
CONTINUOUS
370
15
 10
423.5
 20
38
 11
423.5
 21
33.18908748824
  0
LINE
  5
1DC
100
AcDbEntity
  8
0-c
100
AcDbLine
  6
CONTINUOUS
370
15
 10
802.5
 20
302
 11
798.5
 21
302
  0
LINE
  5
1DD
100
AcDbEntity
  8
0-d
100
AcDbLine
  6
CONTINUOUS
370
15
 10
423.5
 20
566
 11
423.5
 21
570.81091251176
  0
LINE
  5
1DE
100
AcDbEntity
  8
0-c
100
AcDbLine
  6
CONTINUOUS
370
30
 10
48.5
 20
566
 11
48.5
 21
38
  0
LINE
  5
1DF
100
AcDbEntity
  8
0-c
100
AcDbLine
  6
CONTINUOUS
370
30
 10
475.5
 20
38
 11
798.5
 21
38
  0
LINE
  5
1E0
100
AcDbEntity
  8
0-d
100
AcDbLine
  6
CONTINUOUS
370
30
 10
720.08984007526
 20
89.29444967074
 11
773.0343367827
 21
89.29444967074
  0
LINE
  5
1E1
100
AcDbEntity
  8
0-d
100
AcDbLine
  6
CONTINUOUS
370
30
 10
659.468023724788
 20
90.4797742239
 11
686.335380262888
 21
90.4797742239
  0
LINE
  5
1E2
100
AcDbEntity
  8
0-d
100
AcDbLine
  6
CONTINUOUS
370
30
 10
716.5338664158
 20
114.18626528692
 11
780.93650047036
 21
114.18626528692
  0
LINE
  5
1E3
100
AcDbEntity
  8
0-d
100
AcDbLine
  6
CONTINUOUS
370
30
 10
625.65898400752
 20
114.18626528692
 11
673.07196613358
 21
114.18626528692
  0
TEXT
  5
1E4
100
AcDbEntity
  8
0-e
100
AcDbText
  6
CONTINUOUS
 10
539.64132830307
 20
108.334149149759
 40
12
 41
0.75
  1
組立図
  7
Font_0
100
AcDbText
  0
TEXT
  5
1E5
100
AcDbEntity
  8
0-c
100
AcDbText
  6
CONTINUOUS
 10
603.05059763574
 20
109.1350480807
 40
8
 41
0.75
  1
1
  7
Font_0
100
AcDbText
  0
TEXT
  5
1E6
100
AcDbEntity
  8
0-c
100
AcDbText
  6
CONTINUOUS
 10
487.104148351534
 20
110.00060926114
 40
8
  1
100
  7
Font_0
100
AcDbText
  0
LINE
  5
1E7
100
AcDbEntity
  8
0-c
100
AcDbLine
  6
CONTINUOUS
370
30
 10
798.5
 20
123
 11
475.5
 21
123
  0
TEXT
  5
1E8
100
AcDbEntity
  8
0-c
100
AcDbText
  6
CONTINUOUS
 10
633.341375883169
 20
99.2018125275893
 40
6
 41
1.31643280886417
  1
材       質          表  面  処  理
  7
Font_0
100
AcDbText
  0
LINE
  5
1E9
100
AcDbEntity
  8
0-c
100
AcDbLine
  6
CONTINUOUS
370
30
 10
592.8
 20
72
 11
798.5
 21
72
  0
TEXT
  5
1EA
100
AcDbEntity
  8
0-c
100
AcDbText
  6
CONTINUOUS
 10
742.48128262754
 20
73.6005572989
 40
8
  1
0.3
  7
Font_0
100
AcDbText
  0
TEXT
  5
1EB
100
AcDbEntity
  8
0-c
100
AcDbText
  6
CONTINUOUS
 10
731.661812834927
 20
74.49022533016
 40
8
  1
±
  7
Font_0
100
AcDbText
  0
TEXT
  5
1EC
100
AcDbEntity
  8
0-c
100
AcDbText
  6
CONTINUOUS
 10
733.122273268188
 20
42.0231707911
 40
9
 41
0.844444444444444
  1
KGK-1027
  7
Font_0
100
AcDbText
  0
TEXT
  5
1ED
100
AcDbEntity
  8
0-c
100
AcDbText
  6
CONTINUOUS
 10
598.997000437259
 20
75.7110737351268
 40
8
  1
1/2
  7
Font_0
100
AcDbText
  0
LINE
  5
1EE
100
AcDbEntity
  8
0-c
100
AcDbLine
  6
CONTINUOUS
370
30
 10
475.5
 20
38
 11
475.5
 21
123
  0
TEXT
  5
1EF
100
AcDbEntity
  8
0-c
100
AcDbText
  6
CONTINUOUS
 10
599.219040541356
 20
99.2935673630585
 40
6
  1
個数
  7
Font_0
100
AcDbText
  0
TEXT
  5
1F0
100
AcDbEntity
  8
0-c
100
AcDbText
  6
CONTINUOUS
 10
478.618986419369
 20
98.6980495925093
 40
6
 41
1.23498369719442
  1
部品番号     部   品   名
  7
Font_0
100
AcDbText
  0
LINE
  5
1F1
100
AcDbEntity
  8
0-c
100
AcDbLine
  6
CONTINUOUS
370
15
 10
484
 20
38
 11
484
 21
97.5
  0
LINE
  5
1F2
100
AcDbEntity
  8
0-c
100
AcDbLine
  6
CONTINUOUS
370
15
 10
475.5
 20
89
 11
618.3
 21
89
  0
LINE
  5
1F3
100
AcDbEntity
  8
0-c
100
AcDbLine
  6
CONTINUOUS
370
30
 10
475.5
 20
97.5
 11
798.5
 21
97.5
  0
LINE
  5
1F4
100
AcDbEntity
  8
0-c
100
AcDbLine
  6
CONTINUOUS
370
30
 10
643.8
 20
84.75
 11
643.8
 21
97.5
  0
LINE
  5
1F5
100
AcDbEntity
  8
0-c
100
AcDbLine
  6
CONTINUOUS
370
15
 10
482.5247300596
 20
90.19080385266
 11
477.0847300596
 21
90.19080385266
  0
LINE
  5
1F6
100
AcDbEntity
  8
0-c
100
AcDbLine
  6
CONTINUOUS
370
15
 10
479.8047300596
 20
96.07977659844
 11
482.5247300596
 21
90.19080385266
  0
TEXT
  5
1F7
100
AcDbEntity
  8
0-c
100
AcDbText
  6
CONTINUOUS
 10
479.127975956893
 20
91.1875221002211
 40
7.08157478485107
 41
0.577433628318584
  1
6
  7
Font_0
100
AcDbText
  0
LINE
  5
1F8
100
AcDbEntity
  8
0-c
100
AcDbLine
  6
CONTINUOUS
370
15
 10
477.0847300596
 20
90.19080385266
 11
479.8047300596
 21
96.07977659844
  0
TEXT
  5
1F9
100
AcDbEntity
  8
0-c
100
AcDbText
  6
CONTINUOUS
 10
598.219040541356
 20
90.2221561783148
 40
6
 41
1.16666666666667
  1
尺度
  7
Font_0
100
AcDbText
  0
LINE
  5
1FA
100
AcDbEntity
  8
0-c
100
AcDbLine
  6
CONTINUOUS
370
15
 10
652.3
 20
97.5
 11
652.3
 21
84.75
  0
LINE
  5
1FB
100
AcDbEntity
  8
0-c
100
AcDbLine
  6
CONTINUOUS
370
15
 10
475.5
 20
106
 11
798.5
 21
106
  0
TEXT
  5
1FC
100
AcDbEntity
  8
0-c
100
AcDbText
  6
CONTINUOUS
 10
695.904999899864
 20
40.8050000429153
 40
5
 41
1.2
  1
番
  7
Font_0
100
AcDbText
  0
TEXT
  5
1FD
100
AcDbEntity
  8
0-c
100
AcDbText
  6
CONTINUOUS
 10
695.904999899864
 20
48.4550000429153
 40
5
 41
1.2
  1
図
  7
Font_0
100
AcDbText
  0
LINE
  5
1FE
100
AcDbEntity
  8
0-c
100
AcDbLine
  6
CONTINUOUS
370
30
 10
511.2
 20
97.5
 11
511.2
 21
123
  0
TEXT
  5
1FF
100
AcDbEntity
  8
0-c
100
AcDbText
  6
CONTINUOUS
 10
696.020453801244
 20
91.9951798296754
 40
5
 41
1.2
  1
仕
  7
Font_0
100
AcDbText
  0
TEXT
  5
200
100
AcDbEntity
  8
0-c
100
AcDbText
  6
CONTINUOUS
 10
696.020453801244
 20
86.0451798296753
 40
5
 41
1.2
  1
上
  7
Font_0
100
AcDbText
  0
TEXT
  5
201
100
AcDbEntity
  8
0-c
100
AcDbText
  6
CONTINUOUS
 10
645.190453877538
 20
86.0451798296753
 40
5
 41
1.2
  1
取
  7
Font_0
100
AcDbText
  0
TEXT
  5
202
100
AcDbEntity
  8
0-c
100
AcDbText
  6
CONTINUOUS
 10
645.190453877538
 20
91.9951798296754
 40
5
 41
1.2
  1
面
  7
Font_0
100
AcDbText
  0
TEXT
  5
203
100
AcDbEntity
  8
0-c
100
AcDbText
  6
CONTINUOUS
 10
696.020453801244
 20
79.2451798296754
 40
5
 41
1.2
  1
公
  7
Font_0
100
AcDbText
  0
TEXT
  5
204
100
AcDbEntity
  8
0-c
100
AcDbText
  6
CONTINUOUS
 10
696.020453801244
 20
73.2951798296753
 40
5
 41
1.2
  1
差
  7
Font_0
100
AcDbText
  0
TEXT
  5
205
100
AcDbEntity
  8
0-c
100
AcDbText
  6
CONTINUOUS
 10
479.127975956893
 20
48.6875221002211
 40
7.08157478485107
 41
0.577433628318584
  1
1
  7
Font_0
100
AcDbText
  0
LINE
  5
206
100
AcDbEntity
  8
0-c
100
AcDbLine
  6
CONTINUOUS
370
15
 10
477.0847300596
 20
56.19080385266
 11
479.8047300596
 21
62.0797765985
  0
LINE
  5
207
100
AcDbEntity
  8
0-c
100
AcDbLine
  6
CONTINUOUS
370
15
 10
479.8047300596
 20
62.0797765985
 11
482.5247300596
 21
56.19080385266
  0
LINE
  5
208
100
AcDbEntity
  8
0-c
100
AcDbLine
  6
CONTINUOUS
370
15
 10
482.5247300596
 20
56.19080385266
 11
477.0847300596
 21
56.19080385266
  0
TEXT
  5
209
100
AcDbEntity
  8
0-c
100
AcDbText
  6
CONTINUOUS
 10
479.127975956893
 20
57.1875221002211
 40
7.08157478485107
 41
0.577433628318584
  1
2
  7
Font_0
100
AcDbText
  0
LINE
  5
20A
100
AcDbEntity
  8
0-c
100
AcDbLine
  6
CONTINUOUS
370
15
 10
477.0847300596
 20
64.69080385266
 11
479.8047300596
 21
70.5797765985
  0
LINE
  5
20B
100
AcDbEntity
  8
0-c
100
AcDbLine
  6
CONTINUOUS
370
15
 10
477.0847300596
 20
47.69080385266
 11
479.8047300596
 21
53.5797765985
  0
LINE
  5
20C
100
AcDbEntity
  8
0-c
100
AcDbLine
  6
CONTINUOUS
370
15
 10
479.8047300596
 20
53.5797765985
 11
482.5247300596
 21
47.69080385266
  0
TEXT
  5
20D
100
AcDbEntity
  8
0-c
100
AcDbText
  6
CONTINUOUS
 10
479.127975956893
 20
65.6875221002211
 40
7.08157478485107
 41
0.577433628318584
  1
3
  7
Font_0
100
AcDbText
  0
LINE
  5
20E
100
AcDbEntity
  8
0-c
100
AcDbLine
  6
CONTINUOUS
370
15
 10
479.8047300596
 20
70.5797765985
 11
482.5247300596
 21
64.69080385266
  0
LINE
  5
20F
100
AcDbEntity
  8
0-c
100
AcDbLine
  6
CONTINUOUS
370
15
 10
482.5247300596
 20
64.69080385266
 11
477.0847300596
 21
64.69080385266
  0
LINE
  5
210
100
AcDbEntity
  8
0-c
100
AcDbLine
  6
CONTINUOUS
370
15
 10
477.0847300596
 20
73.19080385266
 11
479.8047300596
 21
79.0797765985
  0
TEXT
  5
211
100
AcDbEntity
  8
0-c
100
AcDbText
  6
CONTINUOUS
 10
479.127975956893
 20
74.1875221002211
 40
7.08157478485107
 41
0.577433628318584
  1
4
  7
Font_0
100
AcDbText
  0
LINE
  5
212
100
AcDbEntity
  8
0-c
100
AcDbLine
  6
CONTINUOUS
370
15
 10
479.8047300596
 20
79.0797765985
 11
482.5247300596
 21
73.19080385266
  0
LINE
  5
213
100
AcDbEntity
  8
0-c
100
AcDbLine
  6
CONTINUOUS
370
15
 10
482.5247300596
 20
73.19080385266
 11
477.0847300596
 21
73.19080385266
  0
LINE
  5
214
100
AcDbEntity
  8
0-c
100
AcDbLine
  6
CONTINUOUS
370
15
 10
477.0847300596
 20
81.69080385266
 11
479.8047300596
 21
87.5797765985
  0
TEXT
  5
215
100
AcDbEntity
  8
0-c
100
AcDbText
  6
CONTINUOUS
 10
479.127975956893
 20
82.6875221002211
 40
7.08157478485107
 41
0.577433628318584
  1
5
  7
Font_0
100
AcDbText
  0
LINE
  5
216
100
AcDbEntity
  8
0-c
100
AcDbLine
  6
CONTINUOUS
370
15
 10
479.8047300596
 20
87.5797765985
 11
482.5247300596
 21
81.69080385266
  0
LINE
  5
217
100
AcDbEntity
  8
0-c
100
AcDbLine
  6
CONTINUOUS
370
15
 10
482.5247300596
 20
81.69080385266
 11
477.0847300596
 21
81.69080385266
  0
TEXT
  5
218
100
AcDbEntity
  8
0-c
100
AcDbText
  6
CONTINUOUS
 10
476.696640586853
 20
39.6485841574093
 40
6
 41
0.5
  1
符号
  7
Font_0
100
AcDbText
  0
TEXT
  5
219
100
AcDbEntity
  8
0-c
100
AcDbText
  6
CONTINUOUS
 10
483.162391129433
 20
39.3657041626893
 40
6
 41
1.2750523433519
  1
 年月日 担当   訂 正 記 事
  7
Font_0
100
AcDbText
  0
TEXT
  5
21A
100
AcDbEntity
  8
0-c
100
AcDbText
  6
CONTINUOUS
 10
592.541375930833
 20
64.8618125276093
 40
6
 41
1.63847986395203
  1
 設計 製図 検図 承認
  7
Font_0
100
AcDbText
  0
TEXT
  5
21B
100
AcDbEntity
  8
0-c
100
AcDbText
  6
CONTINUOUS
 10
696.040854144424
 20
56.1654381668354
 40
5
 41
1.2
  1
名
  7
Font_0
100
AcDbText
  0
LINE
  5
21C
100
AcDbEntity
  8
0-c
100
AcDbLine
  6
CONTINUOUS
370
15
 10
482.5247300596
 20
47.69080385266
 11
477.0847300596
 21
47.69080385266
  0
TEXT
  5
21D
100
AcDbEntity
  8
0-c
100
AcDbText
  6
CONTINUOUS
 10
696.040854144424
 20
61.4354381668353
 40
5
 41
1.2
  1
品
  7
Font_0
100
AcDbText
  0
TEXT
  5
21E
100
AcDbEntity
  8
0-c
100
AcDbText
  6
CONTINUOUS
 10
619.38894136201
 20
87.7682517591276
 40
6.8
 41
0.794117647058824
  1
 三角法
  7
Font_0
100
AcDbText
  0
TEXT
  5
21F
100
AcDbEntity
  8
0-c
100
AcDbText
  6
CONTINUOUS
 10
696.040854144424
 20
66.7054381668354
 40
5
 41
1.2
  1
製
  7
Font_0
100
AcDbText
  0
LINE
  5
220
100
AcDbEntity
  8
0-c
100
AcDbLine
  6
CONTINUOUS
370
30
 10
694.8
 20
55
 11
798.5
 21
55
  0
LINE
  5
221
100
AcDbEntity
  8
0-c
100
AcDbLine
  6
CONTINUOUS
370
15
 10
703.3
 20
38
 11
703.3
 21
97.5
  0
LINE
  5
222
100
AcDbEntity
  8
0-c
100
AcDbLine
  6
CONTINUOUS
370
15
 10
529.9
 20
38
 11
529.9
 21
97.5
  0
LINE
  5
223
100
AcDbEntity
  8
0-c
100
AcDbLine
  6
CONTINUOUS
370
15
 10
511.2
 20
38
 11
511.2
 21
97.5
  0
LINE
  5
224
100
AcDbEntity
  8
0-c
100
AcDbLine
  6
CONTINUOUS
370
30
 10
618.3
 20
84.75
 11
798.5
 21
84.75
  0
LINE
  5
225
100
AcDbEntity
  8
0-c
100
AcDbLine
  6
CONTINUOUS
370
15
 10
475.5
 20
80.5
 11
592.8
 21
80.5
  0
LINE
  5
226
100
AcDbEntity
  8
0-c
100
AcDbLine
  6
CONTINUOUS
370
15
 10
475.5
 20
72
 11
592.8
 21
72
  0
LINE
  5
227
100
AcDbEntity
  8
0-c
100
AcDbLine
  6
CONTINUOUS
370
15
 10
475.5
 20
63.5
 11
694.8
 21
63.5
  0
LINE
  5
228
100
AcDbEntity
  8
0-c
100
AcDbLine
  6
CONTINUOUS
370
15
 10
475.5
 20
55
 11
592.8
 21
55
  0
LINE
  5
229
100
AcDbEntity
  8
0-c
100
AcDbLine
  6
CONTINUOUS
370
15
 10
475.5
 20
46.5
 11
592.8
 21
46.5
  0
LINE
  5
22A
100
AcDbEntity
  8
0-c
100
AcDbLine
  6
CONTINUOUS
370
30
 10
592.8
 20
38
 11
592.8
 21
123
  0
LINE
  5
22B
100
AcDbEntity
  8
0-c
100
AcDbLine
  6
CONTINUOUS
370
30
 10
618.3
 20
38
 11
618.3
 21
123
  0
LINE
  5
22C
100
AcDbEntity
  8
0-c
100
AcDbLine
  6
CONTINUOUS
370
30
 10
643.8
 20
38
 11
643.8
 21
72
  0
LINE
  5
22D
100
AcDbEntity
  8
0-c
100
AcDbLine
  6
CONTINUOUS
370
30
 10
669.3
 20
38
 11
669.3
 21
72
  0
LINE
  5
22E
100
AcDbEntity
  8
0-c
100
AcDbLine
  6
CONTINUOUS
370
30
 10
694.8
 20
38
 11
694.8
 21
123
  0
TEXT
  5
22F
100
AcDbEntity
  8
0-f
100
AcDbText
  6
CONTINUOUS
 10
732.674581670482
 20
59.1733455093353
 40
8
 41
1.125
  1
KSF-16M
  7
Font_0
100
AcDbText
  0
LINE
  5
230
100
AcDbEntity
  8
1-0
100
AcDbLine
  6
CONTINUOUS
370
30
 10
415.65607770949
 20
261.563732841
 11
415.65607770949
 21
257.063732841
  0
LINE
  5
231
100
AcDbEntity
  8
1-0
100
AcDbLine
  6
CONTINUOUS
370
30
 10
415.65607770949
 20
252.563732841
 11
415.65607770949
 21
257.063732841
  0
ARC
  5
232
100
AcDbEntity
  8
1-0
100
AcDbCircle
  6
CONTINUOUS
370
30
 10
429.96516573069
 20
257.063732841
 40
15
100
AcDbArc
 50
180
 51
197.457603123701
  0
LINE
  5
233
100
AcDbEntity
  8
1-0
100
AcDbLine
  6
CONTINUOUS
370
30
 10
418.96516573069
 20
440.7112154799
 11
416.15607770949
 21
440.7112154799
  0
ARC
  5
234
100
AcDbEntity
  8
1-0
100
AcDbCircle
  6
CONTINUOUS
370
30
 10
430.46516573069
 20
436.2112154799
 40
15
100
AcDbArc
 50
162.5423968763
 51
180
  0
LINE
  5
235
100
AcDbEntity
  8
1-0
100
AcDbLine
  6
CONTINUOUS
370
30
 10
416.15607770949
 20
440.7112154799
 11
416.15607770949
 21
436.2112154799
  0
LINE
  5
236
100
AcDbEntity
  8
1-0
100
AcDbLine
  6
CONTINUOUS
370
30
 10
418.96516573069
 20
431.7112154799
 11
416.15607770949
 21
431.7112154799
  0
ARC
  5
237
100
AcDbEntity
  8
1-0
100
AcDbCircle
  6
CONTINUOUS
370
30
 10
430.46516573069
 20
436.2112154799
 40
15
100
AcDbArc
 50
180
 51
197.457603123701
  0
LINE
  5
238
100
AcDbEntity
  8
1-0
100
AcDbLine
  6
CONTINUOUS
370
30
 10
416.15607770949
 20
431.7112154799
 11
416.15607770949
 21
436.2112154799
  0
LINE
  5
239
100
AcDbEntity
  8
1-0
100
AcDbLine
  6
CENTER
370
15
 10
373.12940184189
 20
466.7112154799
 11
604.17622475849
 21
466.7112154799
  0
LINE
  5
23A
100
AcDbEntity
  8
1-0
100
AcDbLine
  6
CENTER
370
15
 10
480.05012539169
 20
256.7977074373
 11
408.11201808579
 21
256.7977074373
  0
LINE
  5
23B
100
AcDbEntity
  8
1-0
100
AcDbLine
  6
CONTINUOUS
370
30
 10
254.86395045299
 20
237.7954813241
 11
254.86395045299
 21
240.838732841
  0
LINE
  5
23C
100
AcDbEntity
  8
1-0
100
AcDbLine
  6
CONTINUOUS
370
30
 10
264.86395045299
 20
237.5479179713
 11
264.86395045299
 21
242.413732841
  0
LINE
  5
23D
100
AcDbEntity
  8
1-0
100
AcDbLine
  6
CONTINUOUS
370
30
 10
267.86395045299
 20
238.163732841
 11
267.86395045299
 21
243.663732841
  0
LINE
  5
23E
100
AcDbEntity
  8
1-0
100
AcDbLine
  6
CONTINUOUS
370
30
 10
401.96516573069
 20
446.7112154799
 11
499.46516573069
 21
446.7112154799
  0
LINE
  5
23F
100
AcDbEntity
  8
1-0
100
AcDbLine
  6
CONTINUOUS
370
30
 10
401.96516573069
 20
486.7112154799
 11
499.46516573069
 21
486.7112154799
  0
LINE
  5
240
100
AcDbEntity
  8
1-0
100
AcDbLine
  6
CENTER
370
15
 10
410.76360323069
 20
436.2112154799
 11
479.78143335099
 21
436.2112154799
  0
LINE
  5
241
100
AcDbEntity
  8
1-0
100
AcDbLine
  6
CONTINUOUS
370
30
 10
401.96516573069
 20
290.463732841
 11
454.46516573069
 21
290.463732841
  0
LINE
  5
242
100
AcDbEntity
  8
1-0
100
AcDbLine
  6
CONTINUOUS
370
30
 10
499.46516573069
 20
270.463732841
 11
401.96516573069
 21
270.463732841
  0
LINE
  5
243
100
AcDbEntity
  8
1-0
100
AcDbLine
  6
CONTINUOUS
370
30
 10
275.86395045299
 20
243.663732841
 11
285.36395045299
 21
243.663732841
  0
LINE
  5
244
100
AcDbEntity
  8
1-0
100
AcDbLine
  6
CENTER
370
15
 10
203.20075600849
 20
200.663732841
 11
283.99745578989
 21
200.663732841
  0
LINE
  5
245
100
AcDbEntity
  8
1-0
100
AcDbLine
  6
CONTINUOUS
370
15
 10
328.52335932829
 20
152.309431072
 11
275.65754527379
 21
152.309431072
  0
LINE
  5
246
100
AcDbEntity
  8
1-0
100
AcDbLine
  6
CONTINUOUS
370
30
 10
519.46516573069
 20
240.663732841
 11
574.46516573069
 21
240.663732841
  0
LINE
  5
247
100
AcDbEntity
  8
1-0
100
AcDbLine
  6
CENTER
370
15
 10
507.56516573069
 20
200.663732841
 11
557.56516573069
 21
200.663732841
  0
LINE
  5
248
100
AcDbEntity
  8
1-0
100
AcDbLine
  6
CONTINUOUS
370
30
 10
574.46516573069
 20
160.663732841
 11
519.46516573069
 21
160.663732841
  0
CIRCLE
  5
249
100
AcDbEntity
  8
1-0
100
AcDbCircle
  6
CONTINUOUS
370
30
 10
532.56516573069
 20
200.663732841
 40
17
  0
CIRCLE
  5
24A
100
AcDbEntity
  8
1-0
100
AcDbCircle
  6
CONTINUOUS
370
30
 10
532.56516573069
 20
200.663732841
 40
16.5
  0
LINE
  5
24B
100
AcDbEntity
  8
1-0
100
AcDbLine
  6
CONTINUOUS
370
30
 10
549.13894023779
 20
421.4612154799
 11
549.13894023779
 21
428.4612154799
  0
LINE
  5
24C
100
AcDbEntity
  8
1-0
100
AcDbLine
  6
CONTINUOUS
370
30
 10
549.56516573069
 20
428.4612154799
 11
549.56516573069
 21
421.4612154799
  0
LINE
  5
24D
100
AcDbEntity
  8
1-0
100
AcDbLine
  6
CONTINUOUS
370
30
 10
288.36395045299
 20
237.663732841
 11
288.36395045299
 21
230.913732841
  0
ARC
  5
24E
100
AcDbEntity
  8
1-0
100
AcDbCircle
  6
CONTINUOUS
370
30
 10
299.86395045299
 20
237.663732841
 40
15
100
AcDbArc
 50
342.5423968763
 51
0
  0
LINE
  5
24F
100
AcDbEntity
  8
1-0
100
AcDbLine
  6
CONTINUOUS
370
30
 10
285.36395045299
 20
237.663732841
 11
285.36395045299
 21
231.413732841
  0
LINE
  5
250
100
AcDbEntity
  8
1-0
100
AcDbLine
  6
CONTINUOUS
370
15
 10
545.85630093269
 20
420.9612154799
 11
547.25674783589
 21
417.9588917598
  0
LINE
  5
251
100
AcDbEntity
  8
1-0
100
AcDbLine
  6
CONTINUOUS
370
30
 10
545.85630093269
 20
420.9612154799
 11
548.57028538759
 21
419.0613503196
  0
LINE
  5
252
100
AcDbEntity
  8
1-0
100
AcDbLine
  6
CONTINUOUS
370
15
 10
545.85630093269
 20
420.9612154799
 11
564.99187077879
 21
398.1619099244
  0
LINE
  5
253
100
AcDbEntity
  8
1-0
100
AcDbLine
  6
CONTINUOUS
370
30
 10
549.56516573069
 20
421.4612154799
 11
532.56516573069
 21
421.4612154799
  0
LINE
  5
254
100
AcDbEntity
  8
1-0
100
AcDbLine
  6
CONTINUOUS
370
30
 10
549.56516573069
 20
421.4612154799
 11
549.06516573069
 21
420.9612154799
  0
LINE
  5
255
100
AcDbEntity
  8
1-0
100
AcDbLine
  6
CONTINUOUS
370
30
 10
532.56516573069
 20
420.9612154799
 11
549.06516573069
 21
420.9612154799
  0
LINE
  5
256
100
AcDbEntity
  8
1-0
100
AcDbLine
  6
CONTINUOUS
370
30
 10
549.56516573069
 20
428.4612154799
 11
532.56516573069
 21
428.4612154799
  0
LINE
  5
257
100
AcDbEntity
  8
1-0
100
AcDbLine
  6
CONTINUOUS
370
30
 10
549.06516573069
 20
428.9612154799
 11
549.56516573069
 21
428.4612154799
  0
LINE
  5
258
100
AcDbEntity
  8
1-0
100
AcDbLine
  6
CENTER
370
15
 10
376.96516573069
 20
451.7112154799
 11
416.96516573069
 21
451.7112154799
  0
LINE
  5
259
100
AcDbEntity
  8
1-0
100
AcDbLine
  6
CENTER
370
15
 10
376.96516573069
 20
481.7112154799
 11
416.96516573069
 21
481.7112154799
  0
LINE
  5
25A
100
AcDbEntity
  8
1-0
100
AcDbLine
  6
CONTINUOUS
370
15
 10
419.66516573069
 20
428.7112154799
 11
416.60062517519
 21
427.4527281211
  0
LINE
  5
25B
100
AcDbEntity
  8
1-0
100
AcDbLine
  6
CONTINUOUS
370
15
 10
419.66516573069
 20
428.7112154799
 11
417.64043943809
 21
426.0890631791
  0
LINE
  5
25C
100
AcDbEntity
  8
1-0
100
AcDbLine
  6
CONTINUOUS
370
15
 10
419.66516573069
 20
428.7112154799
 11
343.79717810999
 21
370.8607764199
  0
LINE
  5
25D
100
AcDbEntity
  8
1-0
100
AcDbLine
  6
CONTINUOUS
370
30
 10
418.46516573069
 20
261.563732841
 11
415.65607770949
 21
261.563732841
  0
LINE
  5
25E
100
AcDbEntity
  8
1-0
100
AcDbLine
  6
CONTINUOUS
370
30
 10
418.46516573069
 20
252.563732841
 11
415.65607770949
 21
252.563732841
  0
ARC
  5
25F
100
AcDbEntity
  8
1-0
100
AcDbCircle
  6
CONTINUOUS
370
30
 10
429.96516573069
 20
257.063732841
 40
15
100
AcDbArc
 50
162.5423968763
 51
180
  0
CIRCLE
  5
260
100
AcDbEntity
  8
1-0
100
AcDbCircle
  6
CONTINUOUS
370
30
 10
551.96516573069
 20
466.7112154799
 40
12.5
  0
LINE
  5
261
100
AcDbEntity
  8
1-0
100
AcDbLine
  6
CONTINUOUS
370
30
 10
549.13894023779
 20
511.9612154799
 11
549.13894023779
 21
504.9612154799
  0
LINE
  5
262
100
AcDbEntity
  8
1-0
100
AcDbLine
  6
CONTINUOUS
370
30
 10
532.56516573069
 20
504.4612154799
 11
549.06516573069
 21
504.4612154799
  0
LINE
  5
263
100
AcDbEntity
  8
1-0
100
AcDbLine
  6
CONTINUOUS
370
30
 10
549.06516573069
 20
504.4612154799
 11
549.56516573069
 21
504.9612154799
  0
LINE
  5
264
100
AcDbEntity
  8
1-0
100
AcDbLine
  6
CONTINUOUS
370
30
 10
549.56516573069
 20
504.9612154799
 11
532.56516573069
 21
504.9612154799
  0
LINE
  5
265
100
AcDbEntity
  8
1-0
100
AcDbLine
  6
CONTINUOUS
370
30
 10
532.56516573069
 20
512.4612154799
 11
549.06516573069
 21
512.4612154799
  0
LINE
  5
266
100
AcDbEntity
  8
1-0
100
AcDbLine
  6
CONTINUOUS
370
30
 10
549.56516573069
 20
511.9612154799
 11
549.06516573069
 21
512.4612154799
  0
LINE
  5
267
100
AcDbEntity
  8
1-0
100
AcDbLine
  6
CONTINUOUS
370
30
 10
549.56516573069
 20
511.9612154799
 11
532.56516573069
 21
511.9612154799
  0
LINE
  5
268
100
AcDbEntity
  8
1-0
100
AcDbLine
  6
CONTINUOUS
370
30
 10
549.56516573069
 20
504.9612154799
 11
549.56516573069
 21
511.9612154799
  0
LINE
  5
269
100
AcDbEntity
  8
1-0
100
AcDbLine
  6
CONTINUOUS
370
30
 10
275.86395045299
 20
238.163732841
 11
267.86395045299
 21
238.163732841
  0
LINE
  5
26A
100
AcDbEntity
  8
1-0
100
AcDbLine
  6
CONTINUOUS
370
30
 10
275.86395045299
 20
237.163732841
 11
267.86395045299
 21
237.163732841
  0
LINE
  5
26B
100
AcDbEntity
  8
1-0
100
AcDbLine
  6
CONTINUOUS
370
30
 10
254.36395045299
 20
225.663732841
 11
254.36395045299
 21
244.063732841
  0
LINE
  5
26C
100
AcDbEntity
  8
1-0
100
AcDbLine
  6
CONTINUOUS
370
30
 10
209.36395045299
 20
244.063732841
 11
209.36395045299
 21
225.663732841
  0
LINE
  5
26D
100
AcDbEntity
  8
1-0
100
AcDbLine
  6
CONTINUOUS
370
30
 10
460.46516573069
 20
238.063732841
 11
460.46516573069
 21
241.463732841
  0
LINE
  5
26E
100
AcDbEntity
  8
1-0
100
AcDbLine
  6
CONTINUOUS
370
30
 10
454.46516573069
 20
233.663732841
 11
454.46516573069
 21
243.463732841
  0
LINE
  5
26F
100
AcDbEntity
  8
1-0
100
AcDbLine
  6
CONTINUOUS
370
30
 10
464.51516573069
 20
241.463732841
 11
464.51516573069
 21
238.063732841
  0
ARC
  5
270
100
AcDbEntity
  8
1-0
100
AcDbCircle
  6
CONTINUOUS
370
15
 10
253.86395045299
 20
238.063732841
 40
1
100
AcDbArc
 50
300
 51
60
  0
LINE
  5
271
100
AcDbEntity
  8
1-0
100
AcDbLine
  6
CONTINUOUS
370
30
 10
254.86395045299
 20
237.7954813241
 11
254.86395045299
 21
234.488732841
  0
LINE
  5
272
100
AcDbEntity
  8
1-0
100
AcDbLine
  6
CONTINUOUS
370
30
 10
264.86395045299
 20
237.5479179713
 11
264.86395045299
 21
233.663732841
  0
LINE
  5
273
100
AcDbEntity
  8
1-0
100
AcDbLine
  6
CONTINUOUS
370
30
 10
464.51516573069
 20
238.063732841
 11
463.16516573069
 21
238.063732841
  0
LINE
  5
274
100
AcDbEntity
  8
1-0
100
AcDbLine
  6
CONTINUOUS
370
30
 10
267.86395045299
 20
233.663732841
 11
267.86395045299
 21
237.163732841
  0
LINE
  5
275
100
AcDbEntity
  8
1-0
100
AcDbLine
  6
CONTINUOUS
370
30
 10
275.86395045299
 20
238.163732841
 11
275.86395045299
 21
243.663732841
  0
LINE
  5
276
100
AcDbEntity
  8
1-0
100
AcDbLine
  6
CENTER
370
15
 10
401.96516573069
 20
493.5166408272
 11
401.96516573069
 21
247.9658161744
  0
LINE
  5
277
100
AcDbEntity
  8
1-0
100
AcDbLine
  6
CENTER
370
15
 10
249.00104461659
 20
237.663732841
 11
321.70926295299
 21
237.663732841
  0
LINE
  5
278
100
AcDbEntity
  8
1-0
100
AcDbLine
  6
CONTINUOUS
370
30
 10
275.86395045299
 20
231.663732841
 11
285.36395045299
 21
231.663732841
  0
ARC
  5
279
100
AcDbEntity
  8
1-0
100
AcDbCircle
  6
CONTINUOUS
370
30
 10
299.86395045299
 20
237.663732841
 40
15
100
AcDbArc
 50
0
 51
17.457603123701
  0
LINE
  5
27A
100
AcDbEntity
  8
1-0
100
AcDbLine
  6
CONTINUOUS
370
30
 10
314.17303847419
 20
242.163732841
 11
314.17303847419
 21
237.663732841
  0
LINE
  5
27B
100
AcDbEntity
  8
1-0
100
AcDbLine
  6
CONTINUOUS
370
30
 10
311.36395045299
 20
237.663732841
 11
311.36395045299
 21
242.163732841
  0
LINE
  5
27C
100
AcDbEntity
  8
1-0
100
AcDbLine
  6
CONTINUOUS
370
30
 10
298.36395045299
 20
237.663732841
 11
298.36395045299
 21
244.463732841
  0
LINE
  5
27D
100
AcDbEntity
  8
1-0
100
AcDbLine
  6
CONTINUOUS
370
30
 10
285.36395045299
 20
237.663732841
 11
285.36395045299
 21
243.913732841
  0
LINE
  5
27E
100
AcDbEntity
  8
1-0
100
AcDbLine
  6
CONTINUOUS
370
30
 10
288.36395045299
 20
237.663732841
 11
288.36395045299
 21
244.413732841
  0
LINE
  5
27F
100
AcDbEntity
  8
1-0
100
AcDbLine
  6
CONTINUOUS
370
30
 10
299.06395045299
 20
245.163732841
 11
299.06395045299
 21
237.663732841
  0
LINE
  5
280
100
AcDbEntity
  8
1-0
100
AcDbLine
  6
CONTINUOUS
370
30
 10
310.66395045299
 20
245.163732841
 11
310.66395045299
 21
237.663732841
  0
LINE
  5
281
100
AcDbEntity
  8
1-0
100
AcDbLine
  6
CONTINUOUS
370
30
 10
310.66395045299
 20
245.1590856184
 11
310.65930323029
 21
245.163732841
  0
LINE
  5
282
100
AcDbEntity
  8
1-0
100
AcDbLine
  6
CONTINUOUS
370
30
 10
310.66395045299
 20
240.9164449313
 11
306.41666254319
 21
245.163732841
  0
LINE
  5
283
100
AcDbEntity
  8
1-0
100
AcDbLine
  6
CONTINUOUS
370
30
 10
310.66395045299
 20
236.6738042441
 11
302.17402185609
 21
245.163732841
  0
LINE
  5
284
100
AcDbEntity
  8
1-0
100
AcDbLine
  6
CONTINUOUS
370
30
 10
310.66395045299
 20
232.431163557
 11
299.06395045299
 21
244.031163557
  0
LINE
  5
285
100
AcDbEntity
  8
1-0
100
AcDbLine
  6
CONTINUOUS
370
30
 10
308.68874048179
 20
230.163732841
 11
299.06395045299
 21
239.7885228699
  0
LINE
  5
286
100
AcDbEntity
  8
1-0
100
AcDbLine
  6
CONTINUOUS
370
30
 10
304.44609979469
 20
230.163732841
 11
299.06395045299
 21
235.5458821828
  0
LINE
  5
287
100
AcDbEntity
  8
1-0
100
AcDbLine
  6
CONTINUOUS
370
30
 10
300.20345910759
 20
230.163732841
 11
299.06395045299
 21
231.3032414957
  0
LINE
  5
288
100
AcDbEntity
  8
1-0
100
AcDbLine
  6
CONTINUOUS
370
30
 10
310.66044885519
 20
230.163732841
 11
310.66395045299
 21
230.1672344388
  0
LINE
  5
289
100
AcDbEntity
  8
1-0
100
AcDbLine
  6
CONTINUOUS
370
30
 10
306.41780816809
 20
230.163732841
 11
310.66395045299
 21
234.4098751259
  0
LINE
  5
28A
100
AcDbEntity
  8
1-0
100
AcDbLine
  6
CONTINUOUS
370
30
 10
302.17516748089
 20
230.163732841
 11
310.66395045299
 21
238.6525158131
  0
LINE
  5
28B
100
AcDbEntity
  8
1-0
100
AcDbLine
  6
CONTINUOUS
370
30
 10
299.06395045299
 20
231.2951565002
 11
310.66395045299
 21
242.8951565002
  0
LINE
  5
28C
100
AcDbEntity
  8
1-0
100
AcDbLine
  6
CONTINUOUS
370
30
 10
299.06395045299
 20
235.5377971873
 11
308.68988610669
 21
245.163732841
  0
LINE
  5
28D
100
AcDbEntity
  8
1-0
100
AcDbLine
  6
CONTINUOUS
370
30
 10
299.06395045299
 20
239.7804378744
 11
304.44724541959
 21
245.163732841
  0
LINE
  5
28E
100
AcDbEntity
  8
1-0
100
AcDbLine
  6
CONTINUOUS
370
30
 10
299.06395045299
 20
244.0230785615
 11
300.20460473249
 21
245.163732841
  0
LINE
  5
28F
100
AcDbEntity
  8
1-0
100
AcDbLine
  6
CONTINUOUS
370
30
 10
314.17303847419
 20
233.163732841
 11
314.17303847419
 21
237.663732841
  0
LINE
  5
290
100
AcDbEntity
  8
1-0
100
AcDbLine
  6
CONTINUOUS
370
30
 10
311.36395045299
 20
237.663732841
 11
311.36395045299
 21
233.163732841
  0
LINE
  5
291
100
AcDbEntity
  8
1-0
100
AcDbLine
  6
CONTINUOUS
370
30
 10
310.66395045299
 20
230.163732841
 11
310.66395045299
 21
237.663732841
  0
LINE
  5
292
100
AcDbEntity
  8
1-0
100
AcDbLine
  6
CONTINUOUS
370
30
 10
298.36395045299
 20
237.663732841
 11
298.36395045299
 21
230.863732841
  0
LINE
  5
293
100
AcDbEntity
  8
1-0
100
AcDbLine
  6
CONTINUOUS
370
30
 10
532.56516573069
 20
428.4612154799
 11
532.56516573069
 21
421.4612154799
  0
LINE
  5
294
100
AcDbEntity
  8
1-0
100
AcDbLine
  6
CONTINUOUS
370
30
 10
536.34802160799
 20
428.4612154799
 11
536.34802160799
 21
421.4612154799
  0
LINE
  5
295
100
AcDbEntity
  8
1-0
100
AcDbLine
  6
CONTINUOUS
370
30
 10
539.94118929569
 20
421.4612154799
 11
539.94118929569
 21
428.4612154799
  0
LINE
  5
296
100
AcDbEntity
  8
1-0
100
AcDbLine
  6
CONTINUOUS
370
30
 10
299.06395045299
 20
230.163732841
 11
299.06395045299
 21
237.663732841
  0
LINE
  5
297
100
AcDbEntity
  8
1-0
100
AcDbLine
  6
CONTINUOUS
370
30
 10
500.46516573069
 20
240.663732841
 11
500.46516573069
 21
225.663732841
  0
LINE
  5
298
100
AcDbEntity
  8
1-0
100
AcDbLine
  6
CENTER
370
15
 10
476.46516573069
 20
250.163732841
 11
476.46516573069
 21
225.163732841
  0
LINE
  5
299
100
AcDbEntity
  8
1-0
100
AcDbLine
  6
CONTINUOUS
370
30
 10
547.88163648509
 20
428.4612154799
 11
547.88163648509
 21
421.4612154799
  0
LINE
  5
29A
100
AcDbEntity
  8
1-0
100
AcDbLine
  6
CONTINUOUS
370
30
 10
493.96516573069
 20
238.063732841
 11
493.96516573069
 21
241.463732841
  0
LINE
  5
29B
100
AcDbEntity
  8
1-0
100
AcDbLine
  6
CONTINUOUS
370
30
 10
489.91516573069
 20
241.463732841
 11
489.91516573069
 21
238.063732841
  0
LINE
  5
29C
100
AcDbEntity
  8
1-0
100
AcDbLine
  6
CONTINUOUS
370
30
 10
532.56516573069
 20
428.9612154799
 11
549.06516573069
 21
428.9612154799
  0
LINE
  5
29D
100
AcDbEntity
  8
1-0
100
AcDbLine
  6
CONTINUOUS
370
30
 10
519.46516573069
 20
486.7112154799
 11
569.46516573069
 21
486.7112154799
  0
LINE
  5
29E
100
AcDbEntity
  8
1-0
100
AcDbLine
  6
CONTINUOUS
370
30
 10
519.46516573069
 20
446.7112154799
 11
569.46516573069
 21
446.7112154799
  0
LINE
  5
29F
100
AcDbEntity
  8
1-0
100
AcDbLine
  6
CONTINUOUS
370
30
 10
483.94848050429
 20
237.163732841
 11
488.96516573069
 21
237.163732841
  0
LINE
  5
2A0
100
AcDbEntity
  8
1-0
100
AcDbLine
  6
CONTINUOUS
370
30
 10
488.96516573069
 20
237.163732841
 11
488.96516573069
 21
225.663732841
  0
LINE
  5
2A1
100
AcDbEntity
  8
1-0
100
AcDbLine
  6
CONTINUOUS
370
30
 10
486.46516573069
 20
238.163732841
 11
486.46516573069
 21
237.163732841
  0
LINE
  5
2A2
100
AcDbEntity
  8
1-0
100
AcDbLine
  6
CONTINUOUS
370
30
 10
493.96516573069
 20
238.063732841
 11
492.26516573069
 21
238.063732841
  0
LINE
  5
2A3
100
AcDbEntity
  8
1-0
100
AcDbLine
  6
CONTINUOUS
370
30
 10
483.94848050429
 20
238.163732841
 11
488.96516573069
 21
238.163732841
  0
LINE
  5
2A4
100
AcDbEntity
  8
1-0
100
AcDbLine
  6
CONTINUOUS
370
30
 10
484.46516573069
 20
238.163732841
 11
484.46516573069
 21
237.163732841
  0
LINE
  5
2A5
100
AcDbEntity
  8
1-0
100
AcDbLine
  6
CONTINUOUS
370
30
 10
486.96516573069
 20
238.163732841
 11
486.96516573069
 21
237.163732841
  0
LINE
  5
2A6
100
AcDbEntity
  8
1-0
100
AcDbLine
  6
CONTINUOUS
370
30
 10
491.26516573069
 20
238.063732841
 11
489.91516573069
 21
238.063732841
  0
LINE
  5
2A7
100
AcDbEntity
  8
1-0
100
AcDbLine
  6
CONTINUOUS
370
30
 10
491.26516573069
 20
238.063732841
 11
491.26516573069
 21
234.063732841
  0
LINE
  5
2A8
100
AcDbEntity
  8
1-0
100
AcDbLine
  6
CONTINUOUS
370
30
 10
492.26516573069
 20
233.663732841
 11
492.26516573069
 21
238.063732841
  0
LINE
  5
2A9
100
AcDbEntity
  8
1-0
100
AcDbLine
  6
CONTINUOUS
370
15
 10
519.46516573069
 20
211.4983994257
 11
519.46516573069
 21
240.663732841
  0
LINE
  5
2AA
100
AcDbEntity
  8
1-0
100
AcDbLine
  6
CONTINUOUS
370
30
 10
519.46516573069
 20
211.4983994257
 11
519.46516573069
 21
240.663732841
  0
LINE
  5
2AB
100
AcDbEntity
  8
1-0
100
AcDbLine
  6
CONTINUOUS
370
30
 10
210.39105917369
 20
180.9053687324
 11
225.31586952089
 21
180.9111835308
  0
LINE
  5
2AC
100
AcDbEntity
  8
1-0
100
AcDbLine
  6
CONTINUOUS
370
30
 10
210.39164350629
 20
179.4053688462
 11
225.31645400679
 21
179.4111836447
  0
LINE
  5
2AD
100
AcDbEntity
  8
1-0
100
AcDbLine
  6
CENTER
370
15
 10
208.36395191189
 20
180.1637336023
 11
227.36395191189
 21
180.163732841
  0
LINE
  5
2AE
100
AcDbEntity
  8
1-0
100
AcDbLine
  6
CONTINUOUS
370
30
 10
461.86516573069
 20
238.063732841
 11
460.46516573069
 21
238.063732841
  0
LINE
  5
2AF
100
AcDbEntity
  8
1-0
100
AcDbLine
  6
CONTINUOUS
370
30
 10
463.16516573069
 20
234.063732841
 11
463.16516573069
 21
238.063732841
  0
LINE
  5
2B0
100
AcDbEntity
  8
1-0
100
AcDbLine
  6
CONTINUOUS
370
30
 10
461.86516573069
 20
238.063732841
 11
461.86516573069
 21
233.663732841
  0
CIRCLE
  5
2B1
100
AcDbEntity
  8
1-0
100
AcDbCircle
  6
CONTINUOUS
370
15
 10
216.83375253139
 20
280.463732841
 40
3
  0
LINE
  5
2B2
100
AcDbEntity
  8
1-0
100
AcDbLine
  6
CONTINUOUS
370
30
 10
212.83375253139
 20
290.463732841
 11
250.83375253139
 21
290.463732841
  0
LINE
  5
2B3
100
AcDbEntity
  8
1-0
100
AcDbLine
  6
CONTINUOUS
370
30
 10
211.83375253139
 20
289.463732841
 11
251.83375253139
 21
289.463732841
  0
LINE
  5
2B4
100
AcDbEntity
  8
1-0
100
AcDbLine
  6
CONTINUOUS
370
30
 10
275.86395045299
 20
243.663732841
 11
275.86395045299
 21
231.663732841
  0
LINE
  5
2B5
100
AcDbEntity
  8
1-0
100
AcDbLine
  6
CONTINUOUS
370
30
 10
275.86395045299
 20
225.663732841
 11
275.86395045299
 21
237.163732841
  0
LINE
  5
2B6
100
AcDbEntity
  8
1-0
100
AcDbLine
  6
CENTER
370
15
 10
231.86395045299
 20
154.0066147855
 11
231.83375253139
 21
309.0083508966
  0
CIRCLE
  5
2B7
100
AcDbEntity
  8
1-0
100
AcDbCircle
  6
CONTINUOUS
370
30
 10
476.46516573069
 20
237.663732841
 40
7.5
  0
LINE
  5
2B8
100
AcDbEntity
  8
1-0
100
AcDbLine
  6
CENTER
370
15
 10
463.96516573069
 20
237.663732841
 11
488.96516573069
 21
237.663732841
  0
LINE
  5
2B9
100
AcDbEntity
  8
1-0
100
AcDbLine
  6
CONTINUOUS
370
30
 10
586.39295933449
 20
243.163732841
 11
586.39295933449
 21
223.163732841
  0
LINE
  5
2BA
100
AcDbEntity
  8
1-0
100
AcDbLine
  6
CONTINUOUS
370
30
 10
586.39295933449
 20
237.3058684648
 11
598.39295933449
 21
237.3058684648
  0
LINE
  5
2BB
100
AcDbEntity
  8
1-0
100
AcDbLine
  6
CONTINUOUS
370
30
 10
598.39295933449
 20
243.163732841
 11
598.39295933449
 21
223.163732841
  0
LINE
  5
2BC
100
AcDbEntity
  8
1-0
100
AcDbLine
  6
CONTINUOUS
370
30
 10
585.39295933449
 20
223.163732841
 11
585.39295933449
 21
242.163732841
  0
LINE
  5
2BD
100
AcDbEntity
  8
1-0
100
AcDbLine
  6
CONTINUOUS
370
30
 10
599.39295933449
 20
223.163732841
 11
599.39295933449
 21
242.163732841
  0
LINE
  5
2BE
100
AcDbEntity
  8
1-0
100
AcDbLine
  6
CONTINUOUS
370
30
 10
569.46516573069
 20
240.663732841
 11
569.46516573069
 21
160.663732841
  0
LINE
  5
2BF
100
AcDbEntity
  8
1-0
100
AcDbLine
  6
CONTINUOUS
370
30
 10
574.46516573069
 20
240.663732841
 11
574.46516573069
 21
160.663732841
  0
LINE
  5
2C0
100
AcDbEntity
  8
1-0
100
AcDbLine
  6
CENTER
370
15
 10
551.96516573069
 20
308.5453300633
 11
551.96516573069
 21
149.2110418688
  0
CIRCLE
  5
2C1
100
AcDbEntity
  8
1-0
100
AcDbCircle
  6
CONTINUOUS
370
30
 10
485.46516573069
 20
426.7112154799
 40
2.5
  0
CIRCLE
  5
2C2
100
AcDbEntity
  8
1-0
100
AcDbCircle
  6
CONTINUOUS
370
30
 10
485.46516573069
 20
426.7112154799
 40
1.4
  0
LINE
  5
2C3
100
AcDbEntity
  8
1-0
100
AcDbLine
  6
CONTINUOUS
370
30
 10
489.46516573069
 20
422.7112154799
 11
489.46516573069
 21
438.2112154799
  0
LINE
  5
2C4
100
AcDbEntity
  8
1-0
100
AcDbLine
  6
CENTER
370
15
 10
476.96516573069
 20
379.2111286744
 11
476.96516573069
 21
447.2389684561
  0
LINE
  5
2C5
100
AcDbEntity
  8
1-0
100
AcDbLine
  6
CONTINUOUS
370
30
 10
515.56516573069
 20
428.4612154799
 11
515.56516573069
 21
421.4612154799
  0
LINE
  5
2C6
100
AcDbEntity
  8
1-0
100
AcDbLine
  6
CONTINUOUS
370
30
 10
209.36395045299
 20
252.063732841
 11
254.36395045299
 21
252.063732841
  0
LINE
  5
2C7
100
AcDbEntity
  8
1-0
100
AcDbLine
  6
CONTINUOUS
370
30
 10
543.16449236229
 20
428.4612154799
 11
543.16449236229
 21
421.4612154799
  0
LINE
  5
2C8
100
AcDbEntity
  8
1-0
100
AcDbLine
  6
CONTINUOUS
370
30
 10
545.85630093269
 20
421.4612154799
 11
545.85630093269
 21
428.4612154799
  0
LINE
  5
2C9
100
AcDbEntity
  8
1-0
100
AcDbLine
  6
CENTER
370
15
 10
532.56516573069
 20
413.9266668688
 11
532.56516573069
 21
514.02154769327
  0
LINE
  5
2CA
100
AcDbEntity
  8
1-0
100
AcDbLine
  6
CONTINUOUS
370
15
 10
488.96516573069
 20
225.663732841
 11
469.96516573069
 21
225.663732841
  0
LINE
  5
2CB
100
AcDbEntity
  8
1-0
100
AcDbLine
  6
CONTINUOUS
370
30
 10
492.96516573069
 20
209.663732841
 11
454.46516573069
 21
209.663732841
  0
LINE
  5
2CC
100
AcDbEntity
  8
1-0
100
AcDbLine
  6
CONTINUOUS
370
15
 10
454.46516573069
 20
225.663732841
 11
499.46516573069
 21
225.663732841
  0
LINE
  5
2CD
100
AcDbEntity
  8
1-0
100
AcDbLine
  6
CONTINUOUS
370
30
 10
488.96516573069
 20
243.663732841
 11
488.96516573069
 21
238.163732841
  0
LINE
  5
2CE
100
AcDbEntity
  8
1-0
100
AcDbLine
  6
CONTINUOUS
370
30
 10
499.96516573069
 20
229.063732841
 11
499.96516573069
 21
253.063732841
  0
LINE
  5
2CF
100
AcDbEntity
  8
1-0
100
AcDbLine
  6
CONTINUOUS
370
30
 10
517.24869497639
 20
428.4612154799
 11
517.24869497639
 21
421.4612154799
  0
LINE
  5
2D0
100
AcDbEntity
  8
1-0
100
AcDbLine
  6
CONTINUOUS
370
30
 10
519.27403052879
 20
421.4612154799
 11
519.27403052879
 21
428.4612154799
  0
LINE
  5
2D1
100
AcDbEntity
  8
1-0
100
AcDbLine
  6
CONTINUOUS
370
30
 10
521.96583909909
 20
428.4612154799
 11
521.96583909909
 21
421.4612154799
  0
LINE
  5
2D2
100
AcDbEntity
  8
1-0
100
AcDbLine
  6
CONTINUOUS
370
30
 10
515.99139122369
 20
421.4612154799
 11
515.99139122369
 21
428.4612154799
  0
LINE
  5
2D3
100
AcDbEntity
  8
1-0
100
AcDbLine
  6
CONTINUOUS
370
30
 10
525.18914216569
 20
421.4612154799
 11
525.18914216569
 21
428.4612154799
  0
LINE
  5
2D4
100
AcDbEntity
  8
1-0
100
AcDbLine
  6
CONTINUOUS
370
30
 10
528.78230985349
 20
428.4612154799
 11
528.78230985349
 21
421.4612154799
  0
LINE
  5
2D5
100
AcDbEntity
  8
1-0
100
AcDbLine
  6
CONTINUOUS
370
30
 10
470.46516573069
 20
429.2112154799
 11
470.46516573069
 21
422.7112154799
  0
LINE
  5
2D6
100
AcDbEntity
  8
1-0
100
AcDbLine
  6
CONTINUOUS
370
30
 10
254.36395045299
 20
233.463732841
 11
209.36395045299
 21
233.463732841
  0
LINE
  5
2D7
100
AcDbEntity
  8
1-0
100
AcDbLine
  6
CONTINUOUS
370
30
 10
211.86395045299
 20
209.663732841
 11
251.86395045299
 21
209.663732841
  0
LINE
  5
2D8
100
AcDbEntity
  8
1-0
100
AcDbLine
  6
CONTINUOUS
370
30
 10
209.36395045299
 20
225.663732841
 11
254.36395045299
 21
225.663732841
  0
LINE
  5
2D9
100
AcDbEntity
  8
1-0
100
AcDbLine
  6
CENTER
370
15
 10
181.13751079099
 20
200.663732841
 11
220.15293041649
 21
200.663732841
  0
ARC
  5
2DA
100
AcDbEntity
  8
1-0
100
AcDbCircle
  6
CONTINUOUS
370
30
 10
217.86395339439
 20
194.663732841
 40
2.5
100
AcDbArc
 50
1.32163E-5
 51
180.000011103
  0
ARC
  5
2DB
100
AcDbEntity
  8
1-0
100
AcDbCircle
  6
CONTINUOUS
370
30
 10
217.86395019559
 20
165.663732841
 40
2.5
100
AcDbArc
 50
179.999999124
 51
1.35547000088E-5
  0
ARC
  5
2DC
100
AcDbEntity
  8
1-0
100
AcDbCircle
  6
CONTINUOUS
370
30
 10
217.86395191189
 20
180.163732841
 40
7
100
AcDbArc
 50
6.1280753159995
 51
173.9165702618
  0
ARC
  5
2DD
100
AcDbEntity
  8
1-0
100
AcDbCircle
  6
CONTINUOUS
370
30
 10
217.86395191189
 20
180.163732841
 40
7
100
AcDbArc
 50
186.2178537076
 51
353.8267918702
  0
CIRCLE
  5
2DE
100
AcDbEntity
  8
1-0
100
AcDbCircle
  6
CONTINUOUS
370
30
 10
217.86395191189
 20
180.163732841
 40
7.5
  0
LINE
  5
2DF
100
AcDbEntity
  8
1-0
100
AcDbLine
  6
CONTINUOUS
370
30
 10
483.21516573069
 20
413.2112154799
 11
483.71516573069
 21
410.2112154799
  0
LINE
  5
2E0
100
AcDbEntity
  8
1-0
100
AcDbLine
  6
CONTINUOUS
370
30
 10
482.96516573069
 20
422.7112154799
 11
482.96516573069
 21
413.2112154799
  0
LINE
  5
2E1
100
AcDbEntity
  8
1-0
100
AcDbLine
  6
CONTINUOUS
370
15
 10
221.86395080419
 20
165.663732841
 11
213.86394958699
 21
165.663732841
  0
LINE
  5
2E2
100
AcDbEntity
  8
1-0
100
AcDbLine
  6
CONTINUOUS
370
15
 10
221.86395365409
 20
194.663732841
 11
213.86395313459
 21
194.663732841
  0
LINE
  5
2E3
100
AcDbEntity
  8
1-0
100
AcDbLine
  6
CONTINUOUS
370
30
 10
211.86395045299
 20
160.663732841
 11
251.86395045299
 21
160.663732841
  0
LINE
  5
2E4
100
AcDbEntity
  8
1-0
100
AcDbLine
  6
CONTINUOUS
370
30
 10
476.96516573069
 20
413.2112154799
 11
483.21516573069
 21
413.2112154799
  0
LINE
  5
2E5
100
AcDbEntity
  8
1-0
100
AcDbLine
  6
CONTINUOUS
370
30
 10
476.96516573069
 20
410.2112154799
 11
483.71516573069
 21
410.2112154799
  0
LINE
  5
2E6
100
AcDbEntity
  8
1-0
100
AcDbLine
  6
CONTINUOUS
370
30
 10
484.46516573069
 20
399.5112154799
 11
476.96516573069
 21
399.5112154799
  0
CIRCLE
  5
2E7
100
AcDbEntity
  8
1-0
100
AcDbCircle
  6
CONTINUOUS
370
30
 10
476.46516573069
 20
237.663732841
 40
4.5
  0
LINE
  5
2E8
100
AcDbEntity
  8
1-0
100
AcDbLine
  6
CONTINUOUS
370
30
 10
476.96516573069
 20
400.2112154799
 11
483.76516573069
 21
400.2112154799
  0
LINE
  5
2E9
100
AcDbEntity
  8
1-0
100
AcDbLine
  6
CONTINUOUS
370
30
 10
484.46516573069
 20
387.9112154799
 11
476.96516573069
 21
387.9112154799
  0
CIRCLE
  5
2EA
100
AcDbEntity
  8
1-0
100
AcDbCircle
  6
CONTINUOUS
370
15
 10
216.83375253139
 20
280.463732841
 40
1.5
  0
CIRCLE
  5
2EB
100
AcDbEntity
  8
1-0
100
AcDbCircle
  6
CONTINUOUS
370
15
 10
216.83375253139
 20
280.463732841
 40
1.75
  0
LINE
  5
2EC
100
AcDbEntity
  8
1-0
100
AcDbLine
  6
CONTINUOUS
370
15
 10
250.83375253139
 20
270.463732841
 11
212.83375253139
 21
270.463732841
  0
LINE
  5
2ED
100
AcDbEntity
  8
1-0
100
AcDbLine
  6
CONTINUOUS
370
30
 10
251.83375253139
 20
271.463732841
 11
211.83375253139
 21
271.463732841
  0
CIRCLE
  5
2EE
100
AcDbEntity
  8
1-0
100
AcDbCircle
  6
CONTINUOUS
370
15
 10
216.83375253139
 20
280.463732841
 40
1.2
  0
LINE
  5
2EF
100
AcDbEntity
  8
1-0
100
AcDbLine
  6
CONTINUOUS
370
30
 10
209.33375253139
 20
262.463732841
 11
247.13375253139
 21
262.463732841
  0
LINE
  5
2F0
100
AcDbEntity
  8
1-0
100
AcDbLine
  6
CONTINUOUS
370
15
 10
209.33375253139
 20
270.463732841
 11
254.33375253139
 21
270.463732841
  0
LINE
  5
2F1
100
AcDbEntity
  8
1-0
100
AcDbLine
  6
CONTINUOUS
370
30
 10
254.36395045299
 20
243.463732841
 11
209.36395045299
 21
243.463732841
  0
LINE
  5
2F2
100
AcDbEntity
  8
1-0
100
AcDbLine
  6
CONTINUOUS
370
30
 10
209.33375253139
 20
270.463732841
 11
254.33375253139
 21
270.463732841
  0
LINE
  5
2F3
100
AcDbEntity
  8
1-0
100
AcDbLine
  6
CONTINUOUS
370
30
 10
216.73375253139
 20
254.663732841
 11
215.33375253139
 21
254.663732841
  0
LINE
  5
2F4
100
AcDbEntity
  8
1-0
100
AcDbLine
  6
CONTINUOUS
370
30
 10
216.73375253139
 20
258.063732841
 11
215.33375253139
 21
258.063732841
  0
LINE
  5
2F5
100
AcDbEntity
  8
1-0
100
AcDbLine
  6
CONTINUOUS
370
30
 10
216.73375253139
 20
262.463732841
 11
209.33375253139
 21
262.463732841
  0
LINE
  5
2F6
100
AcDbEntity
  8
1-0
100
AcDbLine
  6
CONTINUOUS
370
30
 10
209.33375253139
 20
252.663732841
 11
216.73375253139
 21
252.663732841
  0
LINE
  5
2F7
100
AcDbEntity
  8
1-0
100
AcDbLine
  6
CONTINUOUS
370
30
 10
254.36395045299
 20
244.063732841
 11
209.36395045299
 21
244.063732841
  0
LINE
  5
2F8
100
AcDbEntity
  8
1-0
100
AcDbLine
  6
CONTINUOUS
370
15
 10
484.96516573069
 20
489.7112154799
 11
477.96516573069
 21
489.7112154799
  0
LINE
  5
2F9
100
AcDbEntity
  8
1-0
100
AcDbLine
  6
CONTINUOUS
370
30
 10
481.46516573069
 20
490.2112154799
 11
484.96516573069
 21
490.2112154799
  0
LINE
  5
2FA
100
AcDbEntity
  8
1-0
100
AcDbLine
  6
CONTINUOUS
370
30
 10
485.46516573069
 20
490.7112154799
 11
481.46516573069
 21
490.7112154799
  0
LINE
  5
2FB
100
AcDbEntity
  8
1-0
100
AcDbLine
  6
CONTINUOUS
370
15
 10
355.22739999949
 20
512.4489812112
 11
329.97184463459
 21
512.4489812112
  0
CIRCLE
  5
2FC
100
AcDbEntity
  8
1-0
100
AcDbCircle
  6
CONTINUOUS
370
30
 10
484.96516573069
 20
229.663732841
 40
3
  0
LINE
  5
2FD
100
AcDbEntity
  8
1-0
100
AcDbLine
  6
CONTINUOUS
370
30
 10
500.46516573069
 20
225.663732841
 11
454.46516573069
 21
225.663732841
  0
LINE
  5
2FE
100
AcDbEntity
  8
1-0
100
AcDbLine
  6
CONTINUOUS
370
30
 10
483.46516573069
 20
444.2112154799
 11
483.46516573069
 21
430.7112154799
  0
LINE
  5
2FF
100
AcDbEntity
  8
1-0
100
AcDbLine
  6
CONTINUOUS
370
15
 10
481.46516573069
 20
444.2112154799
 11
499.46516573069
 21
444.2112154799
  0
LINE
  5
300
100
AcDbEntity
  8
1-0
100
AcDbLine
  6
CONTINUOUS
370
30
 10
469.46516573069
 20
489.7112154799
 11
493.46516573069
 21
489.7112154799
  0
LINE
  5
301
100
AcDbEntity
  8
1-0
100
AcDbLine
  6
CONTINUOUS
370
15
 10
489.46516573069
 20
444.2112154799
 11
470.46516573069
 21
444.2112154799
  0
LINE
  5
302
100
AcDbEntity
  8
1-0
100
AcDbLine
  6
CENTER
370
15
 10
481.46516573069
 20
486.4476986149
 11
481.46516573069
 21
503.0786509958
  0
LINE
  5
303
100
AcDbEntity
  8
1-0
100
AcDbLine
  6
CONTINUOUS
370
30
 10
472.46516573069
 20
430.7112154799
 11
489.46516573069
 21
430.7112154799
  0
LINE
  5
304
100
AcDbEntity
  8
1-0
100
AcDbLine
  6
CONTINUOUS
370
30
 10
499.46516573069
 20
444.2112154799
 11
454.46516573069
 21
444.2112154799
  0
LINE
  5
305
100
AcDbEntity
  8
1-0
100
AcDbLine
  6
CONTINUOUS
370
30
 10
454.46516573069
 20
225.663732841
 11
499.46516573069
 21
225.663732841
  0
LINE
  5
306
100
AcDbEntity
  8
1-0
100
AcDbLine
  6
CONTINUOUS
370
30
 10
496.46516573069
 20
261.663732841
 11
476.46516573069
 21
261.663732841
  0
LINE
  5
307
100
AcDbEntity
  8
1-0
100
AcDbLine
  6
CONTINUOUS
370
30
 10
476.46516573069
 20
253.663732841
 11
496.46516573069
 21
253.663732841
  0
LINE
  5
308
100
AcDbEntity
  8
1-0
100
AcDbLine
  6
CONTINUOUS
370
30
 10
480.96516573069
 20
243.663732841
 11
488.96516573069
 21
243.663732841
  0
LINE
  5
309
100
AcDbEntity
  8
1-0
100
AcDbLine
  6
CONTINUOUS
370
30
 10
483.46516573069
 20
253.663732841
 11
483.46516573069
 21
261.663732841
  0
LINE
  5
30A
100
AcDbEntity
  8
1-0
100
AcDbLine
  6
CONTINUOUS
370
15
 10
497.96516573069
 20
244.063732841
 11
481.46516573069
 21
244.063732841
  0
LINE
  5
30B
100
AcDbEntity
  8
1-0
100
AcDbLine
  6
CONTINUOUS
370
30
 10
499.46516573069
 20
244.063732841
 11
480.37540868989
 21
244.063732841
  0
LINE
  5
30C
100
AcDbEntity
  8
1-0
100
AcDbLine
  6
CONTINUOUS
370
30
 10
454.46516573069
 20
285.463732841
 11
499.46516573069
 21
285.463732841
  0
LINE
  5
30D
100
AcDbEntity
  8
1-0
100
AcDbLine
  6
CONTINUOUS
370
30
 10
499.46516573069
 20
270.463732841
 11
454.46516573069
 21
270.463732841
  0
LINE
  5
30E
100
AcDbEntity
  8
1-0
100
AcDbLine
  6
CONTINUOUS
370
30
 10
499.46516573069
 20
252.663732841
 11
465.96516573069
 21
252.663732841
  0
LINE
  5
30F
100
AcDbEntity
  8
1-0
100
AcDbLine
  6
CONTINUOUS
370
30
 10
499.46516573069
 20
252.063732841
 11
462.46516573069
 21
252.063732841
  0
LINE
  5
310
100
AcDbEntity
  8
1-0
100
AcDbLine
  6
CONTINUOUS
370
15
 10
658.51401379759
 20
146.0593555642
 11
612.72183268199
 21
146.0593555642
  0
LINE
  5
311
100
AcDbEntity
  8
1-0
100
AcDbLine
  6
CONTINUOUS
370
30
 10
193.58829697699
 20
204.4465887183
 11
186.58829697699
 21
204.4465887183
  0
LINE
  5
312
100
AcDbEntity
  8
1-0
100
AcDbLine
  6
CONTINUOUS
370
30
 10
186.58829697699
 20
217.663732841
 11
186.08829697699
 21
217.163732841
  0
LINE
  5
313
100
AcDbEntity
  8
1-0
100
AcDbLine
  6
CONTINUOUS
370
30
 10
205.78829697699
 20
208.163732841
 11
206.08829697699
 21
207.863732841
  0
LINE
  5
314
100
AcDbEntity
  8
1-0
100
AcDbLine
  6
CONTINUOUS
370
30
 10
481.46516573069
 20
387.2112154799
 11
484.46516573069
 21
387.9112154799
  0
LINE
  5
315
100
AcDbEntity
  8
1-0
100
AcDbLine
  6
CONTINUOUS
370
30
 10
481.46516573069
 20
387.2112154799
 11
481.46516573069
 21
384.4021274587
  0
LINE
  5
316
100
AcDbEntity
  8
1-0
100
AcDbLine
  6
CONTINUOUS
370
15
 10
476.96516573069
 20
422.7112154799
 11
482.96516573069
 21
422.7112154799
  0
LINE
  5
317
100
AcDbEntity
  8
1-0
100
AcDbLine
  6
CONTINUOUS
370
30
 10
200.36395045299
 20
205.663732841
 11
210.36395045299
 21
205.663732841
  0
LINE
  5
318
100
AcDbEntity
  8
1-0
100
AcDbLine
  6
CONTINUOUS
370
30
 10
199.36395045299
 20
204.663732841
 11
200.36395045299
 21
205.663732841
  0
LINE
  5
319
100
AcDbEntity
  8
1-0
100
AcDbLine
  6
CONTINUOUS
370
30
 10
211.86395045299
 20
225.663732841
 11
211.86395045299
 21
209.663732841
  0
LINE
  5
31A
100
AcDbEntity
  8
1-0
100
AcDbLine
  6
CONTINUOUS
370
30
 10
210.36395045299
 20
203.9380365108
 11
200.36395045299
 21
203.9380365108
  0
LINE
  5
31B
100
AcDbEntity
  8
1-0
100
AcDbLine
  6
CONTINUOUS
370
30
 10
206.08829697699
 20
195.663732841
 11
206.08829697699
 21
193.463732841
  0
LINE
  5
31C
100
AcDbEntity
  8
1-0
100
AcDbLine
  6
CONTINUOUS
370
30
 10
211.36395045299
 20
196.063732841
 11
210.76395045299
 21
196.063732841
  0
LINE
  5
31D
100
AcDbEntity
  8
1-0
100
AcDbLine
  6
CONTINUOUS
370
30
 10
186.58829697699
 20
184.089958334
 11
193.58829697699
 21
184.089958334
  0
LINE
  5
31E
100
AcDbEntity
  8
1-0
100
AcDbLine
  6
CONTINUOUS
370
30
 10
476.96516573069
 20
387.2112154799
 11
481.46516573069
 21
387.2112154799
  0
LINE
  5
31F
100
AcDbEntity
  8
1-0
100
AcDbLine
  6
CONTINUOUS
370
30
 10
481.46516573069
 20
384.4021274587
 11
476.96516573069
 21
384.4021274587
  0
ARC
  5
320
100
AcDbEntity
  8
1-0
100
AcDbCircle
  6
CONTINUOUS
370
30
 10
476.96516573069
 20
398.7112154799
 40
15
100
AcDbArc
 50
270
 51
287.457603123701
  0
LINE
  5
321
100
AcDbEntity
  8
1-0
100
AcDbLine
  6
CONTINUOUS
370
15
 10
470.46516573069
 20
422.7112154799
 11
489.46516573069
 21
422.7112154799
  0
LINE
  5
322
100
AcDbEntity
  8
1-0
100
AcDbLine
  6
CONTINUOUS
370
30
 10
470.46516573069
 20
422.7112154799
 11
489.46516573069
 21
422.7112154799
  0
LINE
  5
323
100
AcDbEntity
  8
1-0
100
AcDbLine
  6
CONTINUOUS
370
30
 10
484.46516573069
 20
395.2726599439
 11
480.22661019469
 21
399.5112154799
  0
LINE
  5
324
100
AcDbEntity
  8
1-0
100
AcDbLine
  6
CONTINUOUS
370
30
 10
484.46516573069
 20
391.0300192568
 11
475.98396950759
 21
399.5112154799
  0
LINE
  5
325
100
AcDbEntity
  8
1-0
100
AcDbLine
  6
CONTINUOUS
370
30
 10
483.34132882049
 20
387.9112154799
 11
471.74132882049
 21
399.5112154799
  0
LINE
  5
326
100
AcDbEntity
  8
1-0
100
AcDbLine
  6
CONTINUOUS
370
30
 10
479.09868813329
 20
387.9112154799
 11
469.46516573069
 21
397.5447378825
  0
LINE
  5
327
100
AcDbEntity
  8
1-0
100
AcDbLine
  6
CONTINUOUS
370
30
 10
474.85604744619
 20
387.9112154799
 11
469.46516573069
 21
393.3020971954
  0
LINE
  5
328
100
AcDbEntity
  8
1-0
100
AcDbLine
  6
CONTINUOUS
370
30
 10
470.61340675909
 20
387.9112154799
 11
469.46516573069
 21
389.0594565083
  0
LINE
  5
329
100
AcDbEntity
  8
1-0
100
AcDbLine
  6
CONTINUOUS
370
30
 10
484.46407319769
 20
387.9112154799
 11
484.46516573069
 21
387.912308013
  0
LINE
  5
32A
100
AcDbEntity
  8
1-0
100
AcDbLine
  6
CONTINUOUS
370
30
 10
480.22143251059
 20
387.9112154799
 11
484.46516573069
 21
392.1549487001
  0
LINE
  5
32B
100
AcDbEntity
  8
1-0
100
AcDbLine
  6
CONTINUOUS
370
30
 10
475.97879182349
 20
387.9112154799
 11
484.46516573069
 21
396.3975893872
  0
LINE
  5
32C
100
AcDbEntity
  8
1-0
100
AcDbLine
  6
CONTINUOUS
370
30
 10
471.73615113629
 20
387.9112154799
 11
483.33615113629
 21
399.5112154799
  0
LINE
  5
32D
100
AcDbEntity
  8
1-0
100
AcDbLine
  6
CONTINUOUS
370
30
 10
469.46516573069
 20
389.8828707615
 11
479.09351044919
 21
399.5112154799
  0
LINE
  5
32E
100
AcDbEntity
  8
1-0
100
AcDbLine
  6
CONTINUOUS
370
30
 10
469.46516573069
 20
394.1255114486
 11
474.85086976209
 21
399.5112154799
  0
LINE
  5
32F
100
AcDbEntity
  8
1-0
100
AcDbLine
  6
CONTINUOUS
370
30
 10
469.46516573069
 20
398.3681521357
 11
470.60822907499
 21
399.5112154799
  0
LINE
  5
330
100
AcDbEntity
  8
1-0
100
AcDbLine
  6
CONTINUOUS
370
30
 10
481.46516573069
 20
490.7112154799
 11
481.46516573069
 21
499.7112154799
  0
LINE
  5
331
100
AcDbEntity
  8
1-0
100
AcDbLine
  6
CONTINUOUS
370
30
 10
485.46516573069
 20
499.7112154799
 11
481.46516573069
 21
499.7112154799
  0
LINE
  5
332
100
AcDbEntity
  8
1-0
100
AcDbLine
  6
CONTINUOUS
370
30
 10
482.70123370819
 20
490.7112154799
 11
482.70123370819
 21
499.7112154799
  0
LINE
  5
333
100
AcDbEntity
  8
1-0
100
AcDbLine
  6
CONTINUOUS
370
30
 10
477.46516573069
 20
490.7112154799
 11
481.46516573069
 21
490.7112154799
  0
LINE
  5
334
100
AcDbEntity
  8
1-0
100
AcDbLine
  6
CONTINUOUS
370
30
 10
481.46516573069
 20
500.2112154799
 11
484.96516573069
 21
500.2112154799
  0
LINE
  5
335
100
AcDbEntity
  8
1-0
100
AcDbLine
  6
CONTINUOUS
370
30
 10
481.46516573069
 20
490.2112154799
 11
477.96516573069
 21
490.2112154799
  0
LINE
  5
336
100
AcDbEntity
  8
1-0
100
AcDbLine
  6
CONTINUOUS
370
30
 10
193.58829697699
 20
183.663732841
 11
186.58829697699
 21
183.663732841
  0
LINE
  5
337
100
AcDbEntity
  8
1-0
100
AcDbLine
  6
CONTINUOUS
370
30
 10
186.58829697699
 20
187.3725976391
 11
193.58829697699
 21
187.3725976391
  0
LINE
  5
338
100
AcDbEntity
  8
1-0
100
AcDbLine
  6
CONTINUOUS
370
30
 10
193.58829697699
 20
185.3472620867
 11
186.58829697699
 21
185.3472620867
  0
LINE
  5
339
100
AcDbEntity
  8
1-0
100
AcDbLine
  6
CONTINUOUS
370
30
 10
477.46516573069
 20
499.7112154799
 11
481.46516573069
 21
499.7112154799
  0
LINE
  5
33A
100
AcDbEntity
  8
1-0
100
AcDbLine
  6
CONTINUOUS
370
30
 10
481.46516573069
 20
500.2112154799
 11
477.96516573069
 21
500.2112154799
  0
LINE
  5
33B
100
AcDbEntity
  8
1-0
100
AcDbLine
  6
CONTINUOUS
370
30
 10
496.46516573069
 20
438.2112154799
 11
483.46516573069
 21
438.2112154799
  0
LINE
  5
33C
100
AcDbEntity
  8
1-0
100
AcDbLine
  6
CONTINUOUS
370
30
 10
210.06395045299
 20
172.913732841
 11
211.36395045299
 21
172.913732841
  0
ARC
  5
33D
100
AcDbEntity
  8
1-0
100
AcDbCircle
  6
CONTINUOUS
370
30
 10
210.06395045299
 20
173.613732841
 40
0.7
100
AcDbArc
 50
180
 51
270
  0
LINE
  5
33E
100
AcDbEntity
  8
1-0
100
AcDbLine
  6
CONTINUOUS
370
30
 10
209.36395045299
 20
177.713732841
 11
209.36395045299
 21
173.613732841
  0
LINE
  5
33F
100
AcDbEntity
  8
1-0
100
AcDbLine
  6
CONTINUOUS
370
30
 10
277.11395045299
 20
193.287709276
 11
270.11395045299
 21
193.287709276
  0
ARC
  5
340
100
AcDbEntity
  8
1-0
100
AcDbCircle
  6
CONTINUOUS
370
30
 10
210.06395045299
 20
177.713732841
 40
0.7
100
AcDbArc
 50
90
 51
180
  0
LINE
  5
341
100
AcDbEntity
  8
1-0
100
AcDbLine
  6
CONTINUOUS
370
30
 10
200.36395045299
 20
195.866267973
 11
210.36395045299
 21
195.866267973
  0
LINE
  5
342
100
AcDbEntity
  8
1-0
100
AcDbLine
  6
CONTINUOUS
370
30
 10
210.36395045299
 20
196.4574651769
 11
200.36395045299
 21
196.4574651769
  0
LINE
  5
343
100
AcDbEntity
  8
1-0
100
AcDbLine
  6
CONTINUOUS
370
30
 10
200.36395045299
 20
197.3894291713
 11
210.36395045299
 21
197.3894291713
  0
LINE
  5
344
100
AcDbEntity
  8
1-0
100
AcDbLine
  6
CONTINUOUS
370
30
 10
454.46516573069
 20
489.2112154799
 11
499.46516573069
 21
489.2112154799
  0
LINE
  5
345
100
AcDbEntity
  8
1-0
100
AcDbLine
  6
CONTINUOUS
370
30
 10
206.08829697699
 20
205.663732841
 11
206.08829697699
 21
207.863732841
  0
LINE
  5
346
100
AcDbEntity
  8
1-0
100
AcDbLine
  6
CONTINUOUS
370
30
 10
211.36395045299
 20
205.263732841
 11
210.76395045299
 21
205.263732841
  0
LINE
  5
347
100
AcDbEntity
  8
1-0
100
AcDbLine
  6
CONTINUOUS
370
30
 10
194.08829697699
 20
217.163732841
 11
193.58829697699
 21
217.663732841
  0
LINE
  5
348
100
AcDbEntity
  8
1-0
100
AcDbLine
  6
CONTINUOUS
370
30
 10
205.78829697699
 20
208.163732841
 11
194.08829697699
 21
208.163732841
  0
LINE
  5
349
100
AcDbEntity
  8
1-0
100
AcDbLine
  6
CONTINUOUS
370
30
 10
193.58829697699
 20
217.663732841
 11
186.58829697699
 21
217.663732841
  0
LINE
  5
34A
100
AcDbEntity
  8
1-0
100
AcDbLine
  6
CONTINUOUS
370
30
 10
186.58829697699
 20
208.039756406
 11
193.58829697699
 21
208.039756406
  0
LINE
  5
34B
100
AcDbEntity
  8
1-0
100
AcDbLine
  6
CONTINUOUS
370
30
 10
186.58829697699
 20
213.954868043
 11
193.58829697699
 21
213.954868043
  0
LINE
  5
34C
100
AcDbEntity
  8
1-0
100
AcDbLine
  6
CONTINUOUS
370
30
 10
193.58829697699
 20
211.2630594726
 11
186.58829697699
 21
211.2630594726
  0
LINE
  5
34D
100
AcDbEntity
  8
1-0
100
AcDbLine
  6
CONTINUOUS
370
30
 10
186.58829697699
 20
217.2375073481
 11
193.58829697699
 21
217.2375073481
  0
LINE
  5
34E
100
AcDbEntity
  8
1-0
100
AcDbLine
  6
CONTINUOUS
370
30
 10
193.58829697699
 20
215.9802035954
 11
186.58829697699
 21
215.9802035954
  0
LINE
  5
34F
100
AcDbEntity
  8
1-0
100
AcDbLine
  6
CONTINUOUS
370
30
 10
186.58829697699
 20
217.663732841
 11
186.58829697699
 21
200.663732841
  0
LINE
  5
350
100
AcDbEntity
  8
1-0
100
AcDbLine
  6
CONTINUOUS
370
30
 10
186.08829697699
 20
200.663732841
 11
186.08829697699
 21
217.163732841
  0
LINE
  5
351
100
AcDbEntity
  8
1-0
100
AcDbLine
  6
CONTINUOUS
370
30
 10
193.58829697699
 20
217.663732841
 11
193.58829697699
 21
200.663732841
  0
LINE
  5
352
100
AcDbEntity
  8
1-0
100
AcDbLine
  6
CONTINUOUS
370
30
 10
200.36395045299
 20
204.8700005052
 11
210.36395045299
 21
204.8700005052
  0
LINE
  5
353
100
AcDbEntity
  8
1-0
100
AcDbLine
  6
CONTINUOUS
370
30
 10
210.36395045299
 20
205.4611977091
 11
200.36395045299
 21
205.4611977091
  0
LINE
  5
354
100
AcDbEntity
  8
1-0
100
AcDbLine
  6
CONTINUOUS
370
30
 10
210.36395045299
 20
205.663732841
 11
211.36395045299
 21
204.663732841
  0
LINE
  5
355
100
AcDbEntity
  8
1-0
100
AcDbLine
  6
CONTINUOUS
370
30
 10
200.36395045299
 20
202.7408079061
 11
210.36395045299
 21
202.7408079061
  0
LINE
  5
356
100
AcDbEntity
  8
1-0
100
AcDbLine
  6
CONTINUOUS
370
30
 10
199.36395045299
 20
200.663732841
 11
199.36395045299
 21
204.663732841
  0
LINE
  5
357
100
AcDbEntity
  8
1-0
100
AcDbLine
  6
CONTINUOUS
370
15
 10
211.36395045299
 20
200.663732841
 11
211.36395045299
 21
204.663732841
  0
LINE
  5
358
100
AcDbEntity
  8
1-0
100
AcDbLine
  6
CENTER
370
15
 10
245.86394751159
 20
198.6637331008
 11
245.86395063679
 21
159.6637321057
  0
LINE
  5
359
100
AcDbEntity
  8
1-0
100
AcDbLine
  6
CONTINUOUS
370
30
 10
211.36395045299
 20
225.663732841
 11
211.36395045299
 21
183.9053876934
  0
LINE
  5
35A
100
AcDbEntity
  8
1-0
100
AcDbLine
  6
CONTINUOUS
370
30
 10
211.86395045299
 20
209.663732841
 11
211.86395045299
 21
184.6637308958
  0
LINE
  5
35B
100
AcDbEntity
  8
1-0
100
AcDbLine
  6
CONTINUOUS
370
30
 10
254.36395045299
 20
225.663732841
 11
275.86395045299
 21
225.663732841
  0
LINE
  5
35C
100
AcDbEntity
  8
1-0
100
AcDbLine
  6
CONTINUOUS
370
30
 10
270.11395045299
 20
204.4465887183
 11
277.11395045299
 21
204.4465887183
  0
LINE
  5
35D
100
AcDbEntity
  8
1-0
100
AcDbLine
  6
CONTINUOUS
370
30
 10
186.58829697699
 20
193.287709276
 11
193.58829697699
 21
193.287709276
  0
LINE
  5
35E
100
AcDbEntity
  8
1-0
100
AcDbLine
  6
CONTINUOUS
370
30
 10
193.58829697699
 20
190.0644062094
 11
186.58829697699
 21
190.0644062094
  0
LINE
  5
35F
100
AcDbEntity
  8
1-0
100
AcDbLine
  6
CONTINUOUS
370
30
 10
193.58829697699
 20
200.663732841
 11
186.58829697699
 21
200.663732841
  0
LINE
  5
360
100
AcDbEntity
  8
1-0
100
AcDbLine
  6
CONTINUOUS
370
30
 10
186.08829697699
 20
200.663732841
 11
186.08829697699
 21
184.163732841
  0
LINE
  5
361
100
AcDbEntity
  8
1-0
100
AcDbLine
  6
CONTINUOUS
370
30
 10
186.58829697699
 20
183.663732841
 11
186.58829697699
 21
200.663732841
  0
LINE
  5
362
100
AcDbEntity
  8
1-0
100
AcDbLine
  6
CONTINUOUS
370
30
 10
186.58829697699
 20
183.663732841
 11
186.08829697699
 21
184.163732841
  0
LINE
  5
363
100
AcDbEntity
  8
1-0
100
AcDbLine
  6
CONTINUOUS
370
30
 10
205.78829697699
 20
193.163732841
 11
206.08829697699
 21
193.463732841
  0
LINE
  5
364
100
AcDbEntity
  8
1-0
100
AcDbLine
  6
CONTINUOUS
370
30
 10
194.08829697699
 20
184.163732841
 11
193.58829697699
 21
183.663732841
  0
LINE
  5
365
100
AcDbEntity
  8
1-0
100
AcDbLine
  6
CONTINUOUS
370
30
 10
194.08829697699
 20
200.663732841
 11
194.08829697699
 21
184.163732841
  0
LINE
  5
366
100
AcDbEntity
  8
1-0
100
AcDbLine
  6
CONTINUOUS
370
30
 10
193.58829697699
 20
183.663732841
 11
193.58829697699
 21
200.663732841
  0
LINE
  5
367
100
AcDbEntity
  8
1-0
100
AcDbLine
  6
CONTINUOUS
370
30
 10
205.78829697699
 20
193.163732841
 11
194.08829697699
 21
193.163732841
  0
LINE
  5
368
100
AcDbEntity
  8
1-0
100
AcDbLine
  6
CONTINUOUS
370
30
 10
193.58829697699
 20
196.8808769638
 11
186.58829697699
 21
196.8808769638
  0
LINE
  5
369
100
AcDbEntity
  8
1-0
100
AcDbLine
  6
CONTINUOUS
370
30
 10
257.91395045299
 20
208.163732841
 11
257.61395045299
 21
207.863732841
  0
LINE
  5
36A
100
AcDbEntity
  8
1-0
100
AcDbLine
  6
CONTINUOUS
370
30
 10
251.86395045299
 20
205.263732841
 11
257.61395045299
 21
205.263732841
  0
LINE
  5
36B
100
AcDbEntity
  8
1-0
100
AcDbLine
  6
CONTINUOUS
370
30
 10
254.86395045299
 20
234.488732841
 11
264.86395045299
 21
234.488732841
  0
LINE
  5
36C
100
AcDbEntity
  8
1-0
100
AcDbLine
  6
CONTINUOUS
370
30
 10
215.36395339439
 20
194.663732841
 11
215.36395257489
 21
187.2348008873
  0
LINE
  5
36D
100
AcDbEntity
  8
1-0
100
AcDbLine
  6
CONTINUOUS
370
15
 10
215.36395101499
 20
173.0926653463
 11
215.36395019559
 21
165.663732841
  0
LINE
  5
36E
100
AcDbEntity
  8
1-0
100
AcDbLine
  6
CONTINUOUS
370
30
 10
210.06395045299
 20
178.413732841
 11
210.57097583899
 21
178.413732841
  0
LINE
  5
36F
100
AcDbEntity
  8
1-0
100
AcDbLine
  6
CONTINUOUS
370
30
 10
270.11395045299
 20
200.663732841
 11
277.11395045299
 21
200.663732841
  0
LINE
  5
370
100
AcDbEntity
  8
1-0
100
AcDbLine
  6
CONTINUOUS
370
30
 10
270.11395045299
 20
190.0644062094
 11
277.11395045299
 21
190.0644062094
  0
LINE
  5
371
100
AcDbEntity
  8
1-0
100
AcDbLine
  6
CONTINUOUS
370
30
 10
198.83375253139
 20
269.2679589062
 11
207.83375253139
 21
269.2679589062
  0
LINE
  5
372
100
AcDbEntity
  8
1-0
100
AcDbLine
  6
CONTINUOUS
370
30
 10
277.11395045299
 20
184.089958334
 11
270.11395045299
 21
184.089958334
  0
LINE
  5
373
100
AcDbEntity
  8
1-0
100
AcDbLine
  6
CONTINUOUS
370
30
 10
270.11395045299
 20
185.3472620867
 11
277.11395045299
 21
185.3472620867
  0
LINE
  5
374
100
AcDbEntity
  8
1-0
100
AcDbLine
  6
CONTINUOUS
370
30
 10
277.11395045299
 20
187.3725976391
 11
270.11395045299
 21
187.3725976391
  0
LINE
  5
375
100
AcDbEntity
  8
1-0
100
AcDbLine
  6
CONTINUOUS
370
30
 10
270.11395045299
 20
183.663732841
 11
277.11395045299
 21
183.663732841
  0
LINE
  5
376
100
AcDbEntity
  8
1-0
100
AcDbLine
  6
CONTINUOUS
370
30
 10
270.11395045299
 20
196.8808769638
 11
277.11395045299
 21
196.8808769638
  0
LINE
  5
377
100
AcDbEntity
  8
1-0
100
AcDbLine
  6
CONTINUOUS
370
30
 10
210.36395045299
 20
198.586657776
 11
200.36395045299
 21
198.586657776
  0
LINE
  5
378
100
AcDbEntity
  8
1-0
100
AcDbLine
  6
CONTINUOUS
370
30
 10
200.36395045299
 20
199.9521586497
 11
210.36395045299
 21
199.9521586497
  0
LINE
  5
379
100
AcDbEntity
  8
1-0
100
AcDbLine
  6
CONTINUOUS
370
30
 10
210.36395045299
 20
195.663732841
 11
211.36395045299
 21
196.663732841
  0
LINE
  5
37A
100
AcDbEntity
  8
1-0
100
AcDbLine
  6
CONTINUOUS
370
30
 10
200.36395045299
 20
195.663732841
 11
210.36395045299
 21
195.663732841
  0
LINE
  5
37B
100
AcDbEntity
  8
1-0
100
AcDbLine
  6
CONTINUOUS
370
30
 10
199.36395045299
 20
200.663732841
 11
199.36395045299
 21
196.663732841
  0
LINE
  5
37C
100
AcDbEntity
  8
1-0
100
AcDbLine
  6
CONTINUOUS
370
30
 10
199.36395045299
 20
196.663732841
 11
200.36395045299
 21
195.663732841
  0
LINE
  5
37D
100
AcDbEntity
  8
1-0
100
AcDbLine
  6
CONTINUOUS
370
15
 10
211.36395045299
 20
200.663732841
 11
211.36395045299
 21
196.663732841
  0
LINE
  5
37E
100
AcDbEntity
  8
1-0
100
AcDbLine
  6
CONTINUOUS
370
30
 10
211.36395045299
 20
176.4220779887
 11
211.36395045299
 21
170.663732841
  0
LINE
  5
37F
100
AcDbEntity
  8
1-0
100
AcDbLine
  6
CONTINUOUS
370
30
 10
211.86395045299
 20
170.663732841
 11
211.36395045299
 21
170.663732841
  0
LINE
  5
380
100
AcDbEntity
  8
1-0
100
AcDbLine
  6
CONTINUOUS
370
30
 10
211.86395045299
 20
175.6637347863
 11
211.86395045299
 21
160.663732841
  0
LINE
  5
381
100
AcDbEntity
  8
1-0
100
AcDbLine
  6
CONTINUOUS
370
30
 10
210.36395045299
 20
201.3753070324
 11
200.36395045299
 21
201.3753070324
  0
LINE
  5
382
100
AcDbEntity
  8
1-0
100
AcDbLine
  6
CONTINUOUS
370
30
 10
243.36394751159
 20
194.663732841
 11
243.36394819909
 21
187.2347988161
  0
LINE
  5
383
100
AcDbEntity
  8
1-0
100
AcDbLine
  6
CONTINUOUS
370
30
 10
243.36394950799
 20
173.0926664032
 11
243.36395019559
 21
165.663732841
  0
LINE
  5
384
100
AcDbEntity
  8
1-0
100
AcDbLine
  6
CONTINUOUS
370
30
 10
248.36394751159
 20
194.663732841
 11
248.36394819909
 21
187.2348024897
  0
LINE
  5
385
100
AcDbEntity
  8
1-0
100
AcDbLine
  6
CONTINUOUS
370
30
 10
194.08829697699
 20
200.663732841
 11
194.08829697699
 21
217.163732841
  0
LINE
  5
386
100
AcDbEntity
  8
1-0
100
AcDbLine
  6
CONTINUOUS
370
30
 10
210.36395045299
 20
205.663732841
 11
210.36395045299
 21
195.663732841
  0
LINE
  5
387
100
AcDbEntity
  8
1-0
100
AcDbLine
  6
CONTINUOUS
370
30
 10
200.36395045299
 20
195.663732841
 11
200.36395045299
 21
205.663732841
  0
LINE
  5
388
100
AcDbEntity
  8
1-0
100
AcDbLine
  6
CENTER
370
15
 10
255.34576922359
 20
180.1637336023
 11
236.34576922359
 21
180.163732841
  0
LINE
  5
389
100
AcDbEntity
  8
1-0
100
AcDbLine
  6
CONTINUOUS
370
30
 10
251.86395045299
 20
175.6637289192
 11
251.86395045299
 21
160.663732841
  0
LINE
  5
38A
100
AcDbEntity
  8
1-0
100
AcDbLine
  6
CONTINUOUS
370
30
 10
198.83375253139
 20
269.463732841
 11
198.83375253139
 21
265.463732841
  0
LINE
  5
38B
100
AcDbEntity
  8
1-0
100
AcDbLine
  6
CENTER
370
15
 10
217.86395339439
 20
198.6637331008
 11
217.86395026909
 21
159.6637321057
  0
LINE
  5
38C
100
AcDbEntity
  8
1-0
100
AcDbLine
  6
CONTINUOUS
370
15
 10
241.96208372399
 20
165.663732841
 11
249.76581666719
 21
165.663732841
  0
LINE
  5
38D
100
AcDbEntity
  8
1-0
100
AcDbLine
  6
CONTINUOUS
370
15
 10
241.86394725179
 20
194.663732841
 11
249.86394777129
 21
194.663732841
  0
LINE
  5
38E
100
AcDbEntity
  8
1-0
100
AcDbLine
  6
CONTINUOUS
370
30
 10
257.61395045299
 20
200.663732841
 11
257.61395045299
 21
193.463732841
  0
LINE
  5
38F
100
AcDbEntity
  8
1-0
100
AcDbLine
  6
CONTINUOUS
370
30
 10
257.91395045299
 20
193.163732841
 11
257.61395045299
 21
193.463732841
  0
LINE
  5
390
100
AcDbEntity
  8
1-0
100
AcDbLine
  6
CONTINUOUS
370
30
 10
270.11395045299
 20
215.9802035954
 11
277.11395045299
 21
215.9802035954
  0
LINE
  5
391
100
AcDbEntity
  8
1-0
100
AcDbLine
  6
CONTINUOUS
370
30
 10
277.11395045299
 20
217.2375073481
 11
270.11395045299
 21
217.2375073481
  0
LINE
  5
392
100
AcDbEntity
  8
1-0
100
AcDbLine
  6
CONTINUOUS
370
30
 10
270.11395045299
 20
211.2630594726
 11
277.11395045299
 21
211.2630594726
  0
LINE
  5
393
100
AcDbEntity
  8
1-0
100
AcDbLine
  6
CONTINUOUS
370
30
 10
277.11395045299
 20
213.954868043
 11
270.11395045299
 21
213.954868043
  0
LINE
  5
394
100
AcDbEntity
  8
1-0
100
AcDbLine
  6
CONTINUOUS
370
30
 10
277.11395045299
 20
208.039756406
 11
270.11395045299
 21
208.039756406
  0
LINE
  5
395
100
AcDbEntity
  8
1-0
100
AcDbLine
  6
CONTINUOUS
370
30
 10
270.11395045299
 20
217.663732841
 11
277.11395045299
 21
217.663732841
  0
LINE
  5
396
100
AcDbEntity
  8
1-0
100
AcDbLine
  6
CONTINUOUS
370
30
 10
257.91395045299
 20
208.163732841
 11
269.61395045299
 21
208.163732841
  0
LINE
  5
397
100
AcDbEntity
  8
1-0
100
AcDbLine
  6
CONTINUOUS
370
30
 10
269.61395045299
 20
217.163732841
 11
270.11395045299
 21
217.663732841
  0
LINE
  5
398
100
AcDbEntity
  8
1-0
100
AcDbLine
  6
CONTINUOUS
370
30
 10
254.36395045299
 20
233.663732841
 11
267.86395045299
 21
233.663732841
  0
LINE
  5
399
100
AcDbEntity
  8
1-0
100
AcDbLine
  6
CONTINUOUS
370
15
 10
254.36395045299
 20
233.663732841
 11
254.36395045299
 21
225.663732841
  0
LINE
  5
39A
100
AcDbEntity
  8
1-0
100
AcDbLine
  6
CONTINUOUS
370
30
 10
251.86395045299
 20
225.663732841
 11
251.86395045299
 21
209.663732841
  0
LINE
  5
39B
100
AcDbEntity
  8
1-0
100
AcDbLine
  6
CONTINUOUS
370
30
 10
212.83375253139
 20
270.463732841
 11
211.83375253139
 21
271.463732841
  0
LINE
  5
39C
100
AcDbEntity
  8
1-0
100
AcDbLine
  6
CONTINUOUS
370
30
 10
211.83375253139
 20
271.463732841
 11
211.83375253139
 21
289.463732841
  0
LINE
  5
39D
100
AcDbEntity
  8
1-0
100
AcDbLine
  6
CONTINUOUS
370
30
 10
209.33375253139
 20
262.463732841
 11
209.33375253139
 21
252.663732841
  0
LINE
  5
39E
100
AcDbEntity
  8
1-0
100
AcDbLine
  6
CONTINUOUS
370
30
 10
277.11395045299
 20
217.663732841
 11
277.61395045299
 21
217.163732841
  0
LINE
  5
39F
100
AcDbEntity
  8
1-0
100
AcDbLine
  6
CONTINUOUS
370
15
 10
223.34255808609
 20
175.0417337794
 11
225.93574198809
 21
172.9800362992
  0
LINE
  5
3A0
100
AcDbEntity
  8
1-0
100
AcDbLine
  6
CONTINUOUS
370
15
 10
223.34255808609
 20
175.0417337794
 11
226.61916996199
 21
174.5528433376
  0
LINE
  5
3A1
100
AcDbEntity
  8
1-0
100
AcDbLine
  6
CONTINUOUS
370
15
 10
223.34255808609
 20
175.0417337794
 11
275.65754527379
 21
152.309431072
  0
LINE
  5
3A2
100
AcDbEntity
  8
1-0
100
AcDbLine
  6
CONTINUOUS
370
15
 10
251.34255956859
 20
175.0417337794
 11
253.09452574379
 21
172.2300058818
  0
LINE
  5
3A3
100
AcDbEntity
  8
1-0
100
AcDbLine
  6
CONTINUOUS
370
15
 10
251.34255956859
 20
175.0417337794
 11
254.26567073169
 21
173.4826890792
  0
LINE
  5
3A4
100
AcDbEntity
  8
1-0
100
AcDbLine
  6
CONTINUOUS
370
15
 10
251.34255956859
 20
175.0417337794
 11
275.65754527379
 21
152.309431072
  0
LINE
  5
3A5
100
AcDbEntity
  8
1-0
100
AcDbLine
  6
CONTINUOUS
370
30
 10
198.83375253139
 20
261.6595067759
 11
207.83375253139
 21
261.6595067759
  0
LINE
  5
3A6
100
AcDbEntity
  8
1-0
100
AcDbLine
  6
CONTINUOUS
370
30
 10
207.83375253139
 20
262.2276648635
 11
198.83375253139
 21
262.2276648635
  0
LINE
  5
3A7
100
AcDbEntity
  8
1-0
100
AcDbLine
  6
CONTINUOUS
370
30
 10
221.83375253139
 20
271.463732841
 11
221.83375253139
 21
289.463732841
  0
LINE
  5
3A8
100
AcDbEntity
  8
1-0
100
AcDbLine
  6
CONTINUOUS
370
30
 10
207.83375253139
 20
269.463732841
 11
198.83375253139
 21
269.463732841
  0
LINE
  5
3A9
100
AcDbEntity
  8
1-0
100
AcDbLine
  6
CONTINUOUS
370
30
 10
208.83375253139
 20
245.463732841
 11
209.36395045299
 21
245.463732841
  0
LINE
  5
3AA
100
AcDbEntity
  8
1-0
100
AcDbLine
  6
CONTINUOUS
370
30
 10
208.33375253139
 20
261.963732841
 11
207.83375253139
 21
261.463732841
  0
LINE
  5
3AB
100
AcDbEntity
  8
1-0
100
AcDbLine
  6
CONTINUOUS
370
30
 10
208.33375253139
 20
265.463732841
 11
208.33375253139
 21
261.963732841
  0
LINE
  5
3AC
100
AcDbEntity
  8
1-0
100
AcDbLine
  6
CONTINUOUS
370
15
 10
208.33375253139
 20
261.963732841
 11
208.83375253139
 21
261.963732841
  0
LINE
  5
3AD
100
AcDbEntity
  8
1-0
100
AcDbLine
  6
CONTINUOUS
370
30
 10
257.91395045299
 20
193.163732841
 11
269.61395045299
 21
193.163732841
  0
LINE
  5
3AE
100
AcDbEntity
  8
1-0
100
AcDbLine
  6
CONTINUOUS
370
30
 10
270.11395045299
 20
183.663732841
 11
270.11395045299
 21
200.663732841
  0
LINE
  5
3AF
100
AcDbEntity
  8
1-0
100
AcDbLine
  6
CONTINUOUS
370
30
 10
269.61395045299
 20
200.663732841
 11
269.61395045299
 21
184.163732841
  0
LINE
  5
3B0
100
AcDbEntity
  8
1-0
100
AcDbLine
  6
CONTINUOUS
370
30
 10
269.61395045299
 20
184.163732841
 11
270.11395045299
 21
183.663732841
  0
ARC
  5
3B1
100
AcDbEntity
  8
1-0
100
AcDbCircle
  6
CONTINUOUS
370
30
 10
245.86395339439
 20
180.163732841
 40
7
100
AcDbArc
 50
6.1506452631997
 51
173.8493593281
  0
ARC
  5
3B2
100
AcDbEntity
  8
1-0
100
AcDbCircle
  6
CONTINUOUS
370
30
 10
245.86395339439
 20
180.163732841
 40
7
100
AcDbArc
 50
186.150638984
 51
353.8493656073
  0
LINE
  5
3B3
100
AcDbEntity
  8
1-0
100
AcDbLine
  6
CONTINUOUS
370
30
 10
253.32635924109
 20
179.4137335214
 11
238.40154760779
 21
179.4137329234
  0
LINE
  5
3B4
100
AcDbEntity
  8
1-0
100
AcDbLine
  6
CONTINUOUS
370
30
 10
253.32635910429
 20
180.9137335214
 11
238.40154762439
 21
180.9137329234
  0
CIRCLE
  5
3B5
100
AcDbEntity
  8
1-0
100
AcDbCircle
  6
CONTINUOUS
370
30
 10
245.86395339439
 20
180.163732841
 40
7.5
  0
ARC
  5
3B6
100
AcDbEntity
  8
1-0
100
AcDbCircle
  6
CONTINUOUS
370
30
 10
245.86394751159
 20
194.663732841
 40
2.5
100
AcDbArc
 50
1.32163E-5
 51
180.000011103
  0
ARC
  5
3B7
100
AcDbEntity
  8
1-0
100
AcDbCircle
  6
CONTINUOUS
370
30
 10
245.86395019559
 20
165.663732841
 40
2.5
100
AcDbArc
 50
179.999999124
 51
1.35547000088E-5
  0
LINE
  5
3B8
100
AcDbEntity
  8
1-0
100
AcDbLine
  6
CONTINUOUS
370
15
 10
208.83375253139
 20
261.963732841
 11
208.83375253139
 21
268.963732841
  0
LINE
  5
3B9
100
AcDbEntity
  8
1-0
100
AcDbLine
  6
CONTINUOUS
370
30
 10
208.33375253139
 20
265.463732841
 11
208.33375253139
 21
268.963732841
  0
LINE
  5
3BA
100
AcDbEntity
  8
1-0
100
AcDbLine
  6
CONTINUOUS
370
30
 10
208.33375253139
 20
268.963732841
 11
207.83375253139
 21
269.463732841
  0
LINE
  5
3BB
100
AcDbEntity
  8
1-0
100
AcDbLine
  6
CONTINUOUS
370
30
 10
248.36394950799
 20
173.0926636551
 11
248.36395019559
 21
165.663732841
  0
LINE
  5
3BC
100
AcDbEntity
  8
1-0
100
AcDbLine
  6
CONTINUOUS
370
30
 10
220.36395339439
 20
194.663732841
 11
220.36395257489
 21
187.2348004185
  0
LINE
  5
3BD
100
AcDbEntity
  8
1-0
100
AcDbLine
  6
CONTINUOUS
370
30
 10
220.36395101499
 20
173.0926647121
 11
220.36395019559
 21
165.663732841
  0
LINE
  5
3BE
100
AcDbEntity
  8
1-0
100
AcDbLine
  6
CENTER
370
15
 10
210.80270515118
 20
265.463732841
 11
197.51732485193
 21
265.463732841
  0
LINE
  5
3BF
100
AcDbEntity
  8
1-0
100
AcDbLine
  6
CONTINUOUS
370
30
 10
198.83375253139
 20
261.463732841
 11
198.83375253139
 21
265.463732841
  0
LINE
  5
3C0
100
AcDbEntity
  8
1-0
100
AcDbLine
  6
CONTINUOUS
370
30
 10
216.73375253139
 20
258.063732841
 11
216.73375253139
 21
262.463732841
  0
LINE
  5
3C1
100
AcDbEntity
  8
1-0
100
AcDbLine
  6
CONTINUOUS
370
30
 10
207.83375253139
 20
261.463732841
 11
207.83375253139
 21
265.463732841
  0
LINE
  5
3C2
100
AcDbEntity
  8
1-0
100
AcDbLine
  6
CONTINUOUS
370
30
 10
207.83375253139
 20
269.463732841
 11
207.83375253139
 21
265.463732841
  0
LINE
  5
3C3
100
AcDbEntity
  8
1-0
100
AcDbLine
  6
CENTER
370
15
 10
274.86395045299
 20
257.063732841
 11
249.86395045299
 21
257.063732841
  0
LINE
  5
3C4
100
AcDbEntity
  8
1-0
100
AcDbLine
  6
CONTINUOUS
370
30
 10
275.86395045299
 20
243.663732841
 11
267.86395045299
 21
243.663732841
  0
LINE
  5
3C5
100
AcDbEntity
  8
1-0
100
AcDbLine
  6
CONTINUOUS
370
30
 10
251.86395045299
 20
196.063732841
 11
257.61395045299
 21
196.063732841
  0
LINE
  5
3C6
100
AcDbEntity
  8
1-0
100
AcDbLine
  6
CONTINUOUS
370
30
 10
277.11395045299
 20
183.663732841
 11
277.61395045299
 21
184.163732841
  0
LINE
  5
3C7
100
AcDbEntity
  8
1-0
100
AcDbLine
  6
CONTINUOUS
370
30
 10
277.11395045299
 20
183.663732841
 11
277.11395045299
 21
200.663732841
  0
LINE
  5
3C8
100
AcDbEntity
  8
1-0
100
AcDbLine
  6
CONTINUOUS
370
30
 10
277.61395045299
 20
200.663732841
 11
277.61395045299
 21
184.163732841
  0
LINE
  5
3C9
100
AcDbEntity
  8
1-0
100
AcDbLine
  6
CONTINUOUS
370
30
 10
269.61395045299
 20
200.663732841
 11
269.61395045299
 21
217.163732841
  0
LINE
  5
3CA
100
AcDbEntity
  8
1-0
100
AcDbLine
  6
CONTINUOUS
370
30
 10
270.11395045299
 20
217.663732841
 11
270.11395045299
 21
200.663732841
  0
LINE
  5
3CB
100
AcDbEntity
  8
1-0
100
AcDbLine
  6
CONTINUOUS
370
30
 10
251.86395045299
 20
209.663732841
 11
251.86395045299
 21
184.6637367629
  0
LINE
  5
3CC
100
AcDbEntity
  8
1-0
100
AcDbLine
  6
CONTINUOUS
370
30
 10
257.61395045299
 20
200.663732841
 11
257.61395045299
 21
207.863732841
  0
LINE
  5
3CD
100
AcDbEntity
  8
1-0
100
AcDbLine
  6
CONTINUOUS
370
30
 10
277.61395045299
 20
200.663732841
 11
277.61395045299
 21
217.163732841
  0
LINE
  5
3CE
100
AcDbEntity
  8
1-0
100
AcDbLine
  6
CONTINUOUS
370
30
 10
277.11395045299
 20
217.663732841
 11
277.11395045299
 21
200.663732841
  0
LINE
  5
3CF
100
AcDbEntity
  8
1-0
100
AcDbLine
  6
CONTINUOUS
370
30
 10
211.83375253139
 20
289.463732841
 11
212.83375253139
 21
290.463732841
  0
CIRCLE
  5
3D0
100
AcDbEntity
  8
1-0
100
AcDbCircle
  6
CONTINUOUS
370
15
 10
246.83375253139
 20
280.463732841
 40
1.5
  0
LINE
  5
3D1
100
AcDbEntity
  8
1-0
100
AcDbLine
  6
CONTINUOUS
370
15
 10
246.83375253139
 20
275.963732841
 11
246.83375253139
 21
284.963732841
  0
LINE
  5
3D2
100
AcDbEntity
  8
1-0
100
AcDbLine
  6
CONTINUOUS
370
15
 10
216.83375253139
 20
275.963732841
 11
216.83375253139
 21
284.963732841
  0
LINE
  5
3D3
100
AcDbEntity
  8
1-0
100
AcDbLine
  6
CONTINUOUS
370
30
 10
207.83375253139
 20
264.2276648635
 11
198.83375253139
 21
264.2276648635
  0
LINE
  5
3D4
100
AcDbEntity
  8
1-0
100
AcDbLine
  6
CONTINUOUS
370
30
 10
207.83375253139
 20
266.6998008185
 11
198.83375253139
 21
266.6998008185
  0
LINE
  5
3D5
100
AcDbEntity
  8
1-0
100
AcDbLine
  6
CONTINUOUS
370
30
 10
198.83375253139
 20
267.8148738502
 11
207.83375253139
 21
267.8148738502
  0
LINE
  5
3D6
100
AcDbEntity
  8
1-0
100
AcDbLine
  6
CONTINUOUS
370
30
 10
251.83375253139
 20
289.463732841
 11
251.83375253139
 21
271.463732841
  0
LINE
  5
3D7
100
AcDbEntity
  8
1-0
100
AcDbLine
  6
CONTINUOUS
370
30
 10
241.83375253139
 20
289.463732841
 11
241.83375253139
 21
271.463732841
  0
LINE
  5
3D8
100
AcDbEntity
  8
1-0
100
AcDbLine
  6
CONTINUOUS
370
15
 10
390.96516573069
 20
290.463732841
 11
390.96516573069
 21
270.463732841
  0
CIRCLE
  5
3D9
100
AcDbEntity
  8
1-0
100
AcDbCircle
  6
CONTINUOUS
370
30
 10
262.36395045299
 20
257.063732841
 40
4.5
  0
LINE
  5
3DA
100
AcDbEntity
  8
1-0
100
AcDbLine
  6
CONTINUOUS
370
30
 10
264.86395045299
 20
242.413732841
 11
267.86395045299
 21
242.413732841
  0
LINE
  5
3DB
100
AcDbEntity
  8
1-0
100
AcDbLine
  6
CONTINUOUS
370
30
 10
254.86395045299
 20
240.838732841
 11
264.86395045299
 21
240.838732841
  0
LINE
  5
3DC
100
AcDbEntity
  8
1-0
100
AcDbLine
  6
CONTINUOUS
370
30
 10
217.81395045299
 20
254.663732841
 11
217.81395045299
 21
252.063732841
  0
LINE
  5
3DD
100
AcDbEntity
  8
1-0
100
AcDbLine
  6
CONTINUOUS
370
30
 10
217.81395045299
 20
262.063732841
 11
217.81395045299
 21
258.063732841
  0
LINE
  5
3DE
100
AcDbEntity
  8
1-0
100
AcDbLine
  6
CONTINUOUS
370
30
 10
198.83375253139
 20
263.1125918319
 11
207.83375253139
 21
263.1125918319
  0
LINE
  5
3DF
100
AcDbEntity
  8
1-0
100
AcDbLine
  6
CONTINUOUS
370
30
 10
198.83375253139
 20
269.463732841
 11
198.33375253139
 21
268.963732841
  0
LINE
  5
3E0
100
AcDbEntity
  8
1-0
100
AcDbLine
  6
CONTINUOUS
370
30
 10
198.33375253139
 20
265.463732841
 11
198.33375253139
 21
268.963732841
  0
LINE
  5
3E1
100
AcDbEntity
  8
1-0
100
AcDbLine
  6
CONTINUOUS
370
30
 10
198.83375253139
 20
261.463732841
 11
198.33375253139
 21
261.963732841
  0
LINE
  5
3E2
100
AcDbEntity
  8
1-0
100
AcDbLine
  6
CONTINUOUS
370
30
 10
198.33375253139
 20
265.463732841
 11
198.33375253139
 21
261.963732841
  0
LINE
  5
3E3
100
AcDbEntity
  8
1-0
100
AcDbLine
  6
CONTINUOUS
370
30
 10
208.83375253139
 20
269.463732841
 11
209.33375253139
 21
269.463732841
  0
LINE
  5
3E4
100
AcDbEntity
  8
1-0
100
AcDbLine
  6
CONTINUOUS
370
30
 10
209.33375253139
 20
269.463732841
 11
209.36395045299
 21
245.463732841
  0
LINE
  5
3E5
100
AcDbEntity
  8
1-0
100
AcDbLine
  6
CONTINUOUS
370
30
 10
208.83375253139
 20
269.463732841
 11
208.83375253139
 21
245.463732841
  0
LINE
  5
3E6
100
AcDbEntity
  8
1-0
100
AcDbLine
  6
CONTINUOUS
370
30
 10
209.33375253139
 20
262.463732841
 11
209.33375253139
 21
270.463732841
  0
LINE
  5
3E7
100
AcDbEntity
  8
1-0
100
AcDbLine
  6
CONTINUOUS
370
30
 10
215.33375253139
 20
258.063732841
 11
215.33375253139
 21
254.663732841
  0
LINE
  5
3E8
100
AcDbEntity
  8
1-0
100
AcDbLine
  6
CONTINUOUS
370
30
 10
208.33375253139
 20
268.963732841
 11
208.83375253139
 21
268.963732841
  0
LINE
  5
3E9
100
AcDbEntity
  8
1-0
100
AcDbLine
  6
CONTINUOUS
370
30
 10
247.13375253139
 20
254.663732841
 11
247.13375253139
 21
252.663732841
  0
LINE
  5
3EA
100
AcDbEntity
  8
1-0
100
AcDbLine
  6
CONTINUOUS
370
30
 10
245.91395045299
 20
254.663732841
 11
244.56395045299
 21
254.663732841
  0
LINE
  5
3EB
100
AcDbEntity
  8
1-0
100
AcDbLine
  6
CONTINUOUS
370
30
 10
244.56395045299
 20
254.663732841
 11
244.56395045299
 21
258.063732841
  0
LINE
  5
3EC
100
AcDbEntity
  8
1-0
100
AcDbLine
  6
CONTINUOUS
370
30
 10
207.83375253139
 20
268.6998008185
 11
198.83375253139
 21
268.6998008185
  0
LINE
  5
3ED
100
AcDbEntity
  8
1-0
100
AcDbLine
  6
CONTINUOUS
370
30
 10
209.36395045299
 20
244.063732841
 11
209.36395045299
 21
252.063732841
  0
LINE
  5
3EE
100
AcDbEntity
  8
1-0
100
AcDbLine
  6
CONTINUOUS
370
30
 10
207.83375253139
 20
261.463732841
 11
198.83375253139
 21
261.463732841
  0
LINE
  5
3EF
100
AcDbEntity
  8
1-0
100
AcDbLine
  6
CONTINUOUS
370
30
 10
245.91395045299
 20
258.063732841
 11
244.56395045299
 21
258.063732841
  0
LINE
  5
3F0
100
AcDbEntity
  8
1-0
100
AcDbLine
  6
CONTINUOUS
370
15
 10
254.36395045299
 20
251.063732841
 11
254.86395045299
 21
251.063732841
  0
LINE
  5
3F1
100
AcDbEntity
  8
1-0
100
AcDbLine
  6
CONTINUOUS
370
30
 10
401.96516573069
 20
474.7612154799
 11
401.96516573069
 21
480.5112154799
  0
LINE
  5
3F2
100
AcDbEntity
  8
1-0
100
AcDbLine
  6
CONTINUOUS
370
30
 10
216.73375253139
 20
252.663732841
 11
216.73375253139
 21
254.663732841
  0
LINE
  5
3F3
100
AcDbEntity
  8
1-0
100
AcDbLine
  6
CONTINUOUS
370
30
 10
219.16395045299
 20
254.663732841
 11
217.81395045299
 21
254.663732841
  0
LINE
  5
3F4
100
AcDbEntity
  8
1-0
100
AcDbLine
  6
CONTINUOUS
370
30
 10
245.91395045299
 20
262.063732841
 11
217.81395045299
 21
262.063732841
  0
LINE
  5
3F5
100
AcDbEntity
  8
1-0
100
AcDbLine
  6
CONTINUOUS
370
30
 10
217.81395045299
 20
252.063732841
 11
245.91395045299
 21
252.063732841
  0
LINE
  5
3F6
100
AcDbEntity
  8
1-0
100
AcDbLine
  6
CONTINUOUS
370
30
 10
254.33375253139
 20
261.663732841
 11
254.86395045299
 21
261.663732841
  0
LINE
  5
3F7
100
AcDbEntity
  8
1-0
100
AcDbLine
  6
CONTINUOUS
370
30
 10
269.36395045299
 20
265.063732841
 11
254.86395045299
 21
265.063732841
  0
LINE
  5
3F8
100
AcDbEntity
  8
1-0
100
AcDbLine
  6
CONTINUOUS
370
30
 10
254.36395045299
 20
244.063732841
 11
269.36395045299
 21
244.063732841
  0
CIRCLE
  5
3F9
100
AcDbEntity
  8
1-0
100
AcDbCircle
  6
CONTINUOUS
370
30
 10
262.36395045299
 20
257.063732841
 40
7.5
  0
LINE
  5
3FA
100
AcDbEntity
  8
1-0
100
AcDbLine
  6
CONTINUOUS
370
30
 10
269.36395045299
 20
259.7563152446
 11
269.36395045299
 21
265.063732841
  0
LINE
  5
3FB
100
AcDbEntity
  8
1-0
100
AcDbLine
  6
CONTINUOUS
370
30
 10
269.36395045299
 20
244.063732841
 11
269.36395045299
 21
254.3711504375
  0
LINE
  5
3FC
100
AcDbEntity
  8
1-0
100
AcDbLine
  6
CONTINUOUS
370
30
 10
250.83375253139
 20
290.463732841
 11
251.83375253139
 21
289.463732841
  0
CIRCLE
  5
3FD
100
AcDbEntity
  8
1-0
100
AcDbCircle
  6
CONTINUOUS
370
15
 10
246.83375253139
 20
280.463732841
 40
3
  0
CIRCLE
  5
3FE
100
AcDbEntity
  8
1-0
100
AcDbCircle
  6
CONTINUOUS
370
15
 10
246.83375253139
 20
280.463732841
 40
1.2
  0
CIRCLE
  5
3FF
100
AcDbEntity
  8
1-0
100
AcDbCircle
  6
CONTINUOUS
370
15
 10
246.83375253139
 20
280.463732841
 40
1.75
  0
LINE
  5
400
100
AcDbEntity
  8
1-0
100
AcDbLine
  6
CONTINUOUS
370
30
 10
241.83375253139
 20
289.463732841
 11
241.41953896899
 21
290.463732841
  0
LINE
  5
401
100
AcDbEntity
  8
1-0
100
AcDbLine
  6
CONTINUOUS
370
30
 10
221.83375253139
 20
289.463732841
 11
222.24796609369
 21
290.463732841
  0
LINE
  5
402
100
AcDbEntity
  8
1-0
100
AcDbLine
  6
CONTINUOUS
370
30
 10
298.36395045299
 20
244.463732841
 11
299.06395045299
 21
245.163732841
  0
LINE
  5
403
100
AcDbEntity
  8
1-0
100
AcDbLine
  6
CONTINUOUS
370
30
 10
288.36395045299
 20
244.413732841
 11
298.36395045299
 21
244.413732841
  0
LINE
  5
404
100
AcDbEntity
  8
1-0
100
AcDbLine
  6
CONTINUOUS
370
15
 10
299.06395045299
 20
245.163732841
 11
310.66395045299
 21
245.163732841
  0
LINE
  5
405
100
AcDbEntity
  8
1-0
100
AcDbLine
  6
CONTINUOUS
370
30
 10
251.83375253139
 20
271.463732841
 11
250.83375253139
 21
270.463732841
  0
LINE
  5
406
100
AcDbEntity
  8
1-0
100
AcDbLine
  6
CONTINUOUS
370
30
 10
221.83375253139
 20
271.463732841
 11
222.24796609369
 21
270.463732841
  0
LINE
  5
407
100
AcDbEntity
  8
1-0
100
AcDbLine
  6
CONTINUOUS
370
30
 10
241.83375253139
 20
271.463732841
 11
241.41953896899
 21
270.463732841
  0
LINE
  5
408
100
AcDbEntity
  8
1-0
100
AcDbLine
  6
CONTINUOUS
370
15
 10
377.56659894589
 20
280.463732841
 11
396.30135071889
 21
280.463732841
  0
LINE
  5
409
100
AcDbEntity
  8
1-0
100
AcDbLine
  6
CONTINUOUS
370
30
 10
380.96516573069
 20
270.463732841
 11
380.96516573069
 21
290.463732841
  0
LINE
  5
40A
100
AcDbEntity
  8
1-0
100
AcDbLine
  6
HIDDEN
370
15
 10
409.96516573069
 20
452.9112154799
 11
410.65798605379
 21
451.7112154799
  0
LINE
  5
40B
100
AcDbEntity
  8
1-0
100
AcDbLine
  6
HIDDEN
370
15
 10
409.96516573069
 20
450.5112154799
 11
410.65798605379
 21
451.7112154799
  0
LINE
  5
40C
100
AcDbEntity
  8
1-0
100
AcDbLine
  6
CONTINUOUS
370
15
 10
297.75614376159
 20
370.8607764199
 11
343.79717810999
 21
370.8607764199
  0
LINE
  5
40D
100
AcDbEntity
  8
1-0
100
AcDbLine
  6
HIDDEN
370
15
 10
382.71516573069
 20
478.4612154799
 11
393.46516573069
 21
478.4612154799
  0
LINE
  5
40E
100
AcDbEntity
  8
1-0
100
AcDbLine
  6
CONTINUOUS
370
30
 10
382.71516573069
 20
478.4612154799
 11
389.21516573069
 21
484.9612154799
  0
LINE
  5
40F
100
AcDbEntity
  8
1-0
100
AcDbLine
  6
CONTINUOUS
370
30
 10
389.21516573069
 20
448.4612154799
 11
382.71516573069
 21
454.9612154799
  0
LINE
  5
410
100
AcDbEntity
  8
1-0
100
AcDbLine
  6
CONTINUOUS
370
30
 10
219.16395045299
 20
254.663732841
 11
219.16395045299
 21
258.063732841
  0
LINE
  5
411
100
AcDbEntity
  8
1-0
100
AcDbLine
  6
CONTINUOUS
370
30
 10
248.83375253139
 20
258.063732841
 11
248.83375253139
 21
254.663732841
  0
LINE
  5
412
100
AcDbEntity
  8
1-0
100
AcDbLine
  6
CONTINUOUS
370
30
 10
248.83375253139
 20
254.663732841
 11
247.13375253139
 21
254.663732841
  0
LINE
  5
413
100
AcDbEntity
  8
1-0
100
AcDbLine
  6
CONTINUOUS
370
30
 10
248.83375253139
 20
258.063732841
 11
247.13375253139
 21
258.063732841
  0
LINE
  5
414
100
AcDbEntity
  8
1-0
100
AcDbLine
  6
CONTINUOUS
370
30
 10
254.33375253139
 20
252.663732841
 11
247.13375253139
 21
252.663732841
  0
LINE
  5
415
100
AcDbEntity
  8
1-0
100
AcDbLine
  6
CENTER
370
15
 10
262.36395045299
 20
269.563732841
 11
262.36395045299
 21
244.563732841
  0
LINE
  5
416
100
AcDbEntity
  8
1-0
100
AcDbLine
  6
CONTINUOUS
370
30
 10
219.16395045299
 20
258.063732841
 11
217.81395045299
 21
258.063732841
  0
LINE
  5
417
100
AcDbEntity
  8
1-0
100
AcDbLine
  6
CONTINUOUS
370
15
 10
254.36395045299
 20
251.063732841
 11
254.36395045299
 21
244.063732841
  0
LINE
  5
418
100
AcDbEntity
  8
1-0
100
AcDbLine
  6
CONTINUOUS
370
15
 10
254.33375253139
 20
253.663732841
 11
254.33375253139
 21
261.663732841
  0
LINE
  5
419
100
AcDbEntity
  8
1-0
100
AcDbLine
  6
CONTINUOUS
370
30
 10
254.36395045299
 20
252.063732841
 11
254.36395045299
 21
244.063732841
  0
LINE
  5
41A
100
AcDbEntity
  8
1-0
100
AcDbLine
  6
CONTINUOUS
370
30
 10
247.13375253139
 20
262.463732841
 11
247.13375253139
 21
258.063732841
  0
LINE
  5
41B
100
AcDbEntity
  8
1-0
100
AcDbLine
  6
CONTINUOUS
370
30
 10
400.46516573069
 20
474.6202293249
 11
400.46516573069
 21
479.9612154799
  0
ARC
  5
41C
100
AcDbEntity
  8
1-0
100
AcDbCircle
  6
CONTINUOUS
370
30
 10
401.96516573069
 20
466.7112154799
 40
8.05
100
AcDbArc
 50
100.7389993055
 51
259.2610006945
  0
LINE
  5
41D
100
AcDbEntity
  8
1-0
100
AcDbLine
  6
CONTINUOUS
370
30
 10
400.46516573069
 20
453.4612154799
 11
400.46516573069
 21
458.802201635
  0
LINE
  5
41E
100
AcDbEntity
  8
1-0
100
AcDbLine
  6
CONTINUOUS
370
30
 10
245.91395045299
 20
258.063732841
 11
245.91395045299
 21
262.063732841
  0
LINE
  5
41F
100
AcDbEntity
  8
1-0
100
AcDbLine
  6
CONTINUOUS
370
30
 10
245.91395045299
 20
252.063732841
 11
245.91395045299
 21
254.663732841
  0
LINE
  5
420
100
AcDbEntity
  8
1-0
100
AcDbLine
  6
CONTINUOUS
370
30
 10
254.33375253139
 20
270.463732841
 11
254.33375253139
 21
252.663732841
  0
ARC
  5
421
100
AcDbEntity
  8
1-0
100
AcDbCircle
  6
CONTINUOUS
370
30
 10
401.96516573069
 20
466.7112154799
 40
8.05
100
AcDbArc
 50
270
 51
90
  0
LINE
  5
422
100
AcDbEntity
  8
1-0
100
AcDbLine
  6
CONTINUOUS
370
30
 10
401.96516573069
 20
482.9112154799
 11
401.96516573069
 21
486.7112154799
  0
ARC
  5
423
100
AcDbEntity
  8
1-0
100
AcDbCircle
  6
HIDDEN
370
15
 10
508.96516573069
 20
228.163732841
 40
2.5
100
AcDbArc
 50
90
 51
180
  0
CIRCLE
  5
424
100
AcDbEntity
  8
1-0
100
AcDbCircle
  6
HIDDEN
370
15
 10
531.46516573069
 20
225.663732841
 40
1.75
  0
LINE
  5
425
100
AcDbEntity
  8
1-0
100
AcDbLine
  6
CONTINUOUS
370
30
 10
401.96516573069
 20
452.9112154799
 11
401.96516573069
 21
458.6612154799
  0
LINE
  5
426
100
AcDbEntity
  8
1-0
100
AcDbLine
  6
CONTINUOUS
370
30
 10
401.96516573069
 20
446.7112154799
 11
401.96516573069
 21
450.5112154799
  0
LINE
  5
427
100
AcDbEntity
  8
1-0
100
AcDbLine
  6
CONTINUOUS
370
30
 10
401.96516573069
 20
450.5112154799
 11
401.96516573069
 21
452.9112154799
  0
LINE
  5
428
100
AcDbEntity
  8
1-0
100
AcDbLine
  6
CONTINUOUS
370
30
 10
400.46516573069
 20
449.9612154799
 11
400.46516573069
 21
453.4612154799
  0
LINE
  5
429
100
AcDbEntity
  8
1-0
100
AcDbLine
  6
CONTINUOUS
370
30
 10
401.96516573069
 20
480.5112154799
 11
401.96516573069
 21
482.9112154799
  0
LINE
  5
42A
100
AcDbEntity
  8
1-0
100
AcDbLine
  6
CONTINUOUS
370
30
 10
390.96516573069
 20
446.7112154799
 11
389.21516573069
 21
448.4612154799
  0
LINE
  5
42B
100
AcDbEntity
  8
1-0
100
AcDbLine
  6
CONTINUOUS
370
30
 10
390.96516573069
 20
486.7112154799
 11
400.46516573069
 21
486.7112154799
  0
LINE
  5
42C
100
AcDbEntity
  8
1-0
100
AcDbLine
  6
CONTINUOUS
370
15
 10
254.86395045299
 20
253.663732841
 11
254.33375253139
 21
253.663732841
  0
LINE
  5
42D
100
AcDbEntity
  8
1-0
100
AcDbLine
  6
CONTINUOUS
370
30
 10
254.86395045299
 20
265.063732841
 11
254.86395045299
 21
251.063732841
  0
LINE
  5
42E
100
AcDbEntity
  8
1-0
100
AcDbLine
  6
CONTINUOUS
370
30
 10
285.36395045299
 20
231.413732841
 11
288.36395045299
 21
230.913732841
  0
LINE
  5
42F
100
AcDbEntity
  8
1-0
100
AcDbLine
  6
CONTINUOUS
370
30
 10
288.36395045299
 20
230.913732841
 11
298.36395045299
 21
230.913732841
  0
LINE
  5
430
100
AcDbEntity
  8
1-0
100
AcDbLine
  6
CONTINUOUS
370
30
 10
298.36395045299
 20
230.863732841
 11
299.06395045299
 21
230.163732841
  0
LINE
  5
431
100
AcDbEntity
  8
1-0
100
AcDbLine
  6
CONTINUOUS
370
15
 10
299.06395045299
 20
230.163732841
 11
310.66395045299
 21
230.163732841
  0
LINE
  5
432
100
AcDbEntity
  8
1-0
100
AcDbLine
  6
CONTINUOUS
370
30
 10
311.36395045299
 20
233.163732841
 11
314.17303847419
 21
233.163732841
  0
LINE
  5
433
100
AcDbEntity
  8
1-0
100
AcDbLine
  6
CONTINUOUS
370
30
 10
311.36395045299
 20
233.163732841
 11
310.66395045299
 21
230.163732841
  0
LINE
  5
434
100
AcDbEntity
  8
1-0
100
AcDbLine
  6
CONTINUOUS
370
30
 10
285.36395045299
 20
243.913732841
 11
288.36395045299
 21
244.413732841
  0
LINE
  5
435
100
AcDbEntity
  8
1-0
100
AcDbLine
  6
HIDDEN
370
15
 10
393.46516573069
 20
449.9612154799
 11
393.46516573069
 21
448.4612154799
  0
LINE
  5
436
100
AcDbEntity
  8
1-0
100
AcDbLine
  6
HIDDEN
370
15
 10
393.46516573069
 20
454.9612154799
 11
393.46516573069
 21
453.4612154799
  0
LINE
  5
437
100
AcDbEntity
  8
1-0
100
AcDbLine
  6
HIDDEN
370
15
 10
393.46516573069
 20
453.4612154799
 11
393.46516573069
 21
449.9612154799
  0
LINE
  5
438
100
AcDbEntity
  8
1-0
100
AcDbLine
  6
CONTINUOUS
370
30
 10
311.36395045299
 20
242.163732841
 11
314.17303847419
 21
242.163732841
  0
LINE
  5
439
100
AcDbEntity
  8
1-0
100
AcDbLine
  6
CONTINUOUS
370
30
 10
311.36395045299
 20
242.163732841
 11
310.66395045299
 21
245.163732841
  0
ELLIPSE
  5
43A
100
AcDbEntity
  8
1-0
100
AcDbEllipse
  6
CONTINUOUS
370
30
 10
385.96516573069
 20
280.463732841
 30
0.0
 11
3.25
 21
0
 31
0.0
210
0.0
220
0.0
230
1.0
 40
0.9230769231
 41
0
 42
6.28318530717959
  0
LINE
  5
43B
100
AcDbEntity
  8
1-0
100
AcDbLine
  6
HIDDEN
370
15
 10
401.96516573069
 20
450.5112154799
 11
409.96516573069
 21
450.5112154799
  0
LINE
  5
43C
100
AcDbEntity
  8
1-0
100
AcDbLine
  6
CONTINUOUS
370
30
 10
492.66516573069
 20
173.3121419087
 11
499.66516573069
 21
173.3121419087
  0
LINE
  5
43D
100
AcDbEntity
  8
1-0
100
AcDbLine
  6
CONTINUOUS
370
30
 10
499.66516573069
 20
174.0961053832
 11
492.66516573069
 21
174.0961053832
  0
LINE
  5
43E
100
AcDbEntity
  8
1-0
100
AcDbLine
  6
HIDDEN
370
15
 10
401.96516573069
 20
483.2112154799
 11
409.96516573069
 21
483.2112154799
  0
LINE
  5
43F
100
AcDbEntity
  8
1-0
100
AcDbLine
  6
HIDDEN
370
15
 10
409.96516573069
 20
480.2112154799
 11
409.96516573069
 21
483.2112154799
  0
LINE
  5
440
100
AcDbEntity
  8
1-0
100
AcDbLine
  6
HIDDEN
370
15
 10
401.96516573069
 20
480.2112154799
 11
409.96516573069
 21
480.2112154799
  0
LINE
  5
441
100
AcDbEntity
  8
1-0
100
AcDbLine
  6
HIDDEN
370
15
 10
409.96516573069
 20
482.9112154799
 11
410.65798605379
 21
481.7112154799
  0
LINE
  5
442
100
AcDbEntity
  8
1-0
100
AcDbLine
  6
HIDDEN
370
15
 10
409.96516573069
 20
480.5112154799
 11
410.65798605379
 21
481.7112154799
  0
LINE
  5
443
100
AcDbEntity
  8
1-0
100
AcDbLine
  6
CONTINUOUS
370
15
 10
393.46516573069
 20
483.4612154799
 11
393.46516573069
 21
484.9612154799
  0
LINE
  5
444
100
AcDbEntity
  8
1-0
100
AcDbLine
  6
CONTINUOUS
370
15
 10
393.46516573069
 20
478.4612154799
 11
393.46516573069
 21
479.9612154799
  0
LINE
  5
445
100
AcDbEntity
  8
1-0
100
AcDbLine
  6
HIDDEN
370
15
 10
382.71516573069
 20
454.9612154799
 11
393.46516573069
 21
454.9612154799
  0
LINE
  5
446
100
AcDbEntity
  8
1-0
100
AcDbLine
  6
CENTER
370
15
 10
384.96516573069
 20
491.4936807577
 11
384.96516573069
 21
441.9940373408
  0
LINE
  5
447
100
AcDbEntity
  8
1-0
100
AcDbLine
  6
CONTINUOUS
370
30
 10
380.96516573069
 20
476.7112154799
 11
382.71516573069
 21
478.4612154799
  0
LINE
  5
448
100
AcDbEntity
  8
1-0
100
AcDbLine
  6
CONTINUOUS
370
30
 10
380.96516573069
 20
456.7112154799
 11
380.96516573069
 21
476.7112154799
  0
LINE
  5
449
100
AcDbEntity
  8
1-0
100
AcDbLine
  6
CONTINUOUS
370
30
 10
382.71516573069
 20
454.9612154799
 11
380.96516573069
 21
456.7112154799
  0
ARC
  5
44A
100
AcDbEntity
  8
1-0
100
AcDbCircle
  6
CONTINUOUS
370
30
 10
401.96516573069
 20
466.7112154799
 40
9
100
AcDbArc
 50
270
 51
90
  0
ARC
  5
44B
100
AcDbEntity
  8
1-0
100
AcDbCircle
  6
CONTINUOUS
370
30
 10
401.96516573069
 20
466.7112154799
 40
9
100
AcDbArc
 50
99.5940682269
 51
260.4059317731
  0
LINE
  5
44C
100
AcDbEntity
  8
1-0
100
AcDbLine
  6
HIDDEN
370
15
 10
389.21516573069
 20
448.4612154799
 11
393.46516573069
 21
448.4612154799
  0
LINE
  5
44D
100
AcDbEntity
  8
1-0
100
AcDbLine
  6
CONTINUOUS
370
30
 10
389.21516573069
 20
484.9612154799
 11
390.96516573069
 21
486.7112154799
  0
LINE
  5
44E
100
AcDbEntity
  8
1-0
100
AcDbLine
  6
CONTINUOUS
370
30
 10
454.46516573069
 20
225.663732841
 11
454.46516573069
 21
209.663732841
  0
ARC
  5
44F
100
AcDbEntity
  8
1-0
100
AcDbCircle
  6
CONTINUOUS
370
30
 10
473.96516573069
 20
229.663732841
 40
3
100
AcDbArc
 50
135.4294142949
 51
9.86253643260001
  0
LINE
  5
450
100
AcDbEntity
  8
1-0
100
AcDbLine
  6
CONTINUOUS
370
30
 10
488.96516573069
 20
233.663732841
 11
492.26516573069
 21
233.663732841
  0
LINE
  5
451
100
AcDbEntity
  8
1-0
100
AcDbLine
  6
CONTINUOUS
370
30
 10
400.46516573069
 20
483.4612154799
 11
400.46516573069
 21
486.7112154799
  0
LINE
  5
452
100
AcDbEntity
  8
1-0
100
AcDbLine
  6
CONTINUOUS
370
30
 10
400.46516573069
 20
479.9612154799
 11
400.46516573069
 21
483.4612154799
  0
LINE
  5
453
100
AcDbEntity
  8
1-0
100
AcDbLine
  6
CONTINUOUS
370
30
 10
400.46516573069
 20
446.7112154799
 11
400.46516573069
 21
449.9612154799
  0
ARC
  5
454
100
AcDbEntity
  8
1-0
100
AcDbCircle
  6
HIDDEN
370
15
 10
512.96516573069
 20
225.633732841
 40
2.53
100
AcDbArc
 50
359.9999984808
 51
188.8321833828
  0
ARC
  5
455
100
AcDbEntity
  8
1-0
100
AcDbCircle
  6
CONTINUOUS
370
30
 10
492.96516573069
 20
199.663732841
 40
10
100
AcDbArc
 50
0
 51
90
  0
CIRCLE
  5
456
100
AcDbEntity
  8
1-0
100
AcDbCircle
  6
HIDDEN
370
15
 10
512.96516573069
 20
200.663732841
 40
5
  0
LINE
  5
457
100
AcDbEntity
  8
1-0
100
AcDbLine
  6
HIDDEN
370
15
 10
532.46516573069
 20
207.663732841
 11
536.46516573069
 21
207.663732841
  0
LINE
  5
458
100
AcDbEntity
  8
1-0
100
AcDbLine
  6
HIDDEN
370
15
 10
536.46516573069
 20
207.663732841
 11
536.46516573069
 21
230.663732841
  0
LINE
  5
459
100
AcDbEntity
  8
1-0
100
AcDbLine
  6
CONTINUOUS
370
15
 10
502.96516573069
 20
185.163732841
 11
502.96516573069
 21
175.163732841
  0
LINE
  5
45A
100
AcDbEntity
  8
1-0
100
AcDbLine
  6
CONTINUOUS
370
30
 10
500.16516573069
 20
175.163732841
 11
502.96516573069
 21
175.163732841
  0
LINE
  5
45B
100
AcDbEntity
  8
1-0
100
AcDbLine
  6
CONTINUOUS
370
30
 10
500.16516573069
 20
185.163732841
 11
502.96516573069
 21
185.163732841
  0
LINE
  5
45C
100
AcDbEntity
  8
1-0
100
AcDbLine
  6
CONTINUOUS
370
30
 10
502.96516573069
 20
160.663732841
 11
519.46516573069
 21
160.663732841
  0
LINE
  5
45D
100
AcDbEntity
  8
1-0
100
AcDbLine
  6
CENTER
370
15
 10
490.67095840869
 20
180.163732841
 11
504.88469578239
 21
180.163732841
  0
LINE
  5
45E
100
AcDbEntity
  8
1-0
100
AcDbLine
  6
CONTINUOUS
370
30
 10
400.46516573069
 20
446.7112154799
 11
390.96516573069
 21
446.7112154799
  0
LINE
  5
45F
100
AcDbEntity
  8
1-0
100
AcDbLine
  6
HIDDEN
370
15
 10
401.96516573069
 20
452.9112154799
 11
409.96516573069
 21
452.9112154799
  0
LINE
  5
460
100
AcDbEntity
  8
1-0
100
AcDbLine
  6
HIDDEN
370
15
 10
393.46516573069
 20
449.9612154799
 11
400.46516573069
 21
449.9612154799
  0
LINE
  5
461
100
AcDbEntity
  8
1-0
100
AcDbLine
  6
HIDDEN
370
15
 10
393.46516573069
 20
453.4612154799
 11
400.46516573069
 21
453.4612154799
  0
LINE
  5
462
100
AcDbEntity
  8
1-0
100
AcDbLine
  6
HIDDEN
370
15
 10
393.46516573069
 20
479.9612154799
 11
400.46516573069
 21
479.9612154799
  0
LINE
  5
463
100
AcDbEntity
  8
1-0
100
AcDbLine
  6
HIDDEN
370
15
 10
393.46516573069
 20
483.4612154799
 11
400.46516573069
 21
483.4612154799
  0
LINE
  5
464
100
AcDbEntity
  8
1-0
100
AcDbLine
  6
HIDDEN
370
15
 10
401.96516573069
 20
482.9112154799
 11
409.96516573069
 21
482.9112154799
  0
LINE
  5
465
100
AcDbEntity
  8
1-0
100
AcDbLine
  6
HIDDEN
370
15
 10
401.96516573069
 20
480.5112154799
 11
409.96516573069
 21
480.5112154799
  0
LINE
  5
466
100
AcDbEntity
  8
1-0
100
AcDbLine
  6
HIDDEN
370
15
 10
393.46516573069
 20
479.9612154799
 11
393.46516573069
 21
483.4612154799
  0
LINE
  5
467
100
AcDbEntity
  8
1-0
100
AcDbLine
  6
CONTINUOUS
370
30
 10
499.66516573069
 20
186.2313602989
 11
492.66516573069
 21
186.2313602989
  0
LINE
  5
468
100
AcDbEntity
  8
1-0
100
AcDbLine
  6
CONTINUOUS
370
30
 10
492.66516573069
 20
187.0153237734
 11
499.66516573069
 21
187.0153237734
  0
LINE
  5
469
100
AcDbEntity
  8
1-0
100
AcDbLine
  6
CONTINUOUS
370
30
 10
492.66516573069
 20
187.4998398465
 11
499.66516573069
 21
187.4998398465
  0
LINE
  5
46A
100
AcDbEntity
  8
1-0
100
AcDbLine
  6
HIDDEN
370
15
 10
401.96516573069
 20
453.2112154799
 11
409.96516573069
 21
453.2112154799
  0
LINE
  5
46B
100
AcDbEntity
  8
1-0
100
AcDbLine
  6
HIDDEN
370
15
 10
409.96516573069
 20
453.2112154799
 11
409.96516573069
 21
450.2112154799
  0
LINE
  5
46C
100
AcDbEntity
  8
1-0
100
AcDbLine
  6
HIDDEN
370
15
 10
401.96516573069
 20
450.2112154799
 11
409.96516573069
 21
450.2112154799
  0
LINE
  5
46D
100
AcDbEntity
  8
1-0
100
AcDbLine
  6
CONTINUOUS
370
30
 10
492.66516573069
 20
172.8276258355
 11
499.66516573069
 21
172.8276258355
  0
LINE
  5
46E
100
AcDbEntity
  8
1-0
100
AcDbLine
  6
CONTINUOUS
370
30
 10
465.96516573069
 20
252.313732841
 11
462.46516573069
 21
252.313732841
  0
LINE
  5
46F
100
AcDbEntity
  8
1-0
100
AcDbLine
  6
CONTINUOUS
370
30
 10
465.96516573069
 20
257.063732841
 11
465.96516573069
 21
261.813732841
  0
LINE
  5
470
100
AcDbEntity
  8
1-0
100
AcDbLine
  6
CONTINUOUS
370
30
 10
492.66516573069
 20
175.1452532934
 11
499.66516573069
 21
175.1452532934
  0
LINE
  5
471
100
AcDbEntity
  8
1-0
100
AcDbLine
  6
CONTINUOUS
370
30
 10
499.66516573069
 20
176.413732841
 11
492.66516573069
 21
176.413732841
  0
LINE
  5
472
100
AcDbEntity
  8
1-0
100
AcDbLine
  6
CONTINUOUS
370
30
 10
492.66516573069
 20
177.8461053832
 11
499.66516573069
 21
177.8461053832
  0
LINE
  5
473
100
AcDbEntity
  8
1-0
100
AcDbLine
  6
CONTINUOUS
370
30
 10
492.16516573069
 20
180.9137335214
 11
494.16516573069
 21
180.9137335214
  0
LINE
  5
474
100
AcDbEntity
  8
1-0
100
AcDbLine
  6
CONTINUOUS
370
30
 10
492.16516573069
 20
179.4137335214
 11
494.16516573069
 21
179.4137335214
  0
LINE
  5
475
100
AcDbEntity
  8
1-0
100
AcDbLine
  6
CONTINUOUS
370
30
 10
492.16516573069
 20
187.163732841
 11
492.16516573069
 21
180.9137335214
  0
LINE
  5
476
100
AcDbEntity
  8
1-0
100
AcDbLine
  6
CONTINUOUS
370
30
 10
492.16516573069
 20
179.4137335214
 11
492.16516573069
 21
173.163732841
  0
LINE
  5
477
100
AcDbEntity
  8
1-0
100
AcDbLine
  6
CONTINUOUS
370
30
 10
494.16516573069
 20
180.9137335214
 11
494.16516573069
 21
179.4137335214
  0
LINE
  5
478
100
AcDbEntity
  8
1-0
100
AcDbLine
  6
CONTINUOUS
370
30
 10
492.16516573069
 20
187.163732841
 11
492.66516573069
 21
187.663732841
  0
LINE
  5
479
100
AcDbEntity
  8
1-0
100
AcDbLine
  6
HIDDEN
370
15
 10
389.21516573069
 20
484.9612154799
 11
393.46516573069
 21
484.9612154799
  0
LINE
  5
47A
100
AcDbEntity
  8
1-0
100
AcDbLine
  6
CONTINUOUS
370
15
 10
385.96516573069
 20
481.7112154799
 11
384.30872381739
 21
484.5802570336
  0
LINE
  5
47B
100
AcDbEntity
  8
1-0
100
AcDbLine
  6
CONTINUOUS
370
15
 10
385.96516573069
 20
481.7112154799
 11
383.09612417709
 21
483.3676573933
  0
LINE
  5
47C
100
AcDbEntity
  8
1-0
100
AcDbLine
  6
CONTINUOUS
370
15
 10
385.96516573069
 20
481.7112154799
 11
355.22739999949
 21
512.4489812112
  0
LINE
  5
47D
100
AcDbEntity
  8
1-0
100
AcDbLine
  6
CONTINUOUS
370
30
 10
454.46516573069
 20
233.663732841
 11
454.46516573069
 21
225.663732841
  0
LINE
  5
47E
100
AcDbEntity
  8
1-0
100
AcDbLine
  6
CONTINUOUS
370
30
 10
469.96516573069
 20
225.663732841
 11
469.96516573069
 21
233.9220754543
  0
LINE
  5
47F
100
AcDbEntity
  8
1-0
100
AcDbLine
  6
CONTINUOUS
370
30
 10
454.46516573069
 20
233.663732841
 11
469.96516573069
 21
233.663732841
  0
LINE
  5
480
100
AcDbEntity
  8
1-0
100
AcDbLine
  6
CONTINUOUS
370
15
 10
461.86516573069
 20
233.663732841
 11
454.46516573069
 21
233.663732841
  0
LINE
  5
481
100
AcDbEntity
  8
1-0
100
AcDbLine
  6
CONTINUOUS
370
30
 10
469.88565207089
 20
234.063732841
 11
463.16516573069
 21
234.063732841
  0
ARC
  5
482
100
AcDbEntity
  8
1-0
100
AcDbCircle
  6
CONTINUOUS
370
15
 10
512.96516573069
 20
175.693732841
 40
2.53
100
AcDbArc
 50
179.9999984808
 51
8.83218338280003
  0
ARC
  5
483
100
AcDbEntity
  8
1-0
100
AcDbCircle
  6
HIDDEN
370
15
 10
508.96516573069
 20
173.163732841
 40
2.5
100
AcDbArc
 50
180
 51
270
  0
LINE
  5
484
100
AcDbEntity
  8
1-0
100
AcDbLine
  6
HIDDEN
370
15
 10
532.46516573069
 20
193.663732841
 11
536.46516573069
 21
193.663732841
  0
LINE
  5
485
100
AcDbEntity
  8
1-0
100
AcDbLine
  6
CONTINUOUS
370
30
 10
491.26516573069
 20
234.063732841
 11
488.96516573069
 21
234.063732841
  0
LINE
  5
486
100
AcDbEntity
  8
1-0
100
AcDbLine
  6
CONTINUOUS
370
30
 10
499.46516573069
 20
229.063732841
 11
499.96516573069
 21
229.063732841
  0
LINE
  5
487
100
AcDbEntity
  8
1-0
100
AcDbLine
  6
HIDDEN
370
15
 10
536.46516573069
 20
230.663732841
 11
508.96516573069
 21
230.663732841
  0
LINE
  5
488
100
AcDbEntity
  8
1-0
100
AcDbLine
  6
CONTINUOUS
370
15
 10
519.46516573069
 20
160.663732841
 11
519.46516573069
 21
189.8290662564
  0
LINE
  5
489
100
AcDbEntity
  8
1-0
100
AcDbLine
  6
CONTINUOUS
370
30
 10
430.76516573069
 20
260.3337796699
 11
426.53521255959
 21
264.563732841
  0
LINE
  5
48A
100
AcDbEntity
  8
1-0
100
AcDbLine
  6
CONTINUOUS
370
30
 10
430.76516573069
 20
256.0911389828
 11
422.29257187249
 21
264.563732841
  0
LINE
  5
48B
100
AcDbEntity
  8
1-0
100
AcDbLine
  6
CONTINUOUS
370
30
 10
430.76516573069
 20
251.8484982957
 11
419.16516573069
 21
263.4484982957
  0
LINE
  5
48C
100
AcDbEntity
  8
1-0
100
AcDbLine
  6
CONTINUOUS
370
30
 10
428.80729049819
 20
249.563732841
 11
419.16516573069
 21
259.2058576085
  0
LINE
  5
48D
100
AcDbEntity
  8
1-0
100
AcDbLine
  6
CONTINUOUS
370
30
 10
424.56464981109
 20
249.563732841
 11
419.16516573069
 21
254.9632169214
  0
LINE
  5
48E
100
AcDbEntity
  8
1-0
100
AcDbLine
  6
CONTINUOUS
370
30
 10
420.32200912399
 20
249.563732841
 11
419.16516573069
 21
250.7205762343
  0
LINE
  5
48F
100
AcDbEntity
  8
1-0
100
AcDbLine
  6
CONTINUOUS
370
30
 10
430.75673388509
 20
249.563732841
 11
430.76516573069
 21
249.5721646867
  0
LINE
  5
490
100
AcDbEntity
  8
1-0
100
AcDbLine
  6
CONTINUOUS
370
30
 10
426.51409319799
 20
249.563732841
 11
430.76516573069
 21
253.8148053738
  0
LINE
  5
491
100
AcDbEntity
  8
1-0
100
AcDbLine
  6
CONTINUOUS
370
30
 10
422.27145251089
 20
249.563732841
 11
430.76516573069
 21
258.0574460609
  0
LINE
  5
492
100
AcDbEntity
  8
1-0
100
AcDbLine
  6
CONTINUOUS
370
30
 10
419.16516573069
 20
250.700086748
 11
430.76516573069
 21
262.300086748
  0
LINE
  5
493
100
AcDbEntity
  8
1-0
100
AcDbLine
  6
CONTINUOUS
370
30
 10
419.16516573069
 20
254.9427274352
 11
428.78617113659
 21
264.563732841
  0
LINE
  5
494
100
AcDbEntity
  8
1-0
100
AcDbLine
  6
CONTINUOUS
370
30
 10
419.16516573069
 20
259.1853681223
 11
424.54353044949
 21
264.563732841
  0
LINE
  5
495
100
AcDbEntity
  8
1-0
100
AcDbLine
  6
CONTINUOUS
370
30
 10
419.16516573069
 20
263.4280088094
 11
420.30088976239
 21
264.563732841
  0
LINE
  5
496
100
AcDbEntity
  8
1-0
100
AcDbLine
  6
CONTINUOUS
370
30
 10
465.96516573069
 20
257.063732841
 11
465.96516573069
 21
252.313732841
  0
LINE
  5
497
100
AcDbEntity
  8
1-0
100
AcDbLine
  6
HIDDEN
370
15
 10
515.46516573069
 20
175.693732841
 11
515.46516573069
 21
226.022191333
  0
LINE
  5
498
100
AcDbEntity
  8
1-0
100
AcDbLine
  6
HIDDEN
370
15
 10
506.46516573069
 20
228.163732841
 11
506.46516573069
 21
173.163732841
  0
LINE
  5
499
100
AcDbEntity
  8
1-0
100
AcDbLine
  6
HIDDEN
370
15
 10
510.43516573069
 20
175.693732841
 11
510.43516573069
 21
225.6337327623
  0
ARC
  5
49A
100
AcDbEntity
  8
1-0
100
AcDbCircle
  6
HIDDEN
370
15
 10
532.46516573069
 20
200.663732841
 40
7
100
AcDbArc
 50
269.9999938248
 51
90.0000032782001
  0
LINE
  5
49B
100
AcDbEntity
  8
1-0
100
AcDbLine
  6
CENTER
370
15
 10
532.56516573069
 20
225.663732841
 11
532.56516573069
 21
175.663732841
  0
CIRCLE
  5
49C
100
AcDbEntity
  8
1-0
100
AcDbCircle
  6
CONTINUOUS
370
30
 10
532.56516573069
 20
200.663732841
 40
13
  0
CIRCLE
  5
49D
100
AcDbEntity
  8
1-0
100
AcDbCircle
  6
CONTINUOUS
370
30
 10
532.56516573069
 20
200.663732841
 40
13.5
  0
LINE
  5
49E
100
AcDbEntity
  8
1-0
100
AcDbLine
  6
CONTINUOUS
370
30
 10
476.46516573069
 20
261.663732841
 11
476.46516573069
 21
253.663732841
  0
LINE
  5
49F
100
AcDbEntity
  8
1-0
100
AcDbLine
  6
CONTINUOUS
370
30
 10
475.96516573069
 20
257.063732841
 11
475.96516573069
 21
253.888732841
  0
LINE
  5
4A0
100
AcDbEntity
  8
1-0
100
AcDbLine
  6
CONTINUOUS
370
30
 10
502.96516573069
 20
160.663732841
 11
502.96516573069
 21
199.663732841
  0
LINE
  5
4A1
100
AcDbEntity
  8
1-0
100
AcDbLine
  6
CONTINUOUS
370
30
 10
502.16516573069
 20
185.163732841
 11
502.16516573069
 21
175.163732841
  0
LINE
  5
4A2
100
AcDbEntity
  8
1-0
100
AcDbLine
  6
CONTINUOUS
370
30
 10
499.66516573069
 20
179.3797693665
 11
492.66516573069
 21
179.3797693665
  0
LINE
  5
4A3
100
AcDbEntity
  8
1-0
100
AcDbLine
  6
CONTINUOUS
370
30
 10
499.66516573069
 20
180.9476963156
 11
492.66516573069
 21
180.9476963156
  0
LINE
  5
4A4
100
AcDbEntity
  8
1-0
100
AcDbLine
  6
CONTINUOUS
370
30
 10
492.66516573069
 20
182.4813602989
 11
499.66516573069
 21
182.4813602989
  0
LINE
  5
4A5
100
AcDbEntity
  8
1-0
100
AcDbLine
  6
CONTINUOUS
370
30
 10
499.66516573069
 20
183.913732841
 11
492.66516573069
 21
183.913732841
  0
LINE
  5
4A6
100
AcDbEntity
  8
1-0
100
AcDbLine
  6
CONTINUOUS
370
30
 10
492.66516573069
 20
185.1822123887
 11
499.66516573069
 21
185.1822123887
  0
LINE
  5
4A7
100
AcDbEntity
  8
1-0
100
AcDbLine
  6
CONTINUOUS
370
30
 10
464.51516573069
 20
241.463732841
 11
463.16516573069
 21
241.463732841
  0
LINE
  5
4A8
100
AcDbEntity
  8
1-0
100
AcDbLine
  6
CONTINUOUS
370
30
 10
458.46516573069
 20
285.463732841
 11
458.46516573069
 21
288.963732841
  0
ARC
  5
4A9
100
AcDbEntity
  8
1-0
100
AcDbCircle
  6
CONTINUOUS
370
30
 10
458.96516573069
 20
288.963732841
 40
0.5
100
AcDbArc
 50
90
 51
180
  0
LINE
  5
4AA
100
AcDbEntity
  8
1-0
100
AcDbLine
  6
CONTINUOUS
370
30
 10
499.66516573069
 20
187.663732841
 11
499.66516573069
 21
172.663732841
  0
LINE
  5
4AB
100
AcDbEntity
  8
1-0
100
AcDbLine
  6
CONTINUOUS
370
30
 10
492.66516573069
 20
179.4137335214
 11
492.66516573069
 21
172.663732841
  0
LINE
  5
4AC
100
AcDbEntity
  8
1-0
100
AcDbLine
  6
CONTINUOUS
370
30
 10
492.66516573069
 20
187.663732841
 11
492.66516573069
 21
180.9137335214
  0
LINE
  5
4AD
100
AcDbEntity
  8
1-0
100
AcDbLine
  6
CONTINUOUS
370
30
 10
465.96516573069
 20
261.813732841
 11
462.46516573069
 21
261.813732841
  0
LINE
  5
4AE
100
AcDbEntity
  8
1-0
100
AcDbLine
  6
CONTINUOUS
370
30
 10
509.96516573069
 20
251.4148738502
 11
500.96516573069
 21
251.4148738502
  0
LINE
  5
4AF
100
AcDbEntity
  8
1-0
100
AcDbLine
  6
CONTINUOUS
370
30
 10
500.96516573069
 20
250.2998008185
 11
509.96516573069
 21
250.2998008185
  0
LINE
  5
4B0
100
AcDbEntity
  8
1-0
100
AcDbLine
  6
CONTINUOUS
370
30
 10
454.46516573069
 20
243.463732841
 11
461.86516573069
 21
243.463732841
  0
LINE
  5
4B1
100
AcDbEntity
  8
1-0
100
AcDbLine
  6
CONTINUOUS
370
30
 10
454.46516573069
 20
244.063732841
 11
454.46516573069
 21
270.463732841
  0
LINE
  5
4B2
100
AcDbEntity
  8
1-0
100
AcDbLine
  6
CONTINUOUS
370
30
 10
431.46516573069
 20
257.063732841
 11
431.46516573069
 21
263.863732841
  0
LINE
  5
4B3
100
AcDbEntity
  8
1-0
100
AcDbLine
  6
CONTINUOUS
370
30
 10
430.76516573069
 20
249.563732841
 11
430.76516573069
 21
257.063732841
  0
LINE
  5
4B4
100
AcDbEntity
  8
1-0
100
AcDbLine
  6
CONTINUOUS
370
30
 10
431.46516573069
 20
257.063732841
 11
431.46516573069
 21
250.263732841
  0
LINE
  5
4B5
100
AcDbEntity
  8
1-0
100
AcDbLine
  6
CONTINUOUS
370
30
 10
431.46516573069
 20
263.863732841
 11
430.76516573069
 21
264.563732841
  0
LINE
  5
4B6
100
AcDbEntity
  8
1-0
100
AcDbLine
  6
CONTINUOUS
370
30
 10
441.46516573069
 20
250.313732841
 11
431.46516573069
 21
250.313732841
  0
LINE
  5
4B7
100
AcDbEntity
  8
1-0
100
AcDbLine
  6
CONTINUOUS
370
30
 10
492.66516573069
 20
187.663732841
 11
499.66516573069
 21
187.663732841
  0
LINE
  5
4B8
100
AcDbEntity
  8
1-0
100
AcDbLine
  6
CONTINUOUS
370
30
 10
499.66516573069
 20
187.663732841
 11
500.16516573069
 21
187.163732841
  0
LINE
  5
4B9
100
AcDbEntity
  8
1-0
100
AcDbLine
  6
CONTINUOUS
370
30
 10
492.16516573069
 20
173.163732841
 11
492.66516573069
 21
172.663732841
  0
LINE
  5
4BA
100
AcDbEntity
  8
1-0
100
AcDbLine
  6
CONTINUOUS
370
30
 10
492.66516573069
 20
172.663732841
 11
499.66516573069
 21
172.663732841
  0
LINE
  5
4BB
100
AcDbEntity
  8
1-0
100
AcDbLine
  6
CONTINUOUS
370
30
 10
500.16516573069
 20
187.163732841
 11
500.16516573069
 21
173.163732841
  0
LINE
  5
4BC
100
AcDbEntity
  8
1-0
100
AcDbLine
  6
CONTINUOUS
370
30
 10
499.66516573069
 20
172.663732841
 11
500.16516573069
 21
173.163732841
  0
LINE
  5
4BD
100
AcDbEntity
  8
1-0
100
AcDbLine
  6
HIDDEN
370
15
 10
508.96516573069
 20
170.663732841
 11
536.46516573069
 21
170.663732841
  0
LINE
  5
4BE
100
AcDbEntity
  8
1-0
100
AcDbLine
  6
CONTINUOUS
370
30
 10
462.46516573069
 20
251.063732841
 11
472.46516573069
 21
251.063732841
  0
CIRCLE
  5
4BF
100
AcDbEntity
  8
1-0
100
AcDbCircle
  6
HIDDEN
370
15
 10
531.46516573069
 20
175.663732841
 40
1.75
  0
LINE
  5
4C0
100
AcDbEntity
  8
1-0
100
AcDbLine
  6
HIDDEN
370
15
 10
536.46516573069
 20
170.663732841
 11
536.46516573069
 21
193.663732841
  0
LINE
  5
4C1
100
AcDbEntity
  8
1-0
100
AcDbLine
  6
CONTINUOUS
370
30
 10
519.46516573069
 20
160.663732841
 11
519.46516573069
 21
189.8290662564
  0
LINE
  5
4C2
100
AcDbEntity
  8
1-0
100
AcDbLine
  6
CONTINUOUS
370
30
 10
418.46516573069
 20
257.063732841
 11
418.46516573069
 21
252.563732841
  0
LINE
  5
4C3
100
AcDbEntity
  8
1-0
100
AcDbLine
  6
CONTINUOUS
370
30
 10
488.96516573069
 20
289.463732841
 11
494.96516573069
 21
289.463732841
  0
LINE
  5
4C4
100
AcDbEntity
  8
1-0
100
AcDbLine
  6
CONTINUOUS
370
30
 10
495.46516573069
 20
285.463732841
 11
495.46516573069
 21
288.963732841
  0
CIRCLE
  5
4C5
100
AcDbEntity
  8
1-0
100
AcDbCircle
  6
CONTINUOUS
370
30
 10
468.46516573069
 20
247.563732841
 40
3
  0
LINE
  5
4C6
100
AcDbEntity
  8
1-0
100
AcDbLine
  6
CONTINUOUS
370
30
 10
462.46516573069
 20
265.063732841
 11
462.46516573069
 21
251.063732841
  0
LINE
  5
4C7
100
AcDbEntity
  8
1-0
100
AcDbLine
  6
CONTINUOUS
370
30
 10
455.96516573069
 20
244.063732841
 11
454.46516573069
 21
245.563732841
  0
CIRCLE
  5
4C8
100
AcDbEntity
  8
1-0
100
AcDbCircle
  6
CONTINUOUS
370
30
 10
458.46516573069
 20
247.563732841
 40
3
  0
LINE
  5
4C9
100
AcDbEntity
  8
1-0
100
AcDbLine
  6
CONTINUOUS
370
30
 10
462.46516573069
 20
265.063732841
 11
454.46516573069
 21
265.063732841
  0
LINE
  5
4CA
100
AcDbEntity
  8
1-0
100
AcDbLine
  6
CONTINUOUS
370
30
 10
418.46516573069
 20
261.563732841
 11
419.16516573069
 21
264.563732841
  0
LINE
  5
4CB
100
AcDbEntity
  8
1-0
100
AcDbLine
  6
CONTINUOUS
370
30
 10
419.16516573069
 20
264.563732841
 11
419.16516573069
 21
257.063732841
  0
LINE
  5
4CC
100
AcDbEntity
  8
1-0
100
AcDbLine
  6
CONTINUOUS
370
30
 10
431.46516573069
 20
250.263732841
 11
430.76516573069
 21
249.563732841
  0
LINE
  5
4CD
100
AcDbEntity
  8
1-0
100
AcDbLine
  6
CONTINUOUS
370
30
 10
454.46516573069
 20
251.063732841
 11
444.46516573069
 21
251.063732841
  0
LINE
  5
4CE
100
AcDbEntity
  8
1-0
100
AcDbLine
  6
CONTINUOUS
370
30
 10
475.96516573069
 20
257.063732841
 11
475.96516573069
 21
260.238732841
  0
ARC
  5
4CF
100
AcDbEntity
  8
1-0
100
AcDbCircle
  6
CONTINUOUS
370
15
 10
476.96516573069
 20
257.663732841
 40
1
100
AcDbArc
 50
300
 51
60
  0
LINE
  5
4D0
100
AcDbEntity
  8
1-0
100
AcDbLine
  6
CONTINUOUS
370
30
 10
454.46516573069
 20
290.463732841
 11
454.46516573069
 21
285.463732841
  0
LINE
  5
4D1
100
AcDbEntity
  8
1-0
100
AcDbLine
  6
CONTINUOUS
370
30
 10
461.86516573069
 20
241.463732841
 11
460.46516573069
 21
241.463732841
  0
LINE
  5
4D2
100
AcDbEntity
  8
1-0
100
AcDbLine
  6
CONTINUOUS
370
30
 10
463.16516573069
 20
241.463732841
 11
463.16516573069
 21
244.063732841
  0
LINE
  5
4D3
100
AcDbEntity
  8
1-0
100
AcDbLine
  6
CONTINUOUS
370
30
 10
469.96516573069
 20
241.4053902278
 11
469.96516573069
 21
243.663732841
  0
LINE
  5
4D4
100
AcDbEntity
  8
1-0
100
AcDbLine
  6
CONTINUOUS
370
30
 10
461.86516573069
 20
243.463732841
 11
461.86516573069
 21
241.463732841
  0
LINE
  5
4D5
100
AcDbEntity
  8
1-0
100
AcDbLine
  6
CONTINUOUS
370
30
 10
418.46516573069
 20
252.563732841
 11
419.16516573069
 21
249.563732841
  0
LINE
  5
4D6
100
AcDbEntity
  8
1-0
100
AcDbLine
  6
CONTINUOUS
370
30
 10
430.76516573069
 20
249.563732841
 11
419.16516573069
 21
249.563732841
  0
LINE
  5
4D7
100
AcDbEntity
  8
1-0
100
AcDbLine
  6
CONTINUOUS
370
30
 10
475.96516573069
 20
260.238732841
 11
465.96516573069
 21
260.238732841
  0
LINE
  5
4D8
100
AcDbEntity
  8
1-0
100
AcDbLine
  6
CONTINUOUS
370
30
 10
458.96516573069
 20
289.463732841
 11
464.96516573069
 21
289.463732841
  0
LINE
  5
4D9
100
AcDbEntity
  8
1-0
100
AcDbLine
  6
CONTINUOUS
370
30
 10
465.46516573069
 20
285.463732841
 11
465.46516573069
 21
288.963732841
  0
ARC
  5
4DA
100
AcDbEntity
  8
1-0
100
AcDbCircle
  6
CONTINUOUS
370
30
 10
464.96516573069
 20
288.963732841
 40
0.5
100
AcDbArc
 50
0
 51
90
  0
LINE
  5
4DB
100
AcDbEntity
  8
1-0
100
AcDbLine
  6
CONTINUOUS
370
30
 10
509.96516573069
 20
245.2595067759
 11
500.96516573069
 21
245.2595067759
  0
LINE
  5
4DC
100
AcDbEntity
  8
1-0
100
AcDbLine
  6
CONTINUOUS
370
30
 10
586.39295933449
 20
230.8174014883
 11
598.39295933449
 21
230.8174014883
  0
LINE
  5
4DD
100
AcDbEntity
  8
1-0
100
AcDbLine
  6
CONTINUOUS
370
30
 10
586.39295933449
 20
204.6861421908
 11
598.39295933449
 21
204.6861421908
  0
LINE
  5
4DE
100
AcDbEntity
  8
1-0
100
AcDbLine
  6
CONTINUOUS
370
30
 10
500.96516573069
 20
247.8276648635
 11
509.96516573069
 21
247.8276648635
  0
LINE
  5
4DF
100
AcDbEntity
  8
1-0
100
AcDbLine
  6
CONTINUOUS
370
30
 10
509.96516573069
 20
246.7125918319
 11
500.96516573069
 21
246.7125918319
  0
LINE
  5
4E0
100
AcDbEntity
  8
1-0
100
AcDbLine
  6
CONTINUOUS
370
30
 10
500.96516573069
 20
245.063732841
 11
509.96516573069
 21
245.063732841
  0
LINE
  5
4E1
100
AcDbEntity
  8
1-0
100
AcDbLine
  6
CONTINUOUS
370
30
 10
500.96516573069
 20
253.063732841
 11
509.96516573069
 21
253.063732841
  0
LINE
  5
4E2
100
AcDbEntity
  8
1-0
100
AcDbLine
  6
CONTINUOUS
370
30
 10
500.96516573069
 20
249.063732841
 11
509.96516573069
 21
249.063732841
  0
LINE
  5
4E3
100
AcDbEntity
  8
1-0
100
AcDbLine
  6
CONTINUOUS
370
30
 10
509.96516573069
 20
252.8679589062
 11
500.96516573069
 21
252.8679589062
  0
LINE
  5
4E4
100
AcDbEntity
  8
1-0
100
AcDbLine
  6
CONTINUOUS
370
30
 10
500.96516573069
 20
252.2998008185
 11
509.96516573069
 21
252.2998008185
  0
LINE
  5
4E5
100
AcDbEntity
  8
1-0
100
AcDbLine
  6
CONTINUOUS
370
30
 10
500.96516573069
 20
245.8276648635
 11
509.96516573069
 21
245.8276648635
  0
LINE
  5
4E6
100
AcDbEntity
  8
1-0
100
AcDbLine
  6
CONTINUOUS
370
30
 10
500.46516573069
 20
252.563732841
 11
500.96516573069
 21
253.063732841
  0
LINE
  5
4E7
100
AcDbEntity
  8
1-0
100
AcDbLine
  6
CONTINUOUS
370
30
 10
441.46516573069
 20
263.813732841
 11
431.46516573069
 21
263.813732841
  0
LINE
  5
4E8
100
AcDbEntity
  8
1-0
100
AcDbLine
  6
CONTINUOUS
370
30
 10
430.76516573069
 20
264.563732841
 11
430.76516573069
 21
257.063732841
  0
LINE
  5
4E9
100
AcDbEntity
  8
1-0
100
AcDbLine
  6
CONTINUOUS
370
30
 10
444.46516573069
 20
257.063732841
 11
444.46516573069
 21
263.313732841
  0
LINE
  5
4EA
100
AcDbEntity
  8
1-0
100
AcDbLine
  6
CONTINUOUS
370
30
 10
444.46516573069
 20
263.313732841
 11
441.46516573069
 21
263.813732841
  0
LINE
  5
4EB
100
AcDbEntity
  8
1-0
100
AcDbLine
  6
CONTINUOUS
370
30
 10
472.46516573069
 20
244.063732841
 11
472.46516573069
 21
251.063732841
  0
LINE
  5
4EC
100
AcDbEntity
  8
1-0
100
AcDbLine
  6
CONTINUOUS
370
30
 10
469.96516573069
 20
243.663732841
 11
471.96516573069
 21
243.663732841
  0
LINE
  5
4ED
100
AcDbEntity
  8
1-0
100
AcDbLine
  6
CONTINUOUS
370
30
 10
472.55492277149
 20
244.063732841
 11
454.46516573069
 21
244.063732841
  0
LINE
  5
4EE
100
AcDbEntity
  8
1-0
100
AcDbLine
  6
CONTINUOUS
370
30
 10
491.26516573069
 20
241.463732841
 11
489.91516573069
 21
241.463732841
  0
LINE
  5
4EF
100
AcDbEntity
  8
1-0
100
AcDbLine
  6
CONTINUOUS
370
30
 10
493.96516573069
 20
241.463732841
 11
492.26516573069
 21
241.463732841
  0
LINE
  5
4F0
100
AcDbEntity
  8
1-0
100
AcDbLine
  6
CONTINUOUS
370
30
 10
492.26516573069
 20
241.463732841
 11
492.26516573069
 21
243.463732841
  0
LINE
  5
4F1
100
AcDbEntity
  8
1-0
100
AcDbLine
  6
CONTINUOUS
370
30
 10
430.76516573069
 20
264.563732841
 11
419.16516573069
 21
264.563732841
  0
LINE
  5
4F2
100
AcDbEntity
  8
1-0
100
AcDbLine
  6
CONTINUOUS
370
30
 10
418.46516573069
 20
257.063732841
 11
418.46516573069
 21
261.563732841
  0
LINE
  5
4F3
100
AcDbEntity
  8
1-0
100
AcDbLine
  6
CONTINUOUS
370
30
 10
419.16516573069
 20
249.563732841
 11
419.16516573069
 21
257.063732841
  0
ARC
  5
4F4
100
AcDbEntity
  8
1-0
100
AcDbCircle
  6
CONTINUOUS
370
30
 10
488.96516573069
 20
288.963732841
 40
0.5
100
AcDbArc
 50
90
 51
180
  0
LINE
  5
4F5
100
AcDbEntity
  8
1-0
100
AcDbLine
  6
CONTINUOUS
370
30
 10
598.39747186579
 20
189.2751375014
 11
586.39747186579
 21
189.2751375014
  0
LINE
  5
4F6
100
AcDbEntity
  8
1-0
100
AcDbLine
  6
CONTINUOUS
370
30
 10
586.39747186579
 20
192.3058684648
 11
598.39747186579
 21
192.3058684648
  0
ARC
  5
4F7
100
AcDbEntity
  8
1-0
100
AcDbCircle
  6
CONTINUOUS
370
30
 10
494.96516573069
 20
288.963732841
 40
0.5
100
AcDbArc
 50
0
 51
90
  0
CIRCLE
  5
4F8
100
AcDbEntity
  8
1-0
100
AcDbCircle
  6
CONTINUOUS
370
30
 10
486.46516573069
 20
257.663732841
 40
2.75
  0
CIRCLE
  5
4F9
100
AcDbEntity
  8
1-0
100
AcDbCircle
  6
CONTINUOUS
370
30
 10
493.46516573069
 20
257.663732841
 40
2.75
  0
LINE
  5
4FA
100
AcDbEntity
  8
1-0
100
AcDbLine
  6
CONTINUOUS
370
30
 10
496.46516573069
 20
253.663732841
 11
496.46516573069
 21
261.663732841
  0
LINE
  5
4FB
100
AcDbEntity
  8
1-0
100
AcDbLine
  6
CONTINUOUS
370
30
 10
499.46516573069
 20
253.063732841
 11
499.96516573069
 21
253.063732841
  0
LINE
  5
4FC
100
AcDbEntity
  8
1-0
100
AcDbLine
  6
CONTINUOUS
370
15
 10
499.96516573069
 20
245.563732841
 11
499.96516573069
 21
253.063732841
  0
LINE
  5
4FD
100
AcDbEntity
  8
1-0
100
AcDbLine
  6
CONTINUOUS
370
30
 10
499.96516573069
 20
245.563732841
 11
499.96516573069
 21
252.563732841
  0
LINE
  5
4FE
100
AcDbEntity
  8
1-0
100
AcDbLine
  6
CONTINUOUS
370
15
 10
499.46516573069
 20
265.063732841
 11
499.46516573069
 21
245.563732841
  0
LINE
  5
4FF
100
AcDbEntity
  8
1-0
100
AcDbLine
  6
CONTINUOUS
370
30
 10
499.46516573069
 20
252.663732841
 11
499.46516573069
 21
270.463732841
  0
LINE
  5
500
100
AcDbEntity
  8
1-0
100
AcDbLine
  6
CONTINUOUS
370
30
 10
441.46516573069
 20
257.063732841
 11
441.46516573069
 21
263.813732841
  0
LINE
  5
501
100
AcDbEntity
  8
1-0
100
AcDbLine
  6
CONTINUOUS
370
30
 10
441.46516573069
 20
257.063732841
 11
441.46516573069
 21
250.313732841
  0
LINE
  5
502
100
AcDbEntity
  8
1-0
100
AcDbLine
  6
CONTINUOUS
370
30
 10
444.46516573069
 20
257.063732841
 11
444.46516573069
 21
250.813732841
  0
LINE
  5
503
100
AcDbEntity
  8
1-0
100
AcDbLine
  6
CONTINUOUS
370
30
 10
444.46516573069
 20
250.813732841
 11
441.46516573069
 21
250.313732841
  0
LINE
  5
504
100
AcDbEntity
  8
1-0
100
AcDbLine
  6
CONTINUOUS
370
30
 10
454.46516573069
 20
263.063732841
 11
444.46516573069
 21
263.063732841
  0
LINE
  5
505
100
AcDbEntity
  8
1-0
100
AcDbLine
  6
CONTINUOUS
370
30
 10
509.96516573069
 20
245.063732841
 11
509.96516573069
 21
249.063732841
  0
LINE
  5
506
100
AcDbEntity
  8
1-0
100
AcDbLine
  6
CONTINUOUS
370
30
 10
510.46516573069
 20
249.063732841
 11
510.46516573069
 21
245.563732841
  0
LINE
  5
507
100
AcDbEntity
  8
1-0
100
AcDbLine
  6
CONTINUOUS
370
30
 10
586.39295933449
 20
215.5100641937
 11
598.39295933449
 21
215.5100641937
  0
LINE
  5
508
100
AcDbEntity
  8
1-0
100
AcDbLine
  6
CONTINUOUS
370
30
 10
475.96516573069
 20
253.888732841
 11
465.96516573069
 21
253.888732841
  0
LINE
  5
509
100
AcDbEntity
  8
1-0
100
AcDbLine
  6
CENTER
370
15
 10
496.25834414949
 20
249.063732841
 11
513.36535269659
 21
249.063732841
  0
LINE
  5
50A
100
AcDbEntity
  8
1-0
100
AcDbLine
  6
CONTINUOUS
370
30
 10
519.46516573069
 20
240.663732841
 11
500.46516573069
 21
240.663732841
  0
LINE
  5
50B
100
AcDbEntity
  8
1-0
100
AcDbLine
  6
CONTINUOUS
370
30
 10
598.39295933449
 20
234.2751375014
 11
586.39295933449
 21
234.2751375014
  0
LINE
  5
50C
100
AcDbEntity
  8
1-0
100
AcDbLine
  6
CONTINUOUS
370
30
 10
585.39747186579
 20
178.163732841
 11
585.39747186579
 21
159.163732841
  0
LINE
  5
50D
100
AcDbEntity
  8
1-0
100
AcDbLine
  6
CONTINUOUS
370
30
 10
586.39747186579
 20
158.163732841
 11
585.39747186579
 21
159.163732841
  0
LINE
  5
50E
100
AcDbEntity
  8
1-0
100
AcDbLine
  6
CONTINUOUS
370
30
 10
598.39295933449
 20
219.2619264007
 11
586.39295933449
 21
219.2619264007
  0
LINE
  5
50F
100
AcDbEntity
  8
1-0
100
AcDbLine
  6
CONTINUOUS
370
30
 10
598.39295933449
 20
206.534340595
 11
586.39295933449
 21
206.534340595
  0
LINE
  5
510
100
AcDbEntity
  8
1-0
100
AcDbLine
  6
CONTINUOUS
370
30
 10
598.39295933449
 20
223.163732841
 11
586.39295933449
 21
223.163732841
  0
LINE
  5
511
100
AcDbEntity
  8
1-0
100
AcDbLine
  6
CONTINUOUS
370
30
 10
586.39295933449
 20
209.0215972173
 11
598.39295933449
 21
209.0215972173
  0
LINE
  5
512
100
AcDbEntity
  8
1-0
100
AcDbLine
  6
CONTINUOUS
370
30
 10
598.39295933449
 20
212.0523281807
 11
586.39295933449
 21
212.0523281807
  0
LINE
  5
513
100
AcDbEntity
  8
1-0
100
AcDbLine
  6
CONTINUOUS
370
30
 10
579.39295933449
 20
232.163732841
 11
585.39295933449
 21
232.163732841
  0
LINE
  5
514
100
AcDbEntity
  8
1-0
100
AcDbLine
  6
CONTINUOUS
370
30
 10
579.39295933449
 20
232.163732841
 11
579.39295933449
 21
223.163732841
  0
LINE
  5
515
100
AcDbEntity
  8
1-0
100
AcDbLine
  6
CONTINUOUS
370
30
 10
574.46065319939
 20
226.163732841
 11
579.39295933449
 21
226.163732841
  0
LINE
  5
516
100
AcDbEntity
  8
1-0
100
AcDbLine
  6
CONTINUOUS
370
30
 10
574.46035236399
 20
220.163732841
 11
579.39747186579
 21
220.163732841
  0
LINE
  5
517
100
AcDbEntity
  8
1-0
100
AcDbLine
  6
CONTINUOUS
370
30
 10
500.46516573069
 20
249.063732841
 11
500.46516573069
 21
252.563732841
  0
LINE
  5
518
100
AcDbEntity
  8
1-0
100
AcDbLine
  6
CONTINUOUS
370
30
 10
500.46516573069
 20
252.563732841
 11
499.96516573069
 21
252.563732841
  0
LINE
  5
519
100
AcDbEntity
  8
1-0
100
AcDbLine
  6
CONTINUOUS
370
30
 10
500.96516573069
 20
245.063732841
 11
500.96516573069
 21
249.063732841
  0
LINE
  5
51A
100
AcDbEntity
  8
1-0
100
AcDbLine
  6
CONTINUOUS
370
30
 10
500.96516573069
 20
253.063732841
 11
500.96516573069
 21
249.063732841
  0
LINE
  5
51B
100
AcDbEntity
  8
1-0
100
AcDbLine
  6
CONTINUOUS
370
15
 10
500.46516573069
 20
245.563732841
 11
499.96516573069
 21
245.563732841
  0
LINE
  5
51C
100
AcDbEntity
  8
1-0
100
AcDbLine
  6
CONTINUOUS
370
30
 10
500.46516573069
 20
249.063732841
 11
500.46516573069
 21
245.563732841
  0
LINE
  5
51D
100
AcDbEntity
  8
1-0
100
AcDbLine
  6
CONTINUOUS
370
30
 10
500.46516573069
 20
245.563732841
 11
500.96516573069
 21
245.063732841
  0
LINE
  5
51E
100
AcDbEntity
  8
1-0
100
AcDbLine
  6
CONTINUOUS
370
30
 10
586.39747186579
 20
164.0215972173
 11
598.39747186579
 21
164.0215972173
  0
LINE
  5
51F
100
AcDbEntity
  8
1-0
100
AcDbLine
  6
CONTINUOUS
370
30
 10
598.39747186579
 20
178.163732841
 11
586.39747186579
 21
178.163732841
  0
LINE
  5
520
100
AcDbEntity
  8
1-0
100
AcDbLine
  6
CONTINUOUS
370
30
 10
598.39747186579
 20
161.534340595
 11
586.39747186579
 21
161.534340595
  0
LINE
  5
521
100
AcDbEntity
  8
1-0
100
AcDbLine
  6
CONTINUOUS
370
30
 10
491.26516573069
 20
244.063732841
 11
491.26516573069
 21
241.463732841
  0
LINE
  5
522
100
AcDbEntity
  8
1-0
100
AcDbLine
  6
CONTINUOUS
370
30
 10
499.46516573069
 20
285.463732841
 11
499.46516573069
 21
270.463732841
  0
LINE
  5
523
100
AcDbEntity
  8
1-0
100
AcDbLine
  6
CONTINUOUS
370
30
 10
488.46516573069
 20
285.463732841
 11
488.46516573069
 21
288.963732841
  0
LINE
  5
524
100
AcDbEntity
  8
1-0
100
AcDbLine
  6
CONTINUOUS
370
30
 10
586.39747186579
 20
185.8174014883
 11
598.39747186579
 21
185.8174014883
  0
LINE
  5
525
100
AcDbEntity
  8
1-0
100
AcDbLine
  6
CONTINUOUS
370
30
 10
476.96516573069
 20
422.7112154799
 11
470.96516573069
 21
422.7112154799
  0
LINE
  5
526
100
AcDbEntity
  8
1-0
100
AcDbLine
  6
CONTINUOUS
370
30
 10
476.96516573069
 20
413.2112154799
 11
470.71516573069
 21
413.2112154799
  0
LINE
  5
527
100
AcDbEntity
  8
1-0
100
AcDbLine
  6
CONTINUOUS
370
30
 10
598.39747186579
 20
194.7931250871
 11
586.39747186579
 21
194.7931250871
  0
LINE
  5
528
100
AcDbEntity
  8
1-0
100
AcDbLine
  6
CONTINUOUS
370
30
 10
586.39747186579
 20
198.163732841
 11
586.39747186579
 21
178.163732841
  0
LINE
  5
529
100
AcDbEntity
  8
1-0
100
AcDbLine
  6
CONTINUOUS
370
30
 10
598.39747186579
 20
197.7794384491
 11
586.39747186579
 21
197.7794384491
  0
LINE
  5
52A
100
AcDbEntity
  8
1-0
100
AcDbLine
  6
CONTINUOUS
370
30
 10
586.39747186579
 20
196.6413234913
 11
598.39747186579
 21
196.6413234913
  0
LINE
  5
52B
100
AcDbEntity
  8
1-0
100
AcDbLine
  6
CONTINUOUS
370
30
 10
598.39747186579
 20
158.163732841
 11
598.39747186579
 21
178.163732841
  0
LINE
  5
52C
100
AcDbEntity
  8
1-0
100
AcDbLine
  6
CONTINUOUS
370
30
 10
598.39747186579
 20
198.163732841
 11
598.39747186579
 21
178.163732841
  0
LINE
  5
52D
100
AcDbEntity
  8
1-0
100
AcDbLine
  6
CONTINUOUS
370
30
 10
574.46486489529
 20
175.663732841
 11
579.40168356169
 21
175.663732841
  0
LINE
  5
52E
100
AcDbEntity
  8
1-0
100
AcDbLine
  6
CONTINUOUS
370
30
 10
574.46516573069
 20
180.663732841
 11
579.39777270119
 21
180.663732841
  0
LINE
  5
52F
100
AcDbEntity
  8
1-0
100
AcDbLine
  6
CONTINUOUS
370
30
 10
586.39747186579
 20
158.163732841
 11
586.39747186579
 21
178.163732841
  0
LINE
  5
530
100
AcDbEntity
  8
1-0
100
AcDbLine
  6
CONTINUOUS
370
30
 10
499.46516573069
 20
252.063732841
 11
499.46516573069
 21
225.663732841
  0
LINE
  5
531
100
AcDbEntity
  8
1-0
100
AcDbLine
  6
CONTINUOUS
370
30
 10
499.46516573069
 20
252.063732841
 11
499.46516573069
 21
252.663732841
  0
LINE
  5
532
100
AcDbEntity
  8
1-0
100
AcDbLine
  6
CONTINUOUS
370
30
 10
499.46516573069
 20
243.463732841
 11
492.26516573069
 21
243.463732841
  0
LINE
  5
533
100
AcDbEntity
  8
1-0
100
AcDbLine
  6
CONTINUOUS
370
30
 10
510.46516573069
 20
249.063732841
 11
510.46516573069
 21
252.563732841
  0
LINE
  5
534
100
AcDbEntity
  8
1-0
100
AcDbLine
  6
CONTINUOUS
370
30
 10
509.96516573069
 20
253.063732841
 11
510.46516573069
 21
252.563732841
  0
LINE
  5
535
100
AcDbEntity
  8
1-0
100
AcDbLine
  6
CONTINUOUS
370
30
 10
509.96516573069
 20
245.063732841
 11
510.46516573069
 21
245.563732841
  0
LINE
  5
536
100
AcDbEntity
  8
1-0
100
AcDbLine
  6
CONTINUOUS
370
30
 10
509.96516573069
 20
253.063732841
 11
509.96516573069
 21
249.063732841
  0
LINE
  5
537
100
AcDbEntity
  8
1-0
100
AcDbLine
  6
CONTINUOUS
370
30
 10
579.39747186579
 20
187.163732841
 11
585.39747186579
 21
187.163732841
  0
LINE
  5
538
100
AcDbEntity
  8
1-0
100
AcDbLine
  6
CONTINUOUS
370
30
 10
599.39747186579
 20
178.163732841
 11
599.39747186579
 21
197.163732841
  0
LINE
  5
539
100
AcDbEntity
  8
1-0
100
AcDbLine
  6
CONTINUOUS
370
30
 10
598.39747186579
 20
198.163732841
 11
599.39747186579
 21
197.163732841
  0
LINE
  5
53A
100
AcDbEntity
  8
1-0
100
AcDbLine
  6
CONTINUOUS
370
30
 10
598.39295933449
 20
227.0655392814
 11
586.39295933449
 21
227.0655392814
  0
LINE
  5
53B
100
AcDbEntity
  8
1-0
100
AcDbLine
  6
CONTINUOUS
370
30
 10
574.46065319939
 20
225.663732841
 11
579.39326016989
 21
225.663732841
  0
LINE
  5
53C
100
AcDbEntity
  8
1-0
100
AcDbLine
  6
CONTINUOUS
370
30
 10
574.46035236399
 20
220.663732841
 11
579.39717103039
 21
220.663732841
  0
LINE
  5
53D
100
AcDbEntity
  8
1-0
100
AcDbLine
  6
CONTINUOUS
370
30
 10
586.39747186579
 20
198.163732841
 11
585.39747186579
 21
197.163732841
  0
LINE
  5
53E
100
AcDbEntity
  8
1-0
100
AcDbLine
  6
CONTINUOUS
370
30
 10
477.46516573069
 20
499.7112154799
 11
477.96516573069
 21
500.2112154799
  0
LINE
  5
53F
100
AcDbEntity
  8
1-0
100
AcDbLine
  6
CONTINUOUS
370
30
 10
476.46516573069
 20
430.7112154799
 11
476.46516573069
 21
444.2112154799
  0
LINE
  5
540
100
AcDbEntity
  8
1-0
100
AcDbLine
  6
CONTINUOUS
370
30
 10
586.39747186579
 20
198.163732841
 11
598.39747186579
 21
198.163732841
  0
LINE
  5
541
100
AcDbEntity
  8
1-0
100
AcDbLine
  6
CONTINUOUS
370
30
 10
586.39747186579
 20
158.163732841
 11
598.39747186579
 21
158.163732841
  0
LINE
  5
542
100
AcDbEntity
  8
1-0
100
AcDbLine
  6
CENTER
370
15
 10
562.70887232799
 20
178.163732841
 11
603.63303006249
 21
178.163732841
  0
LINE
  5
543
100
AcDbEntity
  8
1-0
100
AcDbLine
  6
CONTINUOUS
370
15
 10
599.39295933449
 20
206.9000923956
 11
599.24019487249
 21
203.5907325983
  0
LINE
  5
544
100
AcDbEntity
  8
1-0
100
AcDbLine
  6
CONTINUOUS
370
15
 10
599.39295933449
 20
206.9000923956
 11
600.91534132829
 21
203.9577205099
  0
LINE
  5
545
100
AcDbEntity
  8
1-0
100
AcDbLine
  6
CONTINUOUS
370
15
 10
599.39295933449
 20
206.9000923956
 11
612.72183268199
 21
146.0593555642
  0
LINE
  5
546
100
AcDbEntity
  8
1-0
100
AcDbLine
  6
CONTINUOUS
370
30
 10
586.39295933449
 20
203.163732841
 11
586.39295933449
 21
223.163732841
  0
LINE
  5
547
100
AcDbEntity
  8
1-0
100
AcDbLine
  6
CONTINUOUS
370
30
 10
598.39295933449
 20
203.163732841
 11
598.39295933449
 21
223.163732841
  0
LINE
  5
548
100
AcDbEntity
  8
1-0
100
AcDbLine
  6
CONTINUOUS
370
30
 10
598.39295933449
 20
203.548027233
 11
586.39295933449
 21
203.548027233
  0
LINE
  5
549
100
AcDbEntity
  8
1-0
100
AcDbLine
  6
CONTINUOUS
370
30
 10
586.39295933449
 20
203.163732841
 11
598.39295933449
 21
203.163732841
  0
LINE
  5
54A
100
AcDbEntity
  8
1-0
100
AcDbLine
  6
CONTINUOUS
370
30
 10
586.39295933449
 20
203.163732841
 11
585.39295933449
 21
204.163732841
  0
LINE
  5
54B
100
AcDbEntity
  8
1-0
100
AcDbLine
  6
CONTINUOUS
370
30
 10
579.39295933449
 20
214.163732841
 11
579.39295933449
 21
223.163732841
  0
LINE
  5
54C
100
AcDbEntity
  8
1-0
100
AcDbLine
  6
CONTINUOUS
370
30
 10
585.39295933449
 20
223.163732841
 11
585.39295933449
 21
204.163732841
  0
LINE
  5
54D
100
AcDbEntity
  8
1-0
100
AcDbLine
  6
CONTINUOUS
370
30
 10
579.39295933449
 20
214.163732841
 11
585.39295933449
 21
214.163732841
  0
LINE
  5
54E
100
AcDbEntity
  8
1-0
100
AcDbLine
  6
CONTINUOUS
370
30
 10
599.39295933449
 20
223.163732841
 11
599.39295933449
 21
204.163732841
  0
LINE
  5
54F
100
AcDbEntity
  8
1-0
100
AcDbLine
  6
CENTER
370
15
 10
562.70887232799
 20
223.163732841
 11
603.63303006249
 21
223.163732841
  0
LINE
  5
550
100
AcDbEntity
  8
1-0
100
AcDbLine
  6
CONTINUOUS
370
15
 10
594.83111101329
 20
158.163732841
 11
597.00101206789
 21
155.6603893444
  0
LINE
  5
551
100
AcDbEntity
  8
1-0
100
AcDbLine
  6
CONTINUOUS
370
15
 10
594.83111101329
 20
158.163732841
 11
597.96197219859
 21
157.0807243059
  0
LINE
  5
552
100
AcDbEntity
  8
1-0
100
AcDbLine
  6
CONTINUOUS
370
15
 10
594.83111101329
 20
158.163732841
 11
612.72183268199
 21
146.0593555642
  0
LINE
  5
553
100
AcDbEntity
  8
1-0
100
AcDbLine
  6
CONTINUOUS
370
30
 10
598.39747186579
 20
167.0523281807
 11
586.39747186579
 21
167.0523281807
  0
LINE
  5
554
100
AcDbEntity
  8
1-0
100
AcDbLine
  6
CONTINUOUS
370
30
 10
469.46516573069
 20
399.5112154799
 11
469.46516573069
 21
387.9112154799
  0
LINE
  5
555
100
AcDbEntity
  8
1-0
100
AcDbLine
  6
CONTINUOUS
370
30
 10
472.46516573069
 20
387.2112154799
 11
469.46516573069
 21
387.9112154799
  0
LINE
  5
556
100
AcDbEntity
  8
1-0
100
AcDbLine
  6
CONTINUOUS
370
30
 10
472.46516573069
 20
387.2112154799
 11
472.46516573069
 21
384.4021274587
  0
LINE
  5
557
100
AcDbEntity
  8
1-0
100
AcDbLine
  6
CONTINUOUS
370
30
 10
598.39747186579
 20
174.2619264007
 11
586.39747186579
 21
174.2619264007
  0
LINE
  5
558
100
AcDbEntity
  8
1-0
100
AcDbLine
  6
CONTINUOUS
370
30
 10
586.39747186579
 20
159.6861421908
 11
598.39747186579
 21
159.6861421908
  0
LINE
  5
559
100
AcDbEntity
  8
1-0
100
AcDbLine
  6
CONTINUOUS
370
30
 10
598.39747186579
 20
158.548027233
 11
586.39747186579
 21
158.548027233
  0
LINE
  5
55A
100
AcDbEntity
  8
1-0
100
AcDbLine
  6
CONTINUOUS
370
30
 10
470.21516573069
 20
410.2112154799
 11
470.21516573069
 21
400.2112154799
  0
CIRCLE
  5
55B
100
AcDbEntity
  8
1-0
100
AcDbCircle
  6
CONTINUOUS
370
15
 10
458.46516573069
 20
436.2112154799
 40
1.25
  0
CIRCLE
  5
55C
100
AcDbEntity
  8
1-0
100
AcDbCircle
  6
CONTINUOUS
370
30
 10
458.46516573069
 20
436.2112154799
 40
1.5
  0
LINE
  5
55D
100
AcDbEntity
  8
1-0
100
AcDbLine
  6
CONTINUOUS
370
30
 10
465.96516573069
 20
436.2112154799
 11
465.96516573069
 21
431.4612154799
  0
LINE
  5
55E
100
AcDbEntity
  8
1-0
100
AcDbLine
  6
CONTINUOUS
370
30
 10
476.96516573069
 20
410.2112154799
 11
470.21516573069
 21
410.2112154799
  0
LINE
  5
55F
100
AcDbEntity
  8
1-0
100
AcDbLine
  6
CONTINUOUS
370
30
 10
469.46516573069
 20
399.5112154799
 11
476.96516573069
 21
399.5112154799
  0
LINE
  5
560
100
AcDbEntity
  8
1-0
100
AcDbLine
  6
CONTINUOUS
370
30
 10
476.96516573069
 20
400.2112154799
 11
470.16516573069
 21
400.2112154799
  0
LINE
  5
561
100
AcDbEntity
  8
1-0
100
AcDbLine
  6
CONTINUOUS
370
30
 10
469.46516573069
 20
387.9112154799
 11
476.96516573069
 21
387.9112154799
  0
LINE
  5
562
100
AcDbEntity
  8
1-0
100
AcDbLine
  6
CONTINUOUS
370
30
 10
476.96516573069
 20
387.2112154799
 11
472.46516573069
 21
387.2112154799
  0
LINE
  5
563
100
AcDbEntity
  8
1-0
100
AcDbLine
  6
CONTINUOUS
370
30
 10
472.46516573069
 20
384.4021274587
 11
476.96516573069
 21
384.4021274587
  0
ARC
  5
564
100
AcDbEntity
  8
1-0
100
AcDbCircle
  6
CONTINUOUS
370
30
 10
476.96516573069
 20
398.7112154799
 40
15
100
AcDbArc
 50
270
 51
287.457603123701
  0
LINE
  5
565
100
AcDbEntity
  8
1-0
100
AcDbLine
  6
CONTINUOUS
370
15
 10
502.02103744539
 20
372.298889091
 11
557.72038653367
 21
372.298889091
  0
LINE
  5
566
100
AcDbEntity
  8
1-0
100
AcDbLine
  6
CONTINUOUS
370
30
 10
598.39747186579
 20
182.0655392814
 11
586.39747186579
 21
182.0655392814
  0
LINE
  5
567
100
AcDbEntity
  8
1-0
100
AcDbLine
  6
CONTINUOUS
370
30
 10
586.39747186579
 20
170.5100641937
 11
598.39747186579
 21
170.5100641937
  0
LINE
  5
568
100
AcDbEntity
  8
1-0
100
AcDbLine
  6
CONTINUOUS
370
30
 10
579.39747186579
 20
169.163732841
 11
585.39747186579
 21
169.163732841
  0
LINE
  5
569
100
AcDbEntity
  8
1-0
100
AcDbLine
  6
CONTINUOUS
370
30
 10
579.39747186579
 20
169.163732841
 11
579.39747186579
 21
178.163732841
  0
LINE
  5
56A
100
AcDbEntity
  8
1-0
100
AcDbLine
  6
CONTINUOUS
370
30
 10
574.46486489529
 20
175.163732841
 11
579.40198439709
 21
175.163732841
  0
LINE
  5
56B
100
AcDbEntity
  8
1-0
100
AcDbLine
  6
CONTINUOUS
370
30
 10
574.46516573069
 20
181.163732841
 11
579.39747186579
 21
181.163732841
  0
LINE
  5
56C
100
AcDbEntity
  8
1-0
100
AcDbLine
  6
CONTINUOUS
370
30
 10
579.39747186579
 20
187.163732841
 11
579.39747186579
 21
178.163732841
  0
LINE
  5
56D
100
AcDbEntity
  8
1-0
100
AcDbLine
  6
CONTINUOUS
370
30
 10
477.66093966559
 20
499.7112154799
 11
477.66093966559
 21
490.7112154799
  0
LINE
  5
56E
100
AcDbEntity
  8
1-0
100
AcDbLine
  6
CONTINUOUS
370
30
 10
478.22909775319
 20
490.7112154799
 11
478.22909775319
 21
499.7112154799
  0
LINE
  5
56F
100
AcDbEntity
  8
1-0
100
AcDbLine
  6
CONTINUOUS
370
30
 10
479.11402472159
 20
499.7112154799
 11
479.11402472159
 21
490.7112154799
  0
LINE
  5
570
100
AcDbEntity
  8
1-0
100
AcDbLine
  6
CONTINUOUS
370
30
 10
598.39747186579
 20
158.163732841
 11
599.39747186579
 21
159.163732841
  0
LINE
  5
571
100
AcDbEntity
  8
1-0
100
AcDbLine
  6
CONTINUOUS
370
30
 10
599.39747186579
 20
178.163732841
 11
599.39747186579
 21
159.163732841
  0
LINE
  5
572
100
AcDbEntity
  8
1-0
100
AcDbLine
  6
CONTINUOUS
370
30
 10
585.39747186579
 20
178.163732841
 11
585.39747186579
 21
197.163732841
  0
LINE
  5
573
100
AcDbEntity
  8
1-0
100
AcDbLine
  6
CONTINUOUS
370
30
 10
477.96516573069
 20
490.2112154799
 11
477.96516573069
 21
489.7112154799
  0
LINE
  5
574
100
AcDbEntity
  8
1-0
100
AcDbLine
  6
CONTINUOUS
370
30
 10
477.46516573069
 20
444.2112154799
 11
457.46516573069
 21
444.2112154799
  0
LINE
  5
575
100
AcDbEntity
  8
1-0
100
AcDbLine
  6
CONTINUOUS
370
30
 10
475.96516573069
 20
433.0362154799
 11
465.96516573069
 21
433.0362154799
  0
LINE
  5
576
100
AcDbEntity
  8
1-0
100
AcDbLine
  6
CONTINUOUS
370
30
 10
475.96516573069
 20
439.3862154799
 11
465.96516573069
 21
439.3862154799
  0
LINE
  5
577
100
AcDbEntity
  8
1-0
100
AcDbLine
  6
CONTINUOUS
370
30
 10
475.96516573069
 20
436.2112154799
 11
475.96516573069
 21
433.0362154799
  0
LINE
  5
578
100
AcDbEntity
  8
1-0
100
AcDbLine
  6
CONTINUOUS
370
30
 10
475.96516573069
 20
436.2112154799
 11
475.96516573069
 21
439.3862154799
  0
ARC
  5
579
100
AcDbEntity
  8
1-0
100
AcDbCircle
  6
CONTINUOUS
370
15
 10
476.96516573069
 20
435.7112154799
 40
1
100
AcDbArc
 50
300
 51
60
  0
LINE
  5
57A
100
AcDbEntity
  8
1-0
100
AcDbLine
  6
CONTINUOUS
370
30
 10
418.96516573069
 20
431.7112154799
 11
419.66516573069
 21
428.7112154799
  0
LINE
  5
57B
100
AcDbEntity
  8
1-0
100
AcDbLine
  6
CONTINUOUS
370
30
 10
419.66516573069
 20
428.7112154799
 11
419.66516573069
 21
436.2112154799
  0
LINE
  5
57C
100
AcDbEntity
  8
1-0
100
AcDbLine
  6
CONTINUOUS
370
30
 10
431.26516573069
 20
428.7112154799
 11
431.26516573069
 21
436.2112154799
  0
LINE
  5
57D
100
AcDbEntity
  8
1-0
100
AcDbLine
  6
CONTINUOUS
370
30
 10
431.26516573069
 20
439.4812001349
 11
427.03515038569
 21
443.7112154799
  0
LINE
  5
57E
100
AcDbEntity
  8
1-0
100
AcDbLine
  6
CONTINUOUS
370
30
 10
431.26516573069
 20
435.2385594477
 11
422.79250969849
 21
443.7112154799
  0
LINE
  5
57F
100
AcDbEntity
  8
1-0
100
AcDbLine
  6
CONTINUOUS
370
30
 10
431.26516573069
 20
430.9959187606
 11
419.66516573069
 21
442.5959187606
  0
LINE
  5
580
100
AcDbEntity
  8
1-0
100
AcDbLine
  6
CONTINUOUS
370
30
 10
429.30722832429
 20
428.7112154799
 11
419.66516573069
 21
438.3532780735
  0
LINE
  5
581
100
AcDbEntity
  8
1-0
100
AcDbLine
  6
CONTINUOUS
370
30
 10
425.06458763719
 20
428.7112154799
 11
419.66516573069
 21
434.1106373864
  0
LINE
  5
582
100
AcDbEntity
  8
1-0
100
AcDbLine
  6
CONTINUOUS
370
30
 10
420.82194695009
 20
428.7112154799
 11
419.66516573069
 21
429.8679966993
  0
LINE
  5
583
100
AcDbEntity
  8
1-0
100
AcDbLine
  6
CONTINUOUS
370
30
 10
431.25270445219
 20
428.7112154799
 11
431.26516573069
 21
428.7236767585
  0
LINE
  5
584
100
AcDbEntity
  8
1-0
100
AcDbLine
  6
CONTINUOUS
370
30
 10
427.01006376509
 20
428.7112154799
 11
431.26516573069
 21
432.9663174456
  0
LINE
  5
585
100
AcDbEntity
  8
1-0
100
AcDbLine
  6
CONTINUOUS
370
30
 10
422.76742307799
 20
428.7112154799
 11
431.26516573069
 21
437.2089581327
  0
LINE
  5
586
100
AcDbEntity
  8
1-0
100
AcDbLine
  6
CONTINUOUS
370
30
 10
419.66516573069
 20
429.8515988198
 11
431.26516573069
 21
441.4515988198
  0
LINE
  5
587
100
AcDbEntity
  8
1-0
100
AcDbLine
  6
CONTINUOUS
370
30
 10
419.66516573069
 20
434.094239507
 11
429.28214170369
 21
443.7112154799
  0
LINE
  5
588
100
AcDbEntity
  8
1-0
100
AcDbLine
  6
CONTINUOUS
370
30
 10
419.66516573069
 20
438.3368801941
 11
425.03950101659
 21
443.7112154799
  0
LINE
  5
589
100
AcDbEntity
  8
1-0
100
AcDbLine
  6
CONTINUOUS
370
30
 10
419.66516573069
 20
442.5795208812
 11
420.79686032949
 21
443.7112154799
  0
LINE
  5
58A
100
AcDbEntity
  8
1-0
100
AcDbLine
  6
CONTINUOUS
370
30
 10
472.46516573069
 20
429.2112154799
 11
472.46516573069
 21
433.0362154799
  0
LINE
  5
58B
100
AcDbEntity
  8
1-0
100
AcDbLine
  6
CONTINUOUS
370
30
 10
454.46516573069
 20
429.2112154799
 11
472.46516573069
 21
429.2112154799
  0
LINE
  5
58C
100
AcDbEntity
  8
1-0
100
AcDbLine
  6
CONTINUOUS
370
30
 10
598.39295933449
 20
203.163732841
 11
599.39295933449
 21
204.163732841
  0
LINE
  5
58D
100
AcDbEntity
  8
1-0
100
AcDbLine
  6
CONTINUOUS
370
30
 10
586.39295933449
 20
241.6413234913
 11
598.39295933449
 21
241.6413234913
  0
LINE
  5
58E
100
AcDbEntity
  8
1-0
100
AcDbLine
  6
CONTINUOUS
370
30
 10
598.39295933449
 20
242.7794384491
 11
586.39295933449
 21
242.7794384491
  0
LINE
  5
58F
100
AcDbEntity
  8
1-0
100
AcDbLine
  6
CONTINUOUS
370
30
 10
598.39295933449
 20
239.7931250871
 11
586.39295933449
 21
239.7931250871
  0
LINE
  5
590
100
AcDbEntity
  8
1-0
100
AcDbLine
  6
CONTINUOUS
370
30
 10
586.39295933449
 20
243.163732841
 11
598.39295933449
 21
243.163732841
  0
LINE
  5
591
100
AcDbEntity
  8
1-0
100
AcDbLine
  6
CONTINUOUS
370
30
 10
586.39295933449
 20
243.163732841
 11
585.39295933449
 21
242.163732841
  0
LINE
  5
592
100
AcDbEntity
  8
1-0
100
AcDbLine
  6
CONTINUOUS
370
30
 10
598.39295933449
 20
243.163732841
 11
599.39295933449
 21
242.163732841
  0
LINE
  5
593
100
AcDbEntity
  8
1-0
100
AcDbLine
  6
CONTINUOUS
370
30
 10
454.46516573069
 20
489.2112154799
 11
454.46516573069
 21
444.2112154799
  0
LINE
  5
594
100
AcDbEntity
  8
1-0
100
AcDbLine
  6
CONTINUOUS
370
30
 10
444.96516573069
 20
436.2112154799
 11
444.96516573069
 21
442.4612154799
  0
LINE
  5
595
100
AcDbEntity
  8
1-0
100
AcDbLine
  6
CONTINUOUS
370
30
 10
441.96516573069
 20
436.2112154799
 11
441.96516573069
 21
442.9612154799
  0
LINE
  5
596
100
AcDbEntity
  8
1-0
100
AcDbLine
  6
CONTINUOUS
370
30
 10
470.96516573069
 20
422.7112154799
 11
470.96516573069
 21
413.2112154799
  0
LINE
  5
597
100
AcDbEntity
  8
1-0
100
AcDbLine
  6
CONTINUOUS
370
30
 10
470.71516573069
 20
413.2112154799
 11
470.21516573069
 21
410.2112154799
  0
LINE
  5
598
100
AcDbEntity
  8
1-0
100
AcDbLine
  6
CONTINUOUS
370
30
 10
470.16516573069
 20
400.2112154799
 11
469.46516573069
 21
399.5112154799
  0
LINE
  5
599
100
AcDbEntity
  8
1-0
100
AcDbLine
  6
CONTINUOUS
370
30
 10
500.96516573069
 20
458.2112154799
 11
500.96516573069
 21
462.2112154799
  0
LINE
  5
59A
100
AcDbEntity
  8
1-0
100
AcDbLine
  6
CONTINUOUS
370
30
 10
500.96516573069
 20
466.2112154799
 11
500.96516573069
 21
462.2112154799
  0
LINE
  5
59B
100
AcDbEntity
  8
1-0
100
AcDbLine
  6
CONTINUOUS
370
30
 10
485.46516573069
 20
499.7112154799
 11
484.96516573069
 21
500.2112154799
  0
LINE
  5
59C
100
AcDbEntity
  8
1-0
100
AcDbLine
  6
CONTINUOUS
370
30
 10
465.96516573069
 20
431.4612154799
 11
462.46516573069
 21
431.4612154799
  0
LINE
  5
59D
100
AcDbEntity
  8
1-0
100
AcDbLine
  6
CONTINUOUS
370
30
 10
465.96516573069
 20
436.2112154799
 11
465.96516573069
 21
440.9612154799
  0
LINE
  5
59E
100
AcDbEntity
  8
1-0
100
AcDbLine
  6
CONTINUOUS
370
30
 10
465.96516573069
 20
440.9612154799
 11
462.46516573069
 21
440.9612154799
  0
LINE
  5
59F
100
AcDbEntity
  8
1-0
100
AcDbLine
  6
CONTINUOUS
370
30
 10
462.46516573069
 20
443.7112154799
 11
454.46516573069
 21
443.7112154799
  0
LINE
  5
5A0
100
AcDbEntity
  8
1-0
100
AcDbLine
  6
CONTINUOUS
370
30
 10
431.26516573069
 20
443.7112154799
 11
431.26516573069
 21
436.2112154799
  0
LINE
  5
5A1
100
AcDbEntity
  8
1-0
100
AcDbLine
  6
CONTINUOUS
370
30
 10
419.66516573069
 20
443.7112154799
 11
419.66516573069
 21
436.2112154799
  0
LINE
  5
5A2
100
AcDbEntity
  8
1-0
100
AcDbLine
  6
CONTINUOUS
370
30
 10
454.46516573069
 20
442.2112154799
 11
444.96516573069
 21
442.2112154799
  0
LINE
  5
5A3
100
AcDbEntity
  8
1-0
100
AcDbLine
  6
CONTINUOUS
370
30
 10
444.96516573069
 20
442.4612154799
 11
441.96516573069
 21
442.9612154799
  0
LINE
  5
5A4
100
AcDbEntity
  8
1-0
100
AcDbLine
  6
CONTINUOUS
370
30
 10
431.96516573069
 20
443.0112154799
 11
431.26516573069
 21
443.7112154799
  0
LINE
  5
5A5
100
AcDbEntity
  8
1-0
100
AcDbLine
  6
CONTINUOUS
370
30
 10
484.46516573069
 20
393.7112154799
 11
485.83100323659
 21
390.6929896506
  0
LINE
  5
5A6
100
AcDbEntity
  8
1-0
100
AcDbLine
  6
CONTINUOUS
370
30
 10
484.46516573069
 20
393.7112154799
 11
487.15712862289
 21
391.7802739904
  0
LINE
  5
5A7
100
AcDbEntity
  8
1-0
100
AcDbLine
  6
CONTINUOUS
370
15
 10
484.46516573069
 20
393.7112154799
 11
502.02103744539
 21
372.298889091
  0
LINE
  5
5A8
100
AcDbEntity
  8
1-0
100
AcDbLine
  6
CONTINUOUS
370
30
 10
483.71516573069
 20
410.2112154799
 11
483.71516573069
 21
400.2112154799
  0
LINE
  5
5A9
100
AcDbEntity
  8
1-0
100
AcDbLine
  6
CONTINUOUS
370
30
 10
483.76516573069
 20
400.2112154799
 11
484.46516573069
 21
399.5112154799
  0
LINE
  5
5AA
100
AcDbEntity
  8
1-0
100
AcDbLine
  6
CONTINUOUS
370
30
 10
484.46516573069
 20
399.5112154799
 11
484.46516573069
 21
387.9112154799
  0
LINE
  5
5AB
100
AcDbEntity
  8
1-0
100
AcDbLine
  6
CONTINUOUS
370
30
 10
515.56516573069
 20
421.4612154799
 11
516.06516573069
 21
420.9612154799
  0
LINE
  5
5AC
100
AcDbEntity
  8
1-0
100
AcDbLine
  6
CONTINUOUS
370
30
 10
515.56516573069
 20
421.4612154799
 11
532.56516573069
 21
421.4612154799
  0
LINE
  5
5AD
100
AcDbEntity
  8
1-0
100
AcDbLine
  6
CONTINUOUS
370
30
 10
532.56516573069
 20
420.9612154799
 11
516.06516573069
 21
420.9612154799
  0
LINE
  5
5AE
100
AcDbEntity
  8
1-0
100
AcDbLine
  6
CONTINUOUS
370
30
 10
431.96516573069
 20
436.2112154799
 11
431.96516573069
 21
429.4112154799
  0
LINE
  5
5AF
100
AcDbEntity
  8
1-0
100
AcDbLine
  6
CONTINUOUS
370
30
 10
454.46516573069
 20
430.2112154799
 11
444.96516573069
 21
430.2112154799
  0
LINE
  5
5B0
100
AcDbEntity
  8
1-0
100
AcDbLine
  6
CONTINUOUS
370
30
 10
441.96516573069
 20
436.2112154799
 11
441.96516573069
 21
429.4612154799
  0
LINE
  5
5B1
100
AcDbEntity
  8
1-0
100
AcDbLine
  6
CONTINUOUS
370
30
 10
480.22909775319
 20
490.7112154799
 11
480.22909775319
 21
499.7112154799
  0
LINE
  5
5B2
100
AcDbEntity
  8
1-0
100
AcDbLine
  6
CONTINUOUS
370
30
 10
477.96516573069
 20
490.2112154799
 11
477.46516573069
 21
490.7112154799
  0
LINE
  5
5B3
100
AcDbEntity
  8
1-0
100
AcDbLine
  6
CONTINUOUS
370
30
 10
477.46516573069
 20
490.7112154799
 11
477.46516573069
 21
499.7112154799
  0
LINE
  5
5B4
100
AcDbEntity
  8
1-0
100
AcDbLine
  6
CONTINUOUS
370
15
 10
499.96516573069
 20
458.7112154799
 11
499.96516573069
 21
465.7112154799
  0
LINE
  5
5B5
100
AcDbEntity
  8
1-0
100
AcDbLine
  6
CONTINUOUS
370
30
 10
499.46516573069
 20
489.2112154799
 11
499.46516573069
 21
444.2112154799
  0
LINE
  5
5B6
100
AcDbEntity
  8
1-0
100
AcDbLine
  6
CONTINUOUS
370
30
 10
499.96516573069
 20
450.2112154799
 11
499.46516573069
 21
450.2112154799
  0
LINE
  5
5B7
100
AcDbEntity
  8
1-0
100
AcDbLine
  6
CONTINUOUS
370
30
 10
476.46516573069
 20
443.7112154799
 11
473.79016573069
 21
443.7112154799
  0
LINE
  5
5B8
100
AcDbEntity
  8
1-0
100
AcDbLine
  6
CONTINUOUS
370
30
 10
473.79016573069
 20
443.7112154799
 11
473.79016573069
 21
439.3862154799
  0
LINE
  5
5B9
100
AcDbEntity
  8
1-0
100
AcDbLine
  6
CENTER
370
15
 10
496.25834414949
 20
462.2112154799
 11
513.36535269659
 21
462.2112154799
  0
LINE
  5
5BA
100
AcDbEntity
  8
1-0
100
AcDbLine
  6
CONTINUOUS
370
30
 10
524.46516573069
 20
446.7112154799
 11
499.46516573069
 21
446.7112154799
  0
LINE
  5
5BB
100
AcDbEntity
  8
1-0
100
AcDbLine
  6
CONTINUOUS
370
30
 10
500.96516573069
 20
465.4472834574
 11
509.96516573069
 21
465.4472834574
  0
LINE
  5
5BC
100
AcDbEntity
  8
1-0
100
AcDbLine
  6
CONTINUOUS
370
30
 10
500.96516573069
 20
458.9751475024
 11
509.96516573069
 21
458.9751475024
  0
LINE
  5
5BD
100
AcDbEntity
  8
1-0
100
AcDbLine
  6
CONTINUOUS
370
30
 10
509.96516573069
 20
458.4069894148
 11
500.96516573069
 21
458.4069894148
  0
LINE
  5
5BE
100
AcDbEntity
  8
1-0
100
AcDbLine
  6
CONTINUOUS
370
30
 10
509.96516573069
 20
464.5623564891
 11
500.96516573069
 21
464.5623564891
  0
LINE
  5
5BF
100
AcDbEntity
  8
1-0
100
AcDbLine
  6
CONTINUOUS
370
30
 10
500.96516573069
 20
463.4472834574
 11
509.96516573069
 21
463.4472834574
  0
LINE
  5
5C0
100
AcDbEntity
  8
1-0
100
AcDbLine
  6
CONTINUOUS
370
30
 10
500.96516573069
 20
460.9751475024
 11
509.96516573069
 21
460.9751475024
  0
LINE
  5
5C1
100
AcDbEntity
  8
1-0
100
AcDbLine
  6
CONTINUOUS
370
30
 10
462.46516573069
 20
443.7112154799
 11
462.46516573069
 21
429.2112154799
  0
LINE
  5
5C2
100
AcDbEntity
  8
1-0
100
AcDbLine
  6
CONTINUOUS
370
30
 10
454.46516573069
 20
444.2112154799
 11
454.46516573069
 21
429.2112154799
  0
LINE
  5
5C3
100
AcDbEntity
  8
1-0
100
AcDbLine
  6
CONTINUOUS
370
30
 10
431.26516573069
 20
428.7112154799
 11
419.66516573069
 21
428.7112154799
  0
LINE
  5
5C4
100
AcDbEntity
  8
1-0
100
AcDbLine
  6
CONTINUOUS
370
30
 10
431.96516573069
 20
429.4112154799
 11
431.26516573069
 21
428.7112154799
  0
CIRCLE
  5
5C5
100
AcDbEntity
  8
1-0
100
AcDbCircle
  6
CONTINUOUS
370
30
 10
461.96516573069
 20
451.7112154799
 40
3.5
  0
CIRCLE
  5
5C6
100
AcDbEntity
  8
1-0
100
AcDbCircle
  6
CONTINUOUS
370
30
 10
461.96516573069
 20
481.7112154799
 40
3.5
  0
LINE
  5
5C7
100
AcDbEntity
  8
1-0
100
AcDbLine
  6
CONTINUOUS
370
30
 10
500.46516573069
 20
458.7112154799
 11
499.96516573069
 21
458.7112154799
  0
LINE
  5
5C8
100
AcDbEntity
  8
1-0
100
AcDbLine
  6
CONTINUOUS
370
30
 10
500.46516573069
 20
462.2112154799
 11
500.46516573069
 21
458.7112154799
  0
LINE
  5
5C9
100
AcDbEntity
  8
1-0
100
AcDbLine
  6
CONTINUOUS
370
30
 10
500.46516573069
 20
458.7112154799
 11
500.96516573069
 21
458.2112154799
  0
LINE
  5
5CA
100
AcDbEntity
  8
1-0
100
AcDbLine
  6
CONTINUOUS
370
30
 10
472.46516573069
 20
439.3862154799
 11
472.46516573069
 21
444.2112154799
  0
LINE
  5
5CB
100
AcDbEntity
  8
1-0
100
AcDbLine
  6
CONTINUOUS
370
30
 10
431.96516573069
 20
436.2112154799
 11
431.96516573069
 21
443.0112154799
  0
LINE
  5
5CC
100
AcDbEntity
  8
1-0
100
AcDbLine
  6
CONTINUOUS
370
30
 10
469.46516573069
 20
489.2112154799
 11
469.46516573069
 21
489.7112154799
  0
LINE
  5
5CD
100
AcDbEntity
  8
1-0
100
AcDbLine
  6
CONTINUOUS
370
30
 10
512.96516573069
 20
499.2112154799
 11
508.96516573069
 21
499.2112154799
  0
LINE
  5
5CE
100
AcDbEntity
  8
1-0
100
AcDbLine
  6
CONTINUOUS
370
30
 10
512.96516573069
 20
487.2112154799
 11
516.96516573069
 21
487.2112154799
  0
LINE
  5
5CF
100
AcDbEntity
  8
1-0
100
AcDbLine
  6
CONTINUOUS
370
30
 10
512.96516573069
 20
487.2112154799
 11
508.96516573069
 21
487.2112154799
  0
LINE
  5
5D0
100
AcDbEntity
  8
1-0
100
AcDbLine
  6
CONTINUOUS
370
30
 10
483.81630673989
 20
499.7112154799
 11
483.81630673989
 21
490.7112154799
  0
LINE
  5
5D1
100
AcDbEntity
  8
1-0
100
AcDbLine
  6
CONTINUOUS
370
30
 10
485.46516573069
 20
490.7112154799
 11
485.46516573069
 21
499.7112154799
  0
LINE
  5
5D2
100
AcDbEntity
  8
1-0
100
AcDbLine
  6
CONTINUOUS
370
30
 10
484.96516573069
 20
490.2112154799
 11
484.96516573069
 21
489.7112154799
  0
LINE
  5
5D3
100
AcDbEntity
  8
1-0
100
AcDbLine
  6
CONTINUOUS
370
30
 10
484.96516573069
 20
490.2112154799
 11
485.46516573069
 21
490.7112154799
  0
LINE
  5
5D4
100
AcDbEntity
  8
1-0
100
AcDbLine
  6
CONTINUOUS
370
30
 10
493.46516573069
 20
489.2112154799
 11
493.46516573069
 21
489.7112154799
  0
LINE
  5
5D5
100
AcDbEntity
  8
1-0
100
AcDbLine
  6
CONTINUOUS
370
30
 10
484.70123370819
 20
490.7112154799
 11
484.70123370819
 21
499.7112154799
  0
LINE
  5
5D6
100
AcDbEntity
  8
1-0
100
AcDbLine
  6
CONTINUOUS
370
30
 10
485.26939179589
 20
499.7112154799
 11
485.26939179589
 21
490.7112154799
  0
LINE
  5
5D7
100
AcDbEntity
  8
1-0
100
AcDbLine
  6
CONTINUOUS
370
30
 10
483.71516573069
 20
438.2112154799
 11
483.71516573069
 21
436.2112154799
  0
LINE
  5
5D8
100
AcDbEntity
  8
1-0
100
AcDbLine
  6
CONTINUOUS
370
30
 10
484.21516573069
 20
435.7112154799
 11
488.71516573069
 21
435.7112154799
  0
LINE
  5
5D9
100
AcDbEntity
  8
1-0
100
AcDbLine
  6
CONTINUOUS
370
30
 10
489.21516573069
 20
436.2112154799
 11
488.71516573069
 21
435.7112154799
  0
LINE
  5
5DA
100
AcDbEntity
  8
1-0
100
AcDbLine
  6
CONTINUOUS
370
30
 10
441.96516573069
 20
442.9612154799
 11
431.96516573069
 21
442.9612154799
  0
LINE
  5
5DB
100
AcDbEntity
  8
1-0
100
AcDbLine
  6
CONTINUOUS
370
30
 10
431.26516573069
 20
443.7112154799
 11
419.66516573069
 21
443.7112154799
  0
LINE
  5
5DC
100
AcDbEntity
  8
1-0
100
AcDbLine
  6
CONTINUOUS
370
30
 10
418.96516573069
 20
436.2112154799
 11
418.96516573069
 21
440.7112154799
  0
LINE
  5
5DD
100
AcDbEntity
  8
1-0
100
AcDbLine
  6
CONTINUOUS
370
30
 10
418.96516573069
 20
436.2112154799
 11
418.96516573069
 21
431.7112154799
  0
LINE
  5
5DE
100
AcDbEntity
  8
1-0
100
AcDbLine
  6
CONTINUOUS
370
30
 10
418.96516573069
 20
440.7112154799
 11
419.66516573069
 21
443.7112154799
  0
LINE
  5
5DF
100
AcDbEntity
  8
1-0
100
AcDbLine
  6
CONTINUOUS
370
15
 10
454.46516573069
 20
442.2112154799
 11
454.46516573069
 21
430.2112154799
  0
LINE
  5
5E0
100
AcDbEntity
  8
1-0
100
AcDbLine
  6
CONTINUOUS
370
30
 10
491.21516573069
 20
435.7112154799
 11
490.71516573069
 21
436.2112154799
  0
LINE
  5
5E1
100
AcDbEntity
  8
1-0
100
AcDbLine
  6
CONTINUOUS
370
30
 10
484.21516573069
 20
435.7112154799
 11
483.71516573069
 21
436.2112154799
  0
CIRCLE
  5
5E2
100
AcDbEntity
  8
1-0
100
AcDbCircle
  6
CONTINUOUS
370
30
 10
491.96516573069
 20
451.7112154799
 40
3.5
  0
LINE
  5
5E3
100
AcDbEntity
  8
1-0
100
AcDbLine
  6
CONTINUOUS
370
30
 10
444.96516573069
 20
436.2112154799
 11
444.96516573069
 21
429.9612154799
  0
LINE
  5
5E4
100
AcDbEntity
  8
1-0
100
AcDbLine
  6
CONTINUOUS
370
30
 10
444.96516573069
 20
429.9612154799
 11
441.96516573069
 21
429.4612154799
  0
LINE
  5
5E5
100
AcDbEntity
  8
1-0
100
AcDbLine
  6
CONTINUOUS
370
30
 10
441.96516573069
 20
429.4612154799
 11
431.96516573069
 21
429.4612154799
  0
LINE
  5
5E6
100
AcDbEntity
  8
1-0
100
AcDbLine
  6
CONTINUOUS
370
30
 10
525.06516573069
 20
440.6612154799
 11
525.06516573069
 21
428.9612154799
  0
LINE
  5
5E7
100
AcDbEntity
  8
1-0
100
AcDbLine
  6
CONTINUOUS
370
30
 10
532.56516573069
 20
428.9612154799
 11
516.06516573069
 21
428.9612154799
  0
LINE
  5
5E8
100
AcDbEntity
  8
1-0
100
AcDbLine
  6
CONTINUOUS
370
30
 10
519.46516573069
 20
477.2112154799
 11
519.46516573069
 21
466.7112154799
  0
LINE
  5
5E9
100
AcDbEntity
  8
1-0
100
AcDbLine
  6
CONTINUOUS
370
30
 10
527.96516573069
 20
487.2112154799
 11
527.96516573069
 21
492.4612154799
  0
LINE
  5
5EA
100
AcDbEntity
  8
1-0
100
AcDbLine
  6
CONTINUOUS
370
30
 10
540.06516573069
 20
492.7612154799
 11
539.76516573069
 21
492.4612154799
  0
LINE
  5
5EB
100
AcDbEntity
  8
1-0
100
AcDbLine
  6
CONTINUOUS
370
30
 10
537.16516573069
 20
486.7112154799
 11
537.16516573069
 21
492.4612154799
  0
LINE
  5
5EC
100
AcDbEntity
  8
1-0
100
AcDbLine
  6
CONTINUOUS
370
30
 10
525.06516573069
 20
492.7612154799
 11
525.36516573069
 21
492.4612154799
  0
LINE
  5
5ED
100
AcDbEntity
  8
1-0
100
AcDbLine
  6
CONTINUOUS
370
30
 10
532.56516573069
 20
492.4612154799
 11
525.36516573069
 21
492.4612154799
  0
LINE
  5
5EE
100
AcDbEntity
  8
1-0
100
AcDbLine
  6
CONTINUOUS
370
30
 10
532.56516573069
 20
492.4612154799
 11
539.76516573069
 21
492.4612154799
  0
LINE
  5
5EF
100
AcDbEntity
  8
1-0
100
AcDbLine
  6
CONTINUOUS
370
30
 10
510.88809066569
 20
488.2112154799
 11
510.88809066569
 21
498.2112154799
  0
LINE
  5
5F0
100
AcDbEntity
  8
1-0
100
AcDbLine
  6
CONTINUOUS
370
30
 10
509.69086206099
 20
498.2112154799
 11
509.69086206099
 21
488.2112154799
  0
LINE
  5
5F1
100
AcDbEntity
  8
1-0
100
AcDbLine
  6
CONTINUOUS
370
30
 10
508.75889806659
 20
488.2112154799
 11
508.75889806659
 21
498.2112154799
  0
LINE
  5
5F2
100
AcDbEntity
  8
1-0
100
AcDbLine
  6
CONTINUOUS
370
30
 10
508.16770086269
 20
498.2112154799
 11
508.16770086269
 21
488.2112154799
  0
LINE
  5
5F3
100
AcDbEntity
  8
1-0
100
AcDbLine
  6
CONTINUOUS
370
30
 10
509.96516573069
 20
459.8600744708
 11
500.96516573069
 21
459.8600744708
  0
LINE
  5
5F4
100
AcDbEntity
  8
1-0
100
AcDbLine
  6
CONTINUOUS
370
30
 10
500.96516573069
 20
458.2112154799
 11
509.96516573069
 21
458.2112154799
  0
LINE
  5
5F5
100
AcDbEntity
  8
1-0
100
AcDbLine
  6
CONTINUOUS
370
30
 10
500.96516573069
 20
466.2112154799
 11
509.96516573069
 21
466.2112154799
  0
LINE
  5
5F6
100
AcDbEntity
  8
1-0
100
AcDbLine
  6
CONTINUOUS
370
30
 10
509.46516573069
 20
486.7112154799
 11
499.46516573069
 21
486.7112154799
  0
LINE
  5
5F7
100
AcDbEntity
  8
1-0
100
AcDbLine
  6
CONTINUOUS
370
30
 10
500.96516573069
 20
462.2112154799
 11
509.96516573069
 21
462.2112154799
  0
LINE
  5
5F8
100
AcDbEntity
  8
1-0
100
AcDbLine
  6
CONTINUOUS
370
30
 10
509.96516573069
 20
466.0154415451
 11
500.96516573069
 21
466.0154415451
  0
LINE
  5
5F9
100
AcDbEntity
  8
1-0
100
AcDbLine
  6
CONTINUOUS
370
30
 10
507.96516573069
 20
498.2112154799
 11
517.96516573069
 21
498.2112154799
  0
LINE
  5
5FA
100
AcDbEntity
  8
1-0
100
AcDbLine
  6
CONTINUOUS
370
30
 10
512.25359153939
 20
498.2112154799
 11
512.25359153939
 21
488.2112154799
  0
LINE
  5
5FB
100
AcDbEntity
  8
1-0
100
AcDbLine
  6
CONTINUOUS
370
30
 10
507.96516573069
 20
498.2112154799
 11
507.96516573069
 21
488.2112154799
  0
LINE
  5
5FC
100
AcDbEntity
  8
1-0
100
AcDbLine
  6
CONTINUOUS
370
30
 10
500.46516573069
 20
465.7112154799
 11
500.96516573069
 21
466.2112154799
  0
LINE
  5
5FD
100
AcDbEntity
  8
1-0
100
AcDbLine
  6
CONTINUOUS
370
30
 10
500.46516573069
 20
462.2112154799
 11
500.46516573069
 21
465.7112154799
  0
LINE
  5
5FE
100
AcDbEntity
  8
1-0
100
AcDbLine
  6
CONTINUOUS
370
30
 10
500.46516573069
 20
465.7112154799
 11
499.96516573069
 21
465.7112154799
  0
LINE
  5
5FF
100
AcDbEntity
  8
1-0
100
AcDbLine
  6
CONTINUOUS
370
30
 10
529.24516573069
 20
470.7112154799
 11
529.24516573069
 21
471.2112154799
  0
LINE
  5
600
100
AcDbEntity
  8
1-0
100
AcDbLine
  6
CONTINUOUS
370
30
 10
524.46516573069
 20
470.7112154799
 11
529.24516573069
 21
470.7112154799
  0
LINE
  5
601
100
AcDbEntity
  8
1-0
100
AcDbLine
  6
CONTINUOUS
370
30
 10
520.33119113449
 20
477.2112154799
 11
519.46516573069
 21
476.7112154799
  0
LINE
  5
602
100
AcDbEntity
  8
1-0
100
AcDbLine
  6
CONTINUOUS
370
30
 10
512.96516573069
 20
499.2112154799
 11
516.96516573069
 21
499.2112154799
  0
LINE
  5
603
100
AcDbEntity
  8
1-0
100
AcDbLine
  6
CONTINUOUS
370
30
 10
506.46516573069
 20
486.7112154799
 11
536.46516573069
 21
486.7112154799
  0
LINE
  5
604
100
AcDbEntity
  8
1-0
100
AcDbLine
  6
CONTINUOUS
370
30
 10
536.46516573069
 20
487.2112154799
 11
506.46516573069
 21
487.2112154799
  0
LINE
  5
605
100
AcDbEntity
  8
1-0
100
AcDbLine
  6
CONTINUOUS
370
30
 10
516.96516573069
 20
499.2112154799
 11
517.96516573069
 21
498.2112154799
  0
LINE
  5
606
100
AcDbEntity
  8
1-0
100
AcDbLine
  6
CONTINUOUS
370
30
 10
517.96516573069
 20
498.2112154799
 11
517.96516573069
 21
488.2112154799
  0
LINE
  5
607
100
AcDbEntity
  8
1-0
100
AcDbLine
  6
CONTINUOUS
370
30
 10
517.96516573069
 20
488.2112154799
 11
516.96516573069
 21
487.2112154799
  0
LINE
  5
608
100
AcDbEntity
  8
1-0
100
AcDbLine
  6
CONTINUOUS
370
15
 10
536.46516573069
 20
486.7112154799
 11
536.46516573069
 21
487.2112154799
  0
LINE
  5
609
100
AcDbEntity
  8
1-0
100
AcDbLine
  6
CONTINUOUS
370
30
 10
528.71516573069
 20
488.5112154799
 11
528.71516573069
 21
487.2112154799
  0
ARC
  5
60A
100
AcDbEntity
  8
1-0
100
AcDbCircle
  6
CONTINUOUS
370
30
 10
529.41516573069
 20
488.5112154799
 40
0.7
100
AcDbArc
 50
90
 51
180
  0
LINE
  5
60B
100
AcDbEntity
  8
1-0
100
AcDbLine
  6
CONTINUOUS
370
30
 10
529.41516573069
 20
489.2112154799
 11
533.51516573069
 21
489.2112154799
  0
LINE
  5
60C
100
AcDbEntity
  8
1-0
100
AcDbLine
  6
CONTINUOUS
370
30
 10
489.21516573069
 20
438.2112154799
 11
489.21516573069
 21
436.2112154799
  0
LINE
  5
60D
100
AcDbEntity
  8
1-0
100
AcDbLine
  6
CONTINUOUS
370
30
 10
496.46516573069
 20
444.2112154799
 11
496.46516573069
 21
438.2112154799
  0
LINE
  5
60E
100
AcDbEntity
  8
1-0
100
AcDbLine
  6
CONTINUOUS
370
30
 10
496.21516573069
 20
436.2112154799
 11
495.71516573069
 21
435.7112154799
  0
LINE
  5
60F
100
AcDbEntity
  8
1-0
100
AcDbLine
  6
CONTINUOUS
370
30
 10
491.21516573069
 20
435.7112154799
 11
495.71516573069
 21
435.7112154799
  0
LINE
  5
610
100
AcDbEntity
  8
1-0
100
AcDbLine
  6
CONTINUOUS
370
30
 10
496.21516573069
 20
438.2112154799
 11
496.21516573069
 21
436.2112154799
  0
LINE
  5
611
100
AcDbEntity
  8
1-0
100
AcDbLine
  6
CONTINUOUS
370
30
 10
490.71516573069
 20
438.2112154799
 11
490.71516573069
 21
436.2112154799
  0
LINE
  5
612
100
AcDbEntity
  8
1-0
100
AcDbLine
  6
CONTINUOUS
370
30
 10
510.46516573069
 20
462.2112154799
 11
510.46516573069
 21
465.7112154799
  0
LINE
  5
613
100
AcDbEntity
  8
1-0
100
AcDbLine
  6
CONTINUOUS
370
30
 10
509.96516573069
 20
466.2112154799
 11
510.46516573069
 21
465.7112154799
  0
LINE
  5
614
100
AcDbEntity
  8
1-0
100
AcDbLine
  6
CONTINUOUS
370
30
 10
509.96516573069
 20
458.2112154799
 11
510.46516573069
 21
458.7112154799
  0
CIRCLE
  5
615
100
AcDbEntity
  8
1-0
100
AcDbCircle
  6
CONTINUOUS
370
30
 10
491.96516573069
 20
481.7112154799
 40
3.5
  0
LINE
  5
616
100
AcDbEntity
  8
1-0
100
AcDbLine
  6
CONTINUOUS
370
30
 10
499.96516573069
 20
474.2112154799
 11
499.46516573069
 21
474.2112154799
  0
LINE
  5
617
100
AcDbEntity
  8
1-0
100
AcDbLine
  6
CONTINUOUS
370
30
 10
499.96516573069
 20
474.2112154799
 11
499.96516573069
 21
450.2112154799
  0
LINE
  5
618
100
AcDbEntity
  8
1-0
100
AcDbLine
  6
CONTINUOUS
370
30
 10
539.94118929569
 20
511.9612154799
 11
539.94118929569
 21
504.9612154799
  0
LINE
  5
619
100
AcDbEntity
  8
1-0
100
AcDbLine
  6
CONTINUOUS
370
30
 10
536.34802160799
 20
504.9612154799
 11
536.34802160799
 21
511.9612154799
  0
LINE
  5
61A
100
AcDbEntity
  8
1-0
100
AcDbLine
  6
CONTINUOUS
370
30
 10
532.56516573069
 20
504.9612154799
 11
532.56516573069
 21
511.9612154799
  0
LINE
  5
61B
100
AcDbEntity
  8
1-0
100
AcDbLine
  6
CONTINUOUS
370
30
 10
520.33119113449
 20
477.2112154799
 11
527.46516573069
 21
481.3300176335
  0
LINE
  5
61C
100
AcDbEntity
  8
1-0
100
AcDbLine
  6
CONTINUOUS
370
30
 10
520.33119113449
 20
456.2112154799
 11
527.46516573069
 21
452.0924133264
  0
LINE
  5
61D
100
AcDbEntity
  8
1-0
100
AcDbLine
  6
CONTINUOUS
370
30
 10
530.06516573069
 20
470.7112154799
 11
530.06516573069
 21
466.7112154799
  0
LINE
  5
61E
100
AcDbEntity
  8
1-0
100
AcDbLine
  6
CONTINUOUS
370
30
 10
529.24516573069
 20
470.7112154799
 11
530.06516573069
 21
470.7112154799
  0
LINE
  5
61F
100
AcDbEntity
  8
1-0
100
AcDbLine
  6
CONTINUOUS
370
30
 10
529.24516573069
 20
462.7112154799
 11
530.06516573069
 21
462.7112154799
  0
LINE
  5
620
100
AcDbEntity
  8
1-0
100
AcDbLine
  6
CONTINUOUS
370
30
 10
530.06516573069
 20
462.7112154799
 11
530.06516573069
 21
466.7112154799
  0
LINE
  5
621
100
AcDbEntity
  8
1-0
100
AcDbLine
  6
CONTINUOUS
370
30
 10
529.24516573069
 20
462.7112154799
 11
529.24516573069
 21
470.7112154799
  0
LINE
  5
622
100
AcDbEntity
  8
1-0
100
AcDbLine
  6
CONTINUOUS
370
30
 10
524.46516573069
 20
462.7112154799
 11
529.24516573069
 21
462.7112154799
  0
LINE
  5
623
100
AcDbEntity
  8
1-0
100
AcDbLine
  6
CONTINUOUS
370
30
 10
519.46516573069
 20
477.2112154799
 11
520.33119113449
 21
477.2112154799
  0
LINE
  5
624
100
AcDbEntity
  8
1-0
100
AcDbLine
  6
CONTINUOUS
370
30
 10
519.46516573069
 20
477.2112154799
 11
519.46516573069
 21
486.7112154799
  0
LINE
  5
625
100
AcDbEntity
  8
1-0
100
AcDbLine
  6
CONTINUOUS
370
30
 10
517.76263059879
 20
488.2112154799
 11
517.76263059879
 21
498.2112154799
  0
LINE
  5
626
100
AcDbEntity
  8
1-0
100
AcDbLine
  6
CONTINUOUS
370
30
 10
517.17143339489
 20
498.2112154799
 11
517.17143339489
 21
488.2112154799
  0
LINE
  5
627
100
AcDbEntity
  8
1-0
100
AcDbLine
  6
CONTINUOUS
370
30
 10
516.23946940049
 20
488.2112154799
 11
516.23946940049
 21
498.2112154799
  0
LINE
  5
628
100
AcDbEntity
  8
1-0
100
AcDbLine
  6
CONTINUOUS
370
30
 10
517.96516573069
 20
488.2112154799
 11
507.96516573069
 21
488.2112154799
  0
LINE
  5
629
100
AcDbEntity
  8
1-0
100
AcDbLine
  6
CONTINUOUS
370
30
 10
515.04224079579
 20
498.2112154799
 11
515.04224079579
 21
488.2112154799
  0
LINE
  5
62A
100
AcDbEntity
  8
1-0
100
AcDbLine
  6
CONTINUOUS
370
30
 10
513.67673992209
 20
488.2112154799
 11
513.67673992209
 21
498.2112154799
  0
LINE
  5
62B
100
AcDbEntity
  8
1-0
100
AcDbLine
  6
CONTINUOUS
370
30
 10
527.46516573069
 20
471.2112154799
 11
527.46516573069
 21
481.3300176335
  0
LINE
  5
62C
100
AcDbEntity
  8
1-0
100
AcDbLine
  6
CONTINUOUS
370
30
 10
530.96516573069
 20
471.2112154799
 11
530.96516573069
 21
466.7112154799
  0
LINE
  5
62D
100
AcDbEntity
  8
1-0
100
AcDbLine
  6
CONTINUOUS
370
30
 10
524.46516573069
 20
470.9112154799
 11
525.96516573069
 21
470.9112154799
  0
LINE
  5
62E
100
AcDbEntity
  8
1-0
100
AcDbLine
  6
CONTINUOUS
370
30
 10
507.96516573069
 20
488.2112154799
 11
508.96516573069
 21
487.2112154799
  0
LINE
  5
62F
100
AcDbEntity
  8
1-0
100
AcDbLine
  6
CONTINUOUS
370
30
 10
506.46516573069
 20
487.2112154799
 11
506.46516573069
 21
486.7112154799
  0
LINE
  5
630
100
AcDbEntity
  8
1-0
100
AcDbLine
  6
CONTINUOUS
370
30
 10
509.46516573069
 20
486.7112154799
 11
519.46516573069
 21
486.7112154799
  0
LINE
  5
631
100
AcDbEntity
  8
1-0
100
AcDbLine
  6
CONTINUOUS
370
30
 10
586.39747186579
 20
486.7112154799
 11
586.39747186579
 21
466.7112154799
  0
LINE
  5
632
100
AcDbEntity
  8
1-0
100
AcDbLine
  6
CONTINUOUS
370
30
 10
598.39747186579
 20
486.7112154799
 11
598.39747186579
 21
466.7112154799
  0
LINE
  5
633
100
AcDbEntity
  8
1-0
100
AcDbLine
  6
CONTINUOUS
370
30
 10
598.39747186579
 20
470.6130219203
 11
586.39747186579
 21
470.6130219203
  0
LINE
  5
634
100
AcDbEntity
  8
1-0
100
AcDbLine
  6
CONTINUOUS
370
30
 10
527.46516573069
 20
462.2112154799
 11
527.46516573069
 21
452.0924133264
  0
LINE
  5
635
100
AcDbEntity
  8
1-0
100
AcDbLine
  6
CONTINUOUS
370
30
 10
527.46516573069
 20
462.2112154799
 11
530.96516573069
 21
462.2112154799
  0
LINE
  5
636
100
AcDbEntity
  8
1-0
100
AcDbLine
  6
CONTINUOUS
370
30
 10
524.46516573069
 20
462.5112154799
 11
524.46516573069
 21
466.7112154799
  0
LINE
  5
637
100
AcDbEntity
  8
1-0
100
AcDbLine
  6
CONTINUOUS
370
30
 10
530.96516573069
 20
462.2112154799
 11
530.96516573069
 21
466.7112154799
  0
LINE
  5
638
100
AcDbEntity
  8
1-0
100
AcDbLine
  6
CONTINUOUS
370
30
 10
519.46516573069
 20
456.2112154799
 11
519.46516573069
 21
446.7112154799
  0
LINE
  5
639
100
AcDbEntity
  8
1-0
100
AcDbLine
  6
CONTINUOUS
370
30
 10
519.46516573069
 20
456.2112154799
 11
520.33119113449
 21
456.2112154799
  0
LINE
  5
63A
100
AcDbEntity
  8
1-0
100
AcDbLine
  6
CONTINUOUS
370
30
 10
520.33119113449
 20
456.2112154799
 11
519.46516573069
 21
456.7112154799
  0
LINE
  5
63B
100
AcDbEntity
  8
1-0
100
AcDbLine
  6
CONTINUOUS
370
30
 10
532.56516573069
 20
440.9612154799
 11
539.76516573069
 21
440.9612154799
  0
LINE
  5
63C
100
AcDbEntity
  8
1-0
100
AcDbLine
  6
CONTINUOUS
370
30
 10
532.56516573069
 20
440.9612154799
 11
525.36516573069
 21
440.9612154799
  0
LINE
  5
63D
100
AcDbEntity
  8
1-0
100
AcDbLine
  6
CONTINUOUS
370
30
 10
525.06516573069
 20
440.6612154799
 11
525.36516573069
 21
440.9612154799
  0
LINE
  5
63E
100
AcDbEntity
  8
1-0
100
AcDbLine
  6
CONTINUOUS
370
30
 10
534.21516573069
 20
488.5112154799
 11
534.21516573069
 21
487.2112154799
  0
ARC
  5
63F
100
AcDbEntity
  8
1-0
100
AcDbCircle
  6
CONTINUOUS
370
30
 10
533.51516573069
 20
488.5112154799
 40
0.7
100
AcDbArc
 50
0
 51
90
  0
LINE
  5
640
100
AcDbEntity
  8
1-0
100
AcDbLine
  6
CONTINUOUS
370
30
 10
508.96516573069
 20
499.2112154799
 11
507.96516573069
 21
498.2112154799
  0
LINE
  5
641
100
AcDbEntity
  8
1-0
100
AcDbLine
  6
CONTINUOUS
370
30
 10
515.56516573069
 20
428.4612154799
 11
532.56516573069
 21
428.4612154799
  0
LINE
  5
642
100
AcDbEntity
  8
1-0
100
AcDbLine
  6
CONTINUOUS
370
30
 10
516.06516573069
 20
428.9612154799
 11
515.56516573069
 21
428.4612154799
  0
LINE
  5
643
100
AcDbEntity
  8
1-0
100
AcDbLine
  6
CONTINUOUS
370
30
 10
510.46516573069
 20
462.2112154799
 11
510.46516573069
 21
458.7112154799
  0
LINE
  5
644
100
AcDbEntity
  8
1-0
100
AcDbLine
  6
CONTINUOUS
370
30
 10
521.96583909909
 20
504.9612154799
 11
521.96583909909
 21
511.9612154799
  0
LINE
  5
645
100
AcDbEntity
  8
1-0
100
AcDbLine
  6
CONTINUOUS
370
30
 10
519.27403052879
 20
511.9612154799
 11
519.27403052879
 21
504.9612154799
  0
LINE
  5
646
100
AcDbEntity
  8
1-0
100
AcDbLine
  6
CONTINUOUS
370
30
 10
517.24869497639
 20
504.9612154799
 11
517.24869497639
 21
511.9612154799
  0
LINE
  5
647
100
AcDbEntity
  8
1-0
100
AcDbLine
  6
CONTINUOUS
370
30
 10
509.96516573069
 20
466.2112154799
 11
509.96516573069
 21
462.2112154799
  0
LINE
  5
648
100
AcDbEntity
  8
1-0
100
AcDbLine
  6
CONTINUOUS
370
30
 10
509.96516573069
 20
458.2112154799
 11
509.96516573069
 21
462.2112154799
  0
LINE
  5
649
100
AcDbEntity
  8
1-0
100
AcDbLine
  6
CONTINUOUS
370
30
 10
540.06516573069
 20
440.6612154799
 11
540.06516573069
 21
428.9612154799
  0
LINE
  5
64A
100
AcDbEntity
  8
1-0
100
AcDbLine
  6
CONTINUOUS
370
30
 10
586.39747186579
 20
486.7112154799
 11
585.39747186579
 21
485.7112154799
  0
LINE
  5
64B
100
AcDbEntity
  8
1-0
100
AcDbLine
  6
CONTINUOUS
370
30
 10
585.39747186579
 20
466.7112154799
 11
585.39747186579
 21
447.7112154799
  0
LINE
  5
64C
100
AcDbEntity
  8
1-0
100
AcDbLine
  6
CONTINUOUS
370
30
 10
586.39747186579
 20
446.7112154799
 11
585.39747186579
 21
447.7112154799
  0
LINE
  5
64D
100
AcDbEntity
  8
1-0
100
AcDbLine
  6
CONTINUOUS
370
30
 10
515.56516573069
 20
504.9612154799
 11
515.56516573069
 21
511.9612154799
  0
LINE
  5
64E
100
AcDbEntity
  8
1-0
100
AcDbLine
  6
CONTINUOUS
370
30
 10
532.56516573069
 20
504.4612154799
 11
516.06516573069
 21
504.4612154799
  0
LINE
  5
64F
100
AcDbEntity
  8
1-0
100
AcDbLine
  6
CONTINUOUS
370
30
 10
525.06516573069
 20
492.7612154799
 11
525.06516573069
 21
504.4612154799
  0
LINE
  5
650
100
AcDbEntity
  8
1-0
100
AcDbLine
  6
CONTINUOUS
370
30
 10
540.06516573069
 20
492.7612154799
 11
540.06516573069
 21
504.4612154799
  0
LINE
  5
651
100
AcDbEntity
  8
1-0
100
AcDbLine
  6
CONTINUOUS
370
30
 10
516.06516573069
 20
504.4612154799
 11
515.56516573069
 21
504.9612154799
  0
LINE
  5
652
100
AcDbEntity
  8
1-0
100
AcDbLine
  6
CONTINUOUS
370
30
 10
515.56516573069
 20
504.9612154799
 11
532.56516573069
 21
504.9612154799
  0
LINE
  5
653
100
AcDbEntity
  8
1-0
100
AcDbLine
  6
CONTINUOUS
370
30
 10
532.56516573069
 20
512.4612154799
 11
516.06516573069
 21
512.4612154799
  0
LINE
  5
654
100
AcDbEntity
  8
1-0
100
AcDbLine
  6
CONTINUOUS
370
30
 10
515.56516573069
 20
511.9612154799
 11
532.56516573069
 21
511.9612154799
  0
LINE
  5
655
100
AcDbEntity
  8
1-0
100
AcDbLine
  6
CONTINUOUS
370
30
 10
515.56516573069
 20
511.9612154799
 11
516.06516573069
 21
512.4612154799
  0
LINE
  5
656
100
AcDbEntity
  8
1-0
100
AcDbLine
  6
CONTINUOUS
370
30
 10
528.78230985349
 20
504.9612154799
 11
528.78230985349
 21
511.9612154799
  0
LINE
  5
657
100
AcDbEntity
  8
1-0
100
AcDbLine
  6
CONTINUOUS
370
30
 10
519.46516573069
 20
456.2112154799
 11
519.46516573069
 21
466.7112154799
  0
LINE
  5
658
100
AcDbEntity
  8
1-0
100
AcDbLine
  6
CONTINUOUS
370
30
 10
525.52734355719
 20
453.2112154799
 11
525.96516573069
 21
453.2112154799
  0
LINE
  5
659
100
AcDbEntity
  8
1-0
100
AcDbLine
  6
CONTINUOUS
370
30
 10
525.96516573069
 20
453.2112154799
 11
525.96516573069
 21
462.5112154799
  0
LINE
  5
65A
100
AcDbEntity
  8
1-0
100
AcDbLine
  6
CONTINUOUS
370
30
 10
524.46516573069
 20
462.5112154799
 11
525.96516573069
 21
462.5112154799
  0
LINE
  5
65B
100
AcDbEntity
  8
1-0
100
AcDbLine
  6
CONTINUOUS
370
30
 10
529.24516573069
 20
462.2112154799
 11
529.24516573069
 21
462.7112154799
  0
LINE
  5
65C
100
AcDbEntity
  8
1-0
100
AcDbLine
  6
CONTINUOUS
370
30
 10
527.46516573069
 20
471.2112154799
 11
530.96516573069
 21
471.2112154799
  0
LINE
  5
65D
100
AcDbEntity
  8
1-0
100
AcDbLine
  6
CONTINUOUS
370
30
 10
598.39747186579
 20
486.326921088
 11
586.39747186579
 21
486.326921088
  0
LINE
  5
65E
100
AcDbEntity
  8
1-0
100
AcDbLine
  6
CONTINUOUS
370
30
 10
586.39747186579
 20
485.1888061302
 11
598.39747186579
 21
485.1888061302
  0
LINE
  5
65F
100
AcDbEntity
  8
1-0
100
AcDbLine
  6
CONTINUOUS
370
30
 10
598.39747186579
 20
446.7112154799
 11
598.39747186579
 21
466.7112154799
  0
LINE
  5
660
100
AcDbEntity
  8
1-0
100
AcDbLine
  6
CONTINUOUS
370
30
 10
524.46516573069
 20
470.9112154799
 11
524.46516573069
 21
466.7112154799
  0
LINE
  5
661
100
AcDbEntity
  8
1-0
100
AcDbLine
  6
CONTINUOUS
370
30
 10
525.96516573069
 20
480.2112154799
 11
525.96516573069
 21
470.9112154799
  0
LINE
  5
662
100
AcDbEntity
  8
1-0
100
AcDbLine
  6
CONTINUOUS
370
30
 10
525.52734355719
 20
480.2112154799
 11
525.96516573069
 21
480.2112154799
  0
LINE
  5
663
100
AcDbEntity
  8
1-0
100
AcDbLine
  6
CONTINUOUS
370
30
 10
574.46486489529
 20
464.2112154799
 11
579.40168356169
 21
464.2112154799
  0
LINE
  5
664
100
AcDbEntity
  8
1-0
100
AcDbLine
  6
CONTINUOUS
370
30
 10
574.46516573069
 20
469.2112154799
 11
579.39777270119
 21
469.2112154799
  0
LINE
  5
665
100
AcDbEntity
  8
1-0
100
AcDbLine
  6
CONTINUOUS
370
30
 10
586.39747186579
 20
446.7112154799
 11
586.39747186579
 21
466.7112154799
  0
LINE
  5
666
100
AcDbEntity
  8
1-0
100
AcDbLine
  6
CONTINUOUS
370
30
 10
586.39747186579
 20
459.0575468326
 11
598.39747186579
 21
459.0575468326
  0
LINE
  5
667
100
AcDbEntity
  8
1-0
100
AcDbLine
  6
CONTINUOUS
370
30
 10
598.39747186579
 20
455.5998108195
 11
586.39747186579
 21
455.5998108195
  0
LINE
  5
668
100
AcDbEntity
  8
1-0
100
AcDbLine
  6
CONTINUOUS
370
30
 10
586.39747186579
 20
452.5690798562
 11
598.39747186579
 21
452.5690798562
  0
LINE
  5
669
100
AcDbEntity
  8
1-0
100
AcDbLine
  6
CONTINUOUS
370
30
 10
598.39747186579
 20
466.7112154799
 11
586.39747186579
 21
466.7112154799
  0
LINE
  5
66A
100
AcDbEntity
  8
1-0
100
AcDbLine
  6
CONTINUOUS
370
30
 10
598.39747186579
 20
450.0818232339
 11
586.39747186579
 21
450.0818232339
  0
LINE
  5
66B
100
AcDbEntity
  8
1-0
100
AcDbLine
  6
CONTINUOUS
370
30
 10
598.39747186579
 20
462.8094090396
 11
586.39747186579
 21
462.8094090396
  0
LINE
  5
66C
100
AcDbEntity
  8
1-0
100
AcDbLine
  6
CONTINUOUS
370
30
 10
586.39747186579
 20
448.2336248297
 11
598.39747186579
 21
448.2336248297
  0
LINE
  5
66D
100
AcDbEntity
  8
1-0
100
AcDbLine
  6
CONTINUOUS
370
30
 10
598.39747186579
 20
447.0955098719
 11
586.39747186579
 21
447.0955098719
  0
LINE
  5
66E
100
AcDbEntity
  8
1-0
100
AcDbLine
  6
CONTINUOUS
370
30
 10
586.39747186579
 20
446.7112154799
 11
598.39747186579
 21
446.7112154799
  0
LINE
  5
66F
100
AcDbEntity
  8
1-0
100
AcDbLine
  6
CONTINUOUS
370
30
 10
599.39747186579
 20
466.7112154799
 11
599.39747186579
 21
485.7112154799
  0
LINE
  5
670
100
AcDbEntity
  8
1-0
100
AcDbLine
  6
CONTINUOUS
370
30
 10
527.96516573069
 20
446.7112154799
 11
527.96516573069
 21
440.9612154799
  0
LINE
  5
671
100
AcDbEntity
  8
1-0
100
AcDbLine
  6
CONTINUOUS
370
30
 10
537.16516573069
 20
446.7112154799
 11
537.16516573069
 21
440.9612154799
  0
LINE
  5
672
100
AcDbEntity
  8
1-0
100
AcDbLine
  6
CONTINUOUS
370
30
 10
540.06516573069
 20
440.6612154799
 11
539.76516573069
 21
440.9612154799
  0
LINE
  5
673
100
AcDbEntity
  8
1-0
100
AcDbLine
  6
CENTER
370
15
 10
512.96516573069
 20
501.4062772083
 11
512.96516573069
 21
483.6489287197
  0
LINE
  5
674
100
AcDbEntity
  8
1-0
100
AcDbLine
  6
CONTINUOUS
370
30
 10
525.18914216569
 20
511.9612154799
 11
525.18914216569
 21
504.9612154799
  0
LINE
  5
675
100
AcDbEntity
  8
1-0
100
AcDbLine
  6
CONTINUOUS
370
30
 10
515.99139122369
 20
511.9612154799
 11
515.99139122369
 21
504.9612154799
  0
LINE
  5
676
100
AcDbEntity
  8
1-0
100
AcDbLine
  6
CONTINUOUS
370
30
 10
598.39747186579
 20
486.7112154799
 11
599.39747186579
 21
485.7112154799
  0
LINE
  5
677
100
AcDbEntity
  8
1-0
100
AcDbLine
  6
CONTINUOUS
370
30
 10
579.39747186579
 20
457.7112154799
 11
585.39747186579
 21
457.7112154799
  0
LINE
  5
678
100
AcDbEntity
  8
1-0
100
AcDbLine
  6
CONTINUOUS
370
30
 10
585.39747186579
 20
466.7112154799
 11
585.39747186579
 21
485.7112154799
  0
LINE
  5
679
100
AcDbEntity
  8
1-0
100
AcDbLine
  6
CONTINUOUS
370
30
 10
547.88163648509
 20
504.9612154799
 11
547.88163648509
 21
511.9612154799
  0
LINE
  5
67A
100
AcDbEntity
  8
1-0
100
AcDbLine
  6
CONTINUOUS
370
30
 10
545.85630093269
 20
511.9612154799
 11
545.85630093269
 21
504.9612154799
  0
LINE
  5
67B
100
AcDbEntity
  8
1-0
100
AcDbLine
  6
CONTINUOUS
370
30
 10
543.16449236229
 20
504.9612154799
 11
543.16449236229
 21
511.9612154799
  0
TEXT
  5
67C
100
AcDbEntity
  8
1-0
100
AcDbText
  6
CONTINUOUS
 10
277.466117089726
 20
153.036398765656
 40
10.7949995040894
 41
0.760000090641028
  1
クランプツマミ
  7
Font_0
100
AcDbText
  0
LINE
  5
67D
100
AcDbEntity
  8
1-0
100
AcDbLine
  6
CONTINUOUS
370
30
 10
579.39747186579
 20
457.7112154799
 11
579.39747186579
 21
466.7112154799
  0
LINE
  5
67E
100
AcDbEntity
  8
1-0
100
AcDbLine
  6
CONTINUOUS
370
30
 10
574.46486489529
 20
463.7112154799
 11
579.40198439709
 21
463.7112154799
  0
LINE
  5
67F
100
AcDbEntity
  8
1-0
100
AcDbLine
  6
CONTINUOUS
370
30
 10
574.46516573069
 20
469.7112154799
 11
579.39747186579
 21
469.7112154799
  0
LINE
  5
680
100
AcDbEntity
  8
1-0
100
AcDbLine
  6
CONTINUOUS
370
30
 10
579.39747186579
 20
475.7112154799
 11
579.39747186579
 21
466.7112154799
  0
LINE
  5
681
100
AcDbEntity
  8
1-0
100
AcDbLine
  6
CONTINUOUS
370
30
 10
579.39747186579
 20
475.7112154799
 11
585.39747186579
 21
475.7112154799
  0
LINE
  5
682
100
AcDbEntity
  8
1-0
100
AcDbLine
  6
CONTINUOUS
370
30
 10
598.39747186579
 20
446.7112154799
 11
599.39747186579
 21
447.7112154799
  0
LINE
  5
683
100
AcDbEntity
  8
1-0
100
AcDbLine
  6
CONTINUOUS
370
30
 10
599.39747186579
 20
466.7112154799
 11
599.39747186579
 21
447.7112154799
  0
LINE
  5
684
100
AcDbEntity
  8
1-0
100
AcDbLine
  6
CONTINUOUS
370
30
 10
586.39747186579
 20
486.7112154799
 11
598.39747186579
 21
486.7112154799
  0
LINE
  5
685
100
AcDbEntity
  8
1-0
100
AcDbLine
  6
CONTINUOUS
370
30
 10
574.46516573069
 20
481.7112154799
 11
574.46516573069
 21
451.7112154799
  0
LINE
  5
686
100
AcDbEntity
  8
1-0
100
AcDbLine
  6
CENTER
370
15
 10
551.96516573069
 20
484.2112154799
 11
551.96516573069
 21
449.2112154799
  0
LINE
  5
687
100
AcDbEntity
  8
1-0
100
AcDbLine
  6
CONTINUOUS
370
30
 10
569.46516573069
 20
486.7112154799
 11
574.46516573069
 21
481.7112154799
  0
LINE
  5
688
100
AcDbEntity
  8
1-0
100
AcDbLine
  6
CONTINUOUS
370
30
 10
569.46516573069
 20
446.7112154799
 11
574.46516573069
 21
451.7112154799
  0
LINE
  5
689
100
AcDbEntity
  8
1-0
100
AcDbLine
  6
CONTINUOUS
370
15
 10
564.99187077879
 20
398.1619099244
 11
611.03290512719
 21
398.1619099244
  0
LINE
  5
68A
100
AcDbEntity
  8
1-0
100
AcDbLine
  6
CONTINUOUS
370
30
 10
586.39747186579
 20
474.3648841272
 11
598.39747186579
 21
474.3648841272
  0
LINE
  5
68B
100
AcDbEntity
  8
1-0
100
AcDbLine
  6
CONTINUOUS
370
30
 10
598.39747186579
 20
477.8226201403
 11
586.39747186579
 21
477.8226201403
  0
LINE
  5
68C
100
AcDbEntity
  8
1-0
100
AcDbLine
  6
CONTINUOUS
370
30
 10
586.39747186579
 20
480.8533511037
 11
598.39747186579
 21
480.8533511037
  0
LINE
  5
68D
100
AcDbEntity
  8
1-0
100
AcDbLine
  6
CONTINUOUS
370
30
 10
598.39747186579
 20
483.340607726
 11
586.39747186579
 21
483.340607726
  0
TEXT
  5
68E
100
AcDbEntity
  8
1-0
100
AcDbText
  6
CONTINUOUS
 10
300.102220315772
 20
372.290743015282
 40
11.8799998283386
 41
0.752083345487563
  1
前後微動
  7
Font_0
100
AcDbText
  0
LINE
  5
68F
100
AcDbEntity
  8
1-0
100
AcDbLine
  6
CONTINUOUS
370
30
 10
401.96516573069
 20
270.463732841
 11
401.96516573069
 21
290.463732841
  0
LINE
  5
690
100
AcDbEntity
  8
1-0
100
AcDbLine
  6
CONTINUOUS
370
30
 10
400.96516573069
 20
270.463732841
 11
400.96516573069
 21
290.463732841
  0
LINE
  5
691
100
AcDbEntity
  8
1-0
100
AcDbLine
  6
CONTINUOUS
370
30
 10
380.96516573069
 20
290.463732841
 11
400.96516573069
 21
290.463732841
  0
LINE
  5
692
100
AcDbEntity
  8
1-0
100
AcDbLine
  6
CONTINUOUS
370
30
 10
400.96516573069
 20
270.463732841
 11
380.96516573069
 21
270.463732841
  0
TEXT
  5
693
100
AcDbEntity
  8
1-0
100
AcDbText
  6
CONTINUOUS
 10
614.530404497926
 20
146.786323257856
 40
10.7949995040894
 41
0.760000090641028
  1
クランプノブ
  7
Font_0
100
AcDbText
  0
TEXT
  5
694
100
AcDbEntity
  8
1-0
100
AcDbText
  6
CONTINUOUS
 10
331.451942340142
 20
514.546846267122
 40
8.78281206207275
 41
1.11799404817459
  1
2-C10
  7
Font_0
100
AcDbText
  0
TEXT
  5
695
100
AcDbEntity
  8
1-0
100
AcDbText
  6
CONTINUOUS
 10
299.793147793132
 20
363.739477092942
 40
11.8799998283386
 41
0.757481073052772
  1
前後各6.5mm
  7
Font_0
100
AcDbText
  0
LINE
  5
696
100
AcDbEntity
  8
0-1
100
AcDbLine
  6
BYLAYER
370
  -2
 10
156.71399470349
 20
290.463732841
 11
231.83736545171
 21
290.463732841
  0
LINE
  5
697
100
AcDbEntity
  8
0-1
100
AcDbLine
  6
BYLAYER
370
  -2
 10
156.71399470349
 20
160.663732841
 11
231.86265349249
 21
160.663732841
  0
LINE
  5
698
100
AcDbEntity
  8
0-1
100
AcDbLine
  6
BYLAYER
370
  -2
 10
156.71399470349
 20
285.463732841
 11
156.71399470349
 21
165.663732841
  0
TEXT
  5
699
100
AcDbEntity
  8
0-1
100
AcDbText
  6
BYLAYER
 10
158.84732870349
 20
215.963732841
 40
12.8
  1
130
  7
Font_0
 50
90
 72
1
 11
152.44732870349
 21
225.563732841
100
AcDbText
 73
2
  0
LINE
  5
69A
100
AcDbEntity
  8
0-0
100
AcDbLine
  6
CONTINUOUS
370
  -2
 10
155.37424970349
 20
285.463732841
 11
156.71399470349
 21
290.463732841
  0
LINE
  5
69B
100
AcDbEntity
  8
0-0
100
AcDbLine
  6
CONTINUOUS
370
  -2
 10
156.71399470349
 20
290.463732841
 11
158.05373970349
 21
285.463732841
  0
LINE
  5
69C
100
AcDbEntity
  8
0-0
100
AcDbLine
  6
CONTINUOUS
370
  -2
 10
156.71399470349
 20
290.463732841
 11
156.71399470349
 21
285.463732841
  0
LINE
  5
69D
100
AcDbEntity
  8
0-0
100
AcDbLine
  6
CONTINUOUS
370
  -2
 10
158.05373970349
 20
165.663732841
 11
156.71399470349
 21
160.663732841
  0
LINE
  5
69E
100
AcDbEntity
  8
0-0
100
AcDbLine
  6
CONTINUOUS
370
  -2
 10
156.71399470349
 20
160.663732841
 11
155.37424970349
 21
165.663732841
  0
LINE
  5
69F
100
AcDbEntity
  8
0-0
100
AcDbLine
  6
CONTINUOUS
370
  -2
 10
156.71399470349
 20
160.663732841
 11
156.71399470349
 21
165.663732841
  0
POINT
  5
6A0
100
AcDbEntity
  8
1-1
100
AcDbPoint
 10
156.71399470349
 20
290.463732841
  0
LINE
  5
6A1
100
AcDbEntity
  8
0-1
100
AcDbLine
  6
BYLAYER
370
  -2
 10
174.14495012469
 20
165.663732841
 11
217.8639507499
 21
165.663732841
  0
LINE
  5
6A2
100
AcDbEntity
  8
0-1
100
AcDbLine
  6
BYLAYER
370
  -2
 10
174.14495012469
 20
194.663732841
 11
217.86395307384
 21
194.663732841
  0
LINE
  5
6A3
100
AcDbEntity
  8
0-1
100
AcDbLine
  6
BYLAYER
370
  -2
 10
174.14495012469
 20
170.663732841
 11
174.14495012469
 21
189.663732841
  0
TEXT
  5
6A4
100
AcDbEntity
  8
0-1
100
AcDbText
  6
BYLAYER
 10
176.27828412469
 20
173.763732841
 40
12.8
  1
29
  7
Font_0
 50
90
 72
1
 11
169.87828412469
 21
180.163732841
100
AcDbText
 73
2
  0
LINE
  5
6A5
100
AcDbEntity
  8
0-0
100
AcDbLine
  6
CONTINUOUS
370
  -2
 10
175.48469512469
 20
170.663732841
 11
174.14495012469
 21
165.663732841
  0
LINE
  5
6A6
100
AcDbEntity
  8
0-0
100
AcDbLine
  6
CONTINUOUS
370
  -2
 10
174.14495012469
 20
165.663732841
 11
172.80520512469
 21
170.663732841
  0
LINE
  5
6A7
100
AcDbEntity
  8
0-0
100
AcDbLine
  6
CONTINUOUS
370
  -2
 10
174.14495012469
 20
165.663732841
 11
174.14495012469
 21
170.663732841
  0
LINE
  5
6A8
100
AcDbEntity
  8
0-0
100
AcDbLine
  6
CONTINUOUS
370
  -2
 10
172.80520512469
 20
189.663732841
 11
174.14495012469
 21
194.663732841
  0
LINE
  5
6A9
100
AcDbEntity
  8
0-0
100
AcDbLine
  6
CONTINUOUS
370
  -2
 10
174.14495012469
 20
194.663732841
 11
175.48469512469
 21
189.663732841
  0
LINE
  5
6AA
100
AcDbEntity
  8
0-0
100
AcDbLine
  6
CONTINUOUS
370
  -2
 10
174.14495012469
 20
194.663732841
 11
174.14495012469
 21
189.663732841
  0
LINE
  5
6AB
100
AcDbEntity
  8
0-1
100
AcDbLine
  6
BYLAYER
370
  -2
 10
291.16739401496
 20
290.463732841
 11
231.83736545171
 21
290.463732841
  0
LINE
  5
6AC
100
AcDbEntity
  8
0-1
100
AcDbLine
  6
BYLAYER
370
  -2
 10
291.16739401496
 20
257.063732841
 11
274.86395045299
 21
257.063732841
  0
LINE
  5
6AD
100
AcDbEntity
  8
0-1
100
AcDbLine
  6
BYLAYER
370
  -2
 10
291.16739401496
 20
285.463732841
 11
291.16739401496
 21
262.063732841
  0
TEXT
  5
6AE
100
AcDbEntity
  8
0-1
100
AcDbText
  6
BYLAYER
 10
293.30072801496
 20
260.963732841
 40
12.8
  1
32.5
  7
Font_0
 50
90
 72
1
 11
286.90072801496
 21
273.763732841
100
AcDbText
 73
2
  0
LINE
  5
6AF
100
AcDbEntity
  8
0-0
100
AcDbLine
  6
CONTINUOUS
370
  -2
 10
289.82764901496
 20
285.463732841
 11
291.16739401496
 21
290.463732841
  0
LINE
  5
6B0
100
AcDbEntity
  8
0-0
100
AcDbLine
  6
CONTINUOUS
370
  -2
 10
291.16739401496
 20
290.463732841
 11
292.50713901496
 21
285.463732841
  0
LINE
  5
6B1
100
AcDbEntity
  8
0-0
100
AcDbLine
  6
CONTINUOUS
370
  -2
 10
291.16739401496
 20
290.463732841
 11
291.16739401496
 21
285.463732841
  0
LINE
  5
6B2
100
AcDbEntity
  8
0-0
100
AcDbLine
  6
CONTINUOUS
370
  -2
 10
292.50713901496
 20
262.063732841
 11
291.16739401496
 21
257.063732841
  0
LINE
  5
6B3
100
AcDbEntity
  8
0-0
100
AcDbLine
  6
CONTINUOUS
370
  -2
 10
291.16739401496
 20
257.063732841
 11
289.82764901496
 21
262.063732841
  0
LINE
  5
6B4
100
AcDbEntity
  8
0-0
100
AcDbLine
  6
CONTINUOUS
370
  -2
 10
291.16739401496
 20
257.063732841
 11
291.16739401496
 21
262.063732841
  0
LINE
  5
6B5
100
AcDbEntity
  8
0-1
100
AcDbLine
  6
BYLAYER
370
  -2
 10
326.34819201995
 20
290.463732841
 11
231.83736545171
 21
290.463732841
  0
LINE
  5
6B6
100
AcDbEntity
  8
0-1
100
AcDbLine
  6
BYLAYER
370
  -2
 10
326.34819201995
 20
237.663732841
 11
285.35515378479
 21
237.663732841
  0
LINE
  5
6B7
100
AcDbEntity
  8
0-1
100
AcDbLine
  6
BYLAYER
370
  -2
 10
326.34819201995
 20
285.463732841
 11
326.34819201995
 21
242.663732841
  0
TEXT
  5
6B8
100
AcDbEntity
  8
0-1
100
AcDbText
  6
BYLAYER
 10
328.48152601995
 20
251.263732841
 40
12.8
  1
52.5
  7
Font_0
 50
90
 72
1
 11
322.08152601995
 21
264.063732841
100
AcDbText
 73
2
  0
LINE
  5
6B9
100
AcDbEntity
  8
0-0
100
AcDbLine
  6
CONTINUOUS
370
  -2
 10
325.00844701995
 20
285.463732841
 11
326.34819201995
 21
290.463732841
  0
LINE
  5
6BA
100
AcDbEntity
  8
0-0
100
AcDbLine
  6
CONTINUOUS
370
  -2
 10
326.34819201995
 20
290.463732841
 11
327.68793701995
 21
285.463732841
  0
LINE
  5
6BB
100
AcDbEntity
  8
0-0
100
AcDbLine
  6
CONTINUOUS
370
  -2
 10
326.34819201995
 20
290.463732841
 11
326.34819201995
 21
285.463732841
  0
LINE
  5
6BC
100
AcDbEntity
  8
0-0
100
AcDbLine
  6
CONTINUOUS
370
  -2
 10
327.68793701995
 20
242.663732841
 11
326.34819201995
 21
237.663732841
  0
LINE
  5
6BD
100
AcDbEntity
  8
0-0
100
AcDbLine
  6
CONTINUOUS
370
  -2
 10
326.34819201995
 20
237.663732841
 11
325.00844701995
 21
242.663732841
  0
LINE
  5
6BE
100
AcDbEntity
  8
0-0
100
AcDbLine
  6
CONTINUOUS
370
  -2
 10
326.34819201995
 20
237.663732841
 11
326.34819201995
 21
242.663732841
  0
LINE
  5
6BF
100
AcDbEntity
  8
0-1
100
AcDbLine
  6
BYLAYER
370
  -2
 10
354.51033556109
 20
225.663732841
 11
454.46516573069
 21
225.663732841
  0
LINE
  5
6C0
100
AcDbEntity
  8
0-1
100
AcDbLine
  6
BYLAYER
370
  -2
 10
354.51033556109
 20
160.663732841
 11
502.96516573069
 21
160.663732841
  0
LINE
  5
6C1
100
AcDbEntity
  8
0-1
100
AcDbLine
  6
BYLAYER
370
  -2
 10
354.51033556109
 20
220.663732841
 11
354.51033556109
 21
165.663732841
  0
TEXT
  5
6C2
100
AcDbEntity
  8
0-1
100
AcDbText
  6
BYLAYER
 10
356.64366956109
 20
186.763732841
 40
12.8
  1
65
  7
Font_0
 50
90
 72
1
 11
350.24366956109
 21
193.163732841
100
AcDbText
 73
2
  0
LINE
  5
6C3
100
AcDbEntity
  8
0-0
100
AcDbLine
  6
CONTINUOUS
370
  -2
 10
353.17059056109
 20
220.663732841
 11
354.51033556109
 21
225.663732841
  0
LINE
  5
6C4
100
AcDbEntity
  8
0-0
100
AcDbLine
  6
CONTINUOUS
370
  -2
 10
354.51033556109
 20
225.663732841
 11
355.85008056109
 21
220.663732841
  0
LINE
  5
6C5
100
AcDbEntity
  8
0-0
100
AcDbLine
  6
CONTINUOUS
370
  -2
 10
354.51033556109
 20
225.663732841
 11
354.51033556109
 21
220.663732841
  0
LINE
  5
6C6
100
AcDbEntity
  8
0-0
100
AcDbLine
  6
CONTINUOUS
370
  -2
 10
355.85008056109
 20
165.663732841
 11
354.51033556109
 21
160.663732841
  0
LINE
  5
6C7
100
AcDbEntity
  8
0-0
100
AcDbLine
  6
CONTINUOUS
370
  -2
 10
354.51033556109
 20
160.663732841
 11
353.17059056109
 21
165.663732841
  0
LINE
  5
6C8
100
AcDbEntity
  8
0-0
100
AcDbLine
  6
CONTINUOUS
370
  -2
 10
354.51033556109
 20
160.663732841
 11
354.51033556109
 21
165.663732841
  0
LINE
  5
6C9
100
AcDbEntity
  8
0-1
100
AcDbLine
  6
BYLAYER
370
  -2
 10
354.51033556109
 20
225.663732841
 11
454.46516573069
 21
225.663732841
  0
LINE
  5
6CA
100
AcDbEntity
  8
0-1
100
AcDbLine
  6
BYLAYER
370
  -2
 10
354.51033556109
 20
270.463732841
 11
380.96516573069
 21
270.463732841
  0
LINE
  5
6CB
100
AcDbEntity
  8
0-1
100
AcDbLine
  6
BYLAYER
370
  -2
 10
354.51033556109
 20
230.663732841
 11
354.51033556109
 21
265.463732841
  0
TEXT
  5
6CC
100
AcDbEntity
  8
0-1
100
AcDbText
  6
BYLAYER
 10
356.64366956109
 20
241.663732841
 40
12.8
  1
45
  7
Font_0
 50
90
 72
1
 11
350.24366956109
 21
248.063732841
100
AcDbText
 73
2
  0
LINE
  5
6CD
100
AcDbEntity
  8
0-0
100
AcDbLine
  6
CONTINUOUS
370
  -2
 10
355.85008056109
 20
230.663732841
 11
354.51033556109
 21
225.663732841
  0
LINE
  5
6CE
100
AcDbEntity
  8
0-0
100
AcDbLine
  6
CONTINUOUS
370
  -2
 10
354.51033556109
 20
225.663732841
 11
353.17059056109
 21
230.663732841
  0
LINE
  5
6CF
100
AcDbEntity
  8
0-0
100
AcDbLine
  6
CONTINUOUS
370
  -2
 10
354.51033556109
 20
225.663732841
 11
354.51033556109
 21
230.663732841
  0
LINE
  5
6D0
100
AcDbEntity
  8
0-0
100
AcDbLine
  6
CONTINUOUS
370
  -2
 10
353.17059056109
 20
265.463732841
 11
354.51033556109
 21
270.463732841
  0
LINE
  5
6D1
100
AcDbEntity
  8
0-0
100
AcDbLine
  6
CONTINUOUS
370
  -2
 10
354.51033556109
 20
270.463732841
 11
355.85008056109
 21
265.463732841
  0
LINE
  5
6D2
100
AcDbEntity
  8
0-0
100
AcDbLine
  6
CONTINUOUS
370
  -2
 10
354.51033556109
 20
270.463732841
 11
354.51033556109
 21
265.463732841
  0
LINE
  5
6D3
100
AcDbEntity
  8
0-1
100
AcDbLine
  6
BYLAYER
370
  -2
 10
354.51033556109
 20
290.463732841
 11
380.96516573069
 21
290.463732841
  0
LINE
  5
6D4
100
AcDbEntity
  8
0-1
100
AcDbLine
  6
BYLAYER
370
  -2
 10
354.51033556109
 20
270.463732841
 11
380.96516573069
 21
270.463732841
  0
LINE
  5
6D5
100
AcDbEntity
  8
0-1
100
AcDbLine
  6
BYLAYER
370
  -2
 10
354.51033556109
 20
285.463732841
 11
354.51033556109
 21
275.463732841
  0
TEXT
  5
6D6
100
AcDbEntity
  8
0-1
100
AcDbText
  6
BYLAYER
 10
356.64366956109
 20
274.063732841
 40
12.8
  1
20
  7
Font_0
 50
90
 72
1
 11
350.24366956109
 21
280.463732841
100
AcDbText
 73
2
  0
LINE
  5
6D7
100
AcDbEntity
  8
0-0
100
AcDbLine
  6
CONTINUOUS
370
  -2
 10
353.17059056109
 20
285.463732841
 11
354.51033556109
 21
290.463732841
  0
LINE
  5
6D8
100
AcDbEntity
  8
0-0
100
AcDbLine
  6
CONTINUOUS
370
  -2
 10
354.51033556109
 20
290.463732841
 11
355.85008056109
 21
285.463732841
  0
LINE
  5
6D9
100
AcDbEntity
  8
0-0
100
AcDbLine
  6
CONTINUOUS
370
  -2
 10
354.51033556109
 20
290.463732841
 11
354.51033556109
 21
285.463732841
  0
LINE
  5
6DA
100
AcDbEntity
  8
0-0
100
AcDbLine
  6
CONTINUOUS
370
  -2
 10
355.85008056109
 20
275.463732841
 11
354.51033556109
 21
270.463732841
  0
LINE
  5
6DB
100
AcDbEntity
  8
0-0
100
AcDbLine
  6
CONTINUOUS
370
  -2
 10
354.51033556109
 20
270.463732841
 11
353.17059056109
 21
275.463732841
  0
LINE
  5
6DC
100
AcDbEntity
  8
0-0
100
AcDbLine
  6
CONTINUOUS
370
  -2
 10
354.51033556109
 20
270.463732841
 11
354.51033556109
 21
275.463732841
  0
POINT
  5
6DD
100
AcDbEntity
  8
1-1
100
AcDbPoint
 10
354.51033556109
 20
290.463732841
  0
POINT
  5
6DE
100
AcDbEntity
  8
1-1
100
AcDbPoint
 10
380.96516573069
 20
309.6403437877
  0
POINT
  5
6DF
100
AcDbEntity
  8
1-1
100
AcDbPoint
 10
380.96516573069
 20
328.19981296758
  0
POINT
  5
6E0
100
AcDbEntity
  8
1-1
100
AcDbPoint
 10
618.19405901079
 20
240.663732841
  0
POINT
  5
6E1
100
AcDbEntity
  8
1-1
100
AcDbPoint
 10
635.70001756789
 20
240.663732841
  0
ARC
  5
6E2
100
AcDbEntity
  8
1-0
100
AcDbCircle
  6
CONTINUOUS
370
30
 10
476.96516573069
 20
398.7112154799
 40
15
100
AcDbArc
 50
252.5423968763
 51
270
  0
LINE
  5
6E3
100
AcDbEntity
  8
0-1
100
AcDbLine
  6
BYLAYER
370
  -2
 10
380.96516573069
 20
323.1097403789
 11
380.96516573069
 21
290.463732841
  0
LINE
  5
6E4
100
AcDbEntity
  8
0-1
100
AcDbLine
  6
BYLAYER
370
  -2
 10
574.46516573069
 20
323.1097403789
 11
574.46516573069
 21
230.663732841
  0
LINE
  5
6E5
100
AcDbEntity
  8
0-1
100
AcDbLine
  6
BYLAYER
370
  -2
 10
385.96516573069
 20
323.1097403789
 11
569.46516573069
 21
323.1097403789
  0
TEXT
  5
6E6
100
AcDbEntity
  8
0-1
100
AcDbText
  6
BYLAYER
 10
461.71516573069
 20
320.9764063789
 40
12.8
  1
193.5
  7
Font_0
 72
1
 11
477.71516573069
 21
327.3764063789
100
AcDbText
 73
2
  0
LINE
  5
6E7
100
AcDbEntity
  8
0-0
100
AcDbLine
  6
CONTINUOUS
370
  -2
 10
385.96516573069
 20
321.7699953789
 11
380.96516573069
 21
323.1097403789
  0
LINE
  5
6E8
100
AcDbEntity
  8
0-0
100
AcDbLine
  6
CONTINUOUS
370
  -2
 10
380.96516573069
 20
323.1097403789
 11
385.96516573069
 21
324.4494853789
  0
LINE
  5
6E9
100
AcDbEntity
  8
0-0
100
AcDbLine
  6
CONTINUOUS
370
  -2
 10
380.96516573069
 20
323.1097403789
 11
385.96516573069
 21
323.1097403789
  0
LINE
  5
6EA
100
AcDbEntity
  8
0-0
100
AcDbLine
  6
CONTINUOUS
370
  -2
 10
569.46516573069
 20
324.4494853789
 11
574.46516573069
 21
323.1097403789
  0
LINE
  5
6EB
100
AcDbEntity
  8
0-0
100
AcDbLine
  6
CONTINUOUS
370
  -2
 10
574.46516573069
 20
323.1097403789
 11
569.46516573069
 21
321.7699953789
  0
LINE
  5
6EC
100
AcDbEntity
  8
0-0
100
AcDbLine
  6
CONTINUOUS
370
  -2
 10
574.46516573069
 20
323.1097403789
 11
569.46516573069
 21
323.1097403789
  0
LINE
  5
6ED
100
AcDbEntity
  8
0-1
100
AcDbLine
  6
BYLAYER
370
  -2
 10
551.96516573069
 20
305.7845645107
 11
551.96516573069
 21
298.5453300633
  0
LINE
  5
6EE
100
AcDbEntity
  8
0-1
100
AcDbLine
  6
BYLAYER
370
  -2
 10
574.46516573069
 20
305.7845645107
 11
574.46516573069
 21
230.663732841
  0
LINE
  5
6EF
100
AcDbEntity
  8
0-1
100
AcDbLine
  6
BYLAYER
370
  -2
 10
556.96516573069
 20
305.7845645107
 11
569.46516573069
 21
305.7845645107
  0
TEXT
  5
6F0
100
AcDbEntity
  8
0-1
100
AcDbText
  6
BYLAYER
 10
550.41516573069
 20
303.6512305107
 40
12.8
  1
22.5
  7
Font_0
 72
1
 11
563.21516573069
 21
310.0512305107
100
AcDbText
 73
2
  0
LINE
  5
6F1
100
AcDbEntity
  8
0-0
100
AcDbLine
  6
CONTINUOUS
370
  -2
 10
556.96516573069
 20
304.4448195107
 11
551.96516573069
 21
305.7845645107
  0
LINE
  5
6F2
100
AcDbEntity
  8
0-0
100
AcDbLine
  6
CONTINUOUS
370
  -2
 10
551.96516573069
 20
305.7845645107
 11
556.96516573069
 21
307.1243095107
  0
LINE
  5
6F3
100
AcDbEntity
  8
0-0
100
AcDbLine
  6
CONTINUOUS
370
  -2
 10
551.96516573069
 20
305.7845645107
 11
556.96516573069
 21
305.7845645107
  0
LINE
  5
6F4
100
AcDbEntity
  8
0-0
100
AcDbLine
  6
CONTINUOUS
370
  -2
 10
569.46516573069
 20
307.1243095107
 11
574.46516573069
 21
305.7845645107
  0
LINE
  5
6F5
100
AcDbEntity
  8
0-0
100
AcDbLine
  6
CONTINUOUS
370
  -2
 10
574.46516573069
 20
305.7845645107
 11
569.46516573069
 21
304.4448195107
  0
LINE
  5
6F6
100
AcDbEntity
  8
0-0
100
AcDbLine
  6
CONTINUOUS
370
  -2
 10
574.46516573069
 20
305.7845645107
 11
569.46516573069
 21
305.7845645107
  0
LINE
  5
6F7
100
AcDbEntity
  8
0-1
100
AcDbLine
  6
BYLAYER
370
  -2
 10
401.96516573069
 20
305.6357789196
 11
401.96516573069
 21
290.463732841
  0
LINE
  5
6F8
100
AcDbEntity
  8
0-1
100
AcDbLine
  6
BYLAYER
370
  -2
 10
551.96516573069
 20
305.6357789196
 11
551.96516573069
 21
230.663732841
  0
LINE
  5
6F9
100
AcDbEntity
  8
0-1
100
AcDbLine
  6
BYLAYER
370
  -2
 10
406.96516573069
 20
305.6357789196
 11
546.96516573069
 21
305.6357789196
  0
TEXT
  5
6FA
100
AcDbEntity
  8
0-1
100
AcDbText
  6
BYLAYER
 10
467.36516573069
 20
303.5024449196
 40
12.8
  1
150
  7
Font_0
 72
1
 11
476.96516573069
 21
309.9024449196
100
AcDbText
 73
2
  0
LINE
  5
6FB
100
AcDbEntity
  8
0-0
100
AcDbLine
  6
CONTINUOUS
370
  -2
 10
406.96516573069
 20
304.2960339196
 11
401.96516573069
 21
305.6357789196
  0
LINE
  5
6FC
100
AcDbEntity
  8
0-0
100
AcDbLine
  6
CONTINUOUS
370
  -2
 10
401.96516573069
 20
305.6357789196
 11
406.96516573069
 21
306.9755239196
  0
LINE
  5
6FD
100
AcDbEntity
  8
0-0
100
AcDbLine
  6
CONTINUOUS
370
  -2
 10
401.96516573069
 20
305.6357789196
 11
406.96516573069
 21
305.6357789196
  0
LINE
  5
6FE
100
AcDbEntity
  8
0-0
100
AcDbLine
  6
CONTINUOUS
370
  -2
 10
546.96516573069
 20
306.9755239196
 11
551.96516573069
 21
305.6357789196
  0
LINE
  5
6FF
100
AcDbEntity
  8
0-0
100
AcDbLine
  6
CONTINUOUS
370
  -2
 10
551.96516573069
 20
305.6357789196
 11
546.96516573069
 21
304.2960339196
  0
LINE
  5
700
100
AcDbEntity
  8
0-0
100
AcDbLine
  6
CONTINUOUS
370
  -2
 10
551.96516573069
 20
305.6357789196
 11
546.96516573069
 21
305.6357789196
  0
LINE
  5
701
100
AcDbEntity
  8
0-1
100
AcDbLine
  6
BYLAYER
370
  -2
 10
380.96516573069
 20
305.6357789196
 11
380.96516573069
 21
290.463732841
  0
LINE
  5
702
100
AcDbEntity
  8
0-1
100
AcDbLine
  6
BYLAYER
370
  -2
 10
401.96516573069
 20
305.6357789196
 11
401.96516573069
 21
290.463732841
  0
LINE
  5
703
100
AcDbEntity
  8
0-1
100
AcDbLine
  6
BYLAYER
370
  -2
 10
385.96516573069
 20
305.6357789196
 11
396.96516573069
 21
305.6357789196
  0
TEXT
  5
704
100
AcDbEntity
  8
0-1
100
AcDbText
  6
BYLAYER
 10
385.06516573069
 20
303.5024449196
 40
12.8
  1
21
  7
Font_0
 72
1
 11
391.46516573069
 21
309.9024449196
100
AcDbText
 73
2
  0
LINE
  5
705
100
AcDbEntity
  8
0-0
100
AcDbLine
  6
CONTINUOUS
370
  -2
 10
385.96516573069
 20
304.2960339196
 11
380.96516573069
 21
305.6357789196
  0
LINE
  5
706
100
AcDbEntity
  8
0-0
100
AcDbLine
  6
CONTINUOUS
370
  -2
 10
380.96516573069
 20
305.6357789196
 11
385.96516573069
 21
306.9755239196
  0
LINE
  5
707
100
AcDbEntity
  8
0-0
100
AcDbLine
  6
CONTINUOUS
370
  -2
 10
380.96516573069
 20
305.6357789196
 11
385.96516573069
 21
305.6357789196
  0
LINE
  5
708
100
AcDbEntity
  8
0-0
100
AcDbLine
  6
CONTINUOUS
370
  -2
 10
396.96516573069
 20
306.9755239196
 11
401.96516573069
 21
305.6357789196
  0
LINE
  5
709
100
AcDbEntity
  8
0-0
100
AcDbLine
  6
CONTINUOUS
370
  -2
 10
401.96516573069
 20
305.6357789196
 11
396.96516573069
 21
304.2960339196
  0
LINE
  5
70A
100
AcDbEntity
  8
0-0
100
AcDbLine
  6
CONTINUOUS
370
  -2
 10
401.96516573069
 20
305.6357789196
 11
396.96516573069
 21
305.6357789196
  0
LINE
  5
70B
100
AcDbEntity
  8
0-1
100
AcDbLine
  6
BYLAYER
370
  -2
 10
618.19405901079
 20
240.663732841
 11
574.46516573069
 21
240.663732841
  0
LINE
  5
70C
100
AcDbEntity
  8
0-1
100
AcDbLine
  6
BYLAYER
370
  -2
 10
618.19405901079
 20
200.663732841
 11
551.96516573069
 21
200.663732841
  0
LINE
  5
70D
100
AcDbEntity
  8
0-1
100
AcDbLine
  6
BYLAYER
370
  -2
 10
618.19405901079
 20
235.663732841
 11
618.19405901079
 21
205.663732841
  0
TEXT
  5
70E
100
AcDbEntity
  8
0-1
100
AcDbText
  6
BYLAYER
 10
620.32739301079
 20
214.263732841
 40
12.8
  1
40
  7
Font_0
 50
90
 72
1
 11
613.92739301079
 21
220.663732841
100
AcDbText
 73
2
  0
LINE
  5
70F
100
AcDbEntity
  8
0-0
100
AcDbLine
  6
CONTINUOUS
370
  -2
 10
616.85431401079
 20
235.663732841
 11
618.19405901079
 21
240.663732841
  0
LINE
  5
710
100
AcDbEntity
  8
0-0
100
AcDbLine
  6
CONTINUOUS
370
  -2
 10
618.19405901079
 20
240.663732841
 11
619.53380401079
 21
235.663732841
  0
LINE
  5
711
100
AcDbEntity
  8
0-0
100
AcDbLine
  6
CONTINUOUS
370
  -2
 10
618.19405901079
 20
240.663732841
 11
618.19405901079
 21
235.663732841
  0
LINE
  5
712
100
AcDbEntity
  8
0-0
100
AcDbLine
  6
CONTINUOUS
370
  -2
 10
619.53380401079
 20
205.663732841
 11
618.19405901079
 21
200.663732841
  0
LINE
  5
713
100
AcDbEntity
  8
0-0
100
AcDbLine
  6
CONTINUOUS
370
  -2
 10
618.19405901079
 20
200.663732841
 11
616.85431401079
 21
205.663732841
  0
LINE
  5
714
100
AcDbEntity
  8
0-0
100
AcDbLine
  6
CONTINUOUS
370
  -2
 10
618.19405901079
 20
200.663732841
 11
618.19405901079
 21
205.663732841
  0
LINE
  5
715
100
AcDbEntity
  8
0-1
100
AcDbLine
  6
BYLAYER
370
  -2
 10
635.70001756789
 20
240.663732841
 11
574.46516573069
 21
240.663732841
  0
LINE
  5
716
100
AcDbEntity
  8
0-1
100
AcDbLine
  6
BYLAYER
370
  -2
 10
635.70001756789
 20
160.663732841
 11
574.46516573069
 21
160.663732841
  0
LINE
  5
717
100
AcDbEntity
  8
0-1
100
AcDbLine
  6
BYLAYER
370
  -2
 10
635.70001756789
 20
235.663732841
 11
635.70001756789
 21
165.663732841
  0
TEXT
  5
718
100
AcDbEntity
  8
0-1
100
AcDbText
  6
BYLAYER
 10
637.83335156789
 20
194.263732841
 40
12.8
  1
80
  7
Font_0
 50
90
 72
1
 11
631.43335156789
 21
200.663732841
100
AcDbText
 73
2
  0
LINE
  5
719
100
AcDbEntity
  8
0-0
100
AcDbLine
  6
CONTINUOUS
370
  -2
 10
634.36027256789
 20
235.663732841
 11
635.70001756789
 21
240.663732841
  0
LINE
  5
71A
100
AcDbEntity
  8
0-0
100
AcDbLine
  6
CONTINUOUS
370
  -2
 10
635.70001756789
 20
240.663732841
 11
637.03976256789
 21
235.663732841
  0
LINE
  5
71B
100
AcDbEntity
  8
0-0
100
AcDbLine
  6
CONTINUOUS
370
  -2
 10
635.70001756789
 20
240.663732841
 11
635.70001756789
 21
235.663732841
  0
LINE
  5
71C
100
AcDbEntity
  8
0-0
100
AcDbLine
  6
CONTINUOUS
370
  -2
 10
637.03976256789
 20
165.663732841
 11
635.70001756789
 21
160.663732841
  0
LINE
  5
71D
100
AcDbEntity
  8
0-0
100
AcDbLine
  6
CONTINUOUS
370
  -2
 10
635.70001756789
 20
160.663732841
 11
634.36027256789
 21
165.663732841
  0
LINE
  5
71E
100
AcDbEntity
  8
0-0
100
AcDbLine
  6
CONTINUOUS
370
  -2
 10
635.70001756789
 20
160.663732841
 11
635.70001756789
 21
165.663732841
  0
LINE
  5
71F
100
AcDbEntity
  8
0-1
100
AcDbLine
  6
BYLAYER
370
  -2
 10
472.12422067759
 20
187.663732841
 11
492.66516573069
 21
187.663732841
  0
LINE
  5
720
100
AcDbEntity
  8
0-1
100
AcDbLine
  6
BYLAYER
370
  -2
 10
472.12422067759
 20
172.663732841
 11
499.66516573069
 21
172.663732841
  0
LINE
  5
721
100
AcDbEntity
  8
0-1
100
AcDbLine
  6
BYLAYER
370
  -2
 10
472.12422067759
 20
187.663732841
 11
472.12422067759
 21
172.663732841
  0
LINE
  5
722
100
AcDbEntity
  8
0-1
100
AcDbLine
  6
BYLAYER
370
  -2
 10
472.12422067759
 20
192.663732841
 11
472.12422067759
 21
197.663732841
  0
LINE
  5
723
100
AcDbEntity
  8
0-1
100
AcDbLine
  6
BYLAYER
370
  -2
 10
472.12422067759
 20
167.663732841
 11
472.12422067759
 21
162.663732841
  0
TEXT
  5
724
100
AcDbEntity
  8
0-1
100
AcDbText
  6
BYLAYER
 10
474.25755467759
 20
173.763732841
 40
12.8
  1
15
  7
Font_0
 50
90
 72
1
 11
467.85755467759
 21
180.163732841
100
AcDbText
 73
2
  0
LINE
  5
725
100
AcDbEntity
  8
0-0
100
AcDbLine
  6
CONTINUOUS
370
  -2
 10
473.46396567759
 20
192.663732841
 11
472.12422067759
 21
187.663732841
  0
LINE
  5
726
100
AcDbEntity
  8
0-0
100
AcDbLine
  6
CONTINUOUS
370
  -2
 10
472.12422067759
 20
187.663732841
 11
470.78447567759
 21
192.663732841
  0
LINE
  5
727
100
AcDbEntity
  8
0-0
100
AcDbLine
  6
CONTINUOUS
370
  -2
 10
472.12422067759
 20
187.663732841
 11
472.12422067759
 21
192.663732841
  0
LINE
  5
728
100
AcDbEntity
  8
0-0
100
AcDbLine
  6
CONTINUOUS
370
  -2
 10
470.78447567759
 20
167.663732841
 11
472.12422067759
 21
172.663732841
  0
LINE
  5
729
100
AcDbEntity
  8
0-0
100
AcDbLine
  6
CONTINUOUS
370
  -2
 10
472.12422067759
 20
172.663732841
 11
473.46396567759
 21
167.663732841
  0
LINE
  5
72A
100
AcDbEntity
  8
0-0
100
AcDbLine
  6
CONTINUOUS
370
  -2
 10
472.12422067759
 20
172.663732841
 11
472.12422067759
 21
167.663732841
  0
LINE
  5
72B
100
AcDbEntity
  8
0-1
100
AcDbLine
  6
BYLAYER
370
  -2
 10
492.16516573069
 20
134.81422827122
 11
492.16516573069
 21
173.163732841
  0
LINE
  5
72C
100
AcDbEntity
  8
0-1
100
AcDbLine
  6
BYLAYER
370
  -2
 10
502.96516573069
 20
134.81422827122
 11
502.96516573069
 21
160.663732841
  0
LINE
  5
72D
100
AcDbEntity
  8
0-1
100
AcDbLine
  6
BYLAYER
370
  -2
 10
492.16516573069
 20
134.81422827122
 11
502.96516573069
 21
134.81422827122
  0
LINE
  5
72E
100
AcDbEntity
  8
0-1
100
AcDbLine
  6
BYLAYER
370
  -2
 10
487.16516573069
 20
134.81422827122
 11
482.16516573069
 21
134.81422827122
  0
LINE
  5
72F
100
AcDbEntity
  8
0-1
100
AcDbLine
  6
BYLAYER
370
  -2
 10
507.96516573069
 20
134.81422827122
 11
529.345339098475
 21
134.81422827122
  0
TEXT
  5
730
100
AcDbEntity
  8
0-1
100
AcDbText
  6
BYLAYER
 10
507.50331439357
 20
132.68089427122
 40
12.8
  1
(11)
  7
Font_0
 72
1
 11
520.30331439357
 21
139.08089427122
100
AcDbText
 73
2
  0
LINE
  5
731
100
AcDbEntity
  8
0-0
100
AcDbLine
  6
CONTINUOUS
370
  -2
 10
487.16516573069
 20
136.15397327122
 11
492.16516573069
 21
134.81422827122
  0
LINE
  5
732
100
AcDbEntity
  8
0-0
100
AcDbLine
  6
CONTINUOUS
370
  -2
 10
492.16516573069
 20
134.81422827122
 11
487.16516573069
 21
133.47448327122
  0
LINE
  5
733
100
AcDbEntity
  8
0-0
100
AcDbLine
  6
CONTINUOUS
370
  -2
 10
492.16516573069
 20
134.81422827122
 11
487.16516573069
 21
134.81422827122
  0
LINE
  5
734
100
AcDbEntity
  8
0-0
100
AcDbLine
  6
CONTINUOUS
370
  -2
 10
507.96516573069
 20
133.47448327122
 11
502.96516573069
 21
134.81422827122
  0
LINE
  5
735
100
AcDbEntity
  8
0-0
100
AcDbLine
  6
CONTINUOUS
370
  -2
 10
502.96516573069
 20
134.81422827122
 11
507.96516573069
 21
136.15397327122
  0
LINE
  5
736
100
AcDbEntity
  8
0-0
100
AcDbLine
  6
CONTINUOUS
370
  -2
 10
502.96516573069
 20
134.81422827122
 11
507.96516573069
 21
134.81422827122
  0
LINE
  5
737
100
AcDbEntity
  8
0-1
100
AcDbLine
  6
BYLAYER
370
  -2
 10
518.51516496779
 20
290.463732841
 11
454.46516573069
 21
290.463732841
  0
LINE
  5
738
100
AcDbEntity
  8
0-1
100
AcDbLine
  6
BYLAYER
370
  -2
 10
518.51516496779
 20
285.463732841
 11
499.46516573069
 21
285.463732841
  0
LINE
  5
739
100
AcDbEntity
  8
0-1
100
AcDbLine
  6
BYLAYER
370
  -2
 10
518.51516496779
 20
290.463732841
 11
518.51516496779
 21
285.463732841
  0
LINE
  5
73A
100
AcDbEntity
  8
0-1
100
AcDbLine
  6
BYLAYER
370
  -2
 10
518.51516496779
 20
295.463732841
 11
518.51516496779
 21
300.463732841
  0
LINE
  5
73B
100
AcDbEntity
  8
0-1
100
AcDbLine
  6
BYLAYER
370
  -2
 10
518.51516496779
 20
280.463732841
 11
518.51516496779
 21
275.463732841
  0
TEXT
  5
73C
100
AcDbEntity
  8
0-1
100
AcDbText
  6
BYLAYER
 10
520.64849896779
 20
284.763732841
 40
12.8
  1
5
  7
Font_0
 50
90
 72
1
 11
514.24849896779
 21
287.963732841
100
AcDbText
 73
2
  0
LINE
  5
73D
100
AcDbEntity
  8
0-0
100
AcDbLine
  6
CONTINUOUS
370
  -2
 10
519.85490996779
 20
295.463732841
 11
518.51516496779
 21
290.463732841
  0
LINE
  5
73E
100
AcDbEntity
  8
0-0
100
AcDbLine
  6
CONTINUOUS
370
  -2
 10
518.51516496779
 20
290.463732841
 11
517.17541996779
 21
295.463732841
  0
LINE
  5
73F
100
AcDbEntity
  8
0-0
100
AcDbLine
  6
CONTINUOUS
370
  -2
 10
518.51516496779
 20
290.463732841
 11
518.51516496779
 21
295.463732841
  0
LINE
  5
740
100
AcDbEntity
  8
0-0
100
AcDbLine
  6
CONTINUOUS
370
  -2
 10
517.17541996779
 20
280.463732841
 11
518.51516496779
 21
285.463732841
  0
LINE
  5
741
100
AcDbEntity
  8
0-0
100
AcDbLine
  6
CONTINUOUS
370
  -2
 10
518.51516496779
 20
285.463732841
 11
519.85490996779
 21
280.463732841
  0
LINE
  5
742
100
AcDbEntity
  8
0-0
100
AcDbLine
  6
CONTINUOUS
370
  -2
 10
518.51516496779
 20
285.463732841
 11
518.51516496779
 21
280.463732841
  0
LINE
  5
743
100
AcDbEntity
  8
0-1
100
AcDbLine
  6
BYLAYER
370
  -2
 10
454.46516573069
 20
295.42612219451
 11
454.46516573069
 21
290.463732841
  0
LINE
  5
744
100
AcDbEntity
  8
0-1
100
AcDbLine
  6
BYLAYER
370
  -2
 10
499.46516573069
 20
295.42612219451
 11
499.46516573069
 21
285.463732841
  0
LINE
  5
745
100
AcDbEntity
  8
0-1
100
AcDbLine
  6
BYLAYER
370
  -2
 10
459.46516573069
 20
295.42612219451
 11
494.46516573069
 21
295.42612219451
  0
TEXT
  5
746
100
AcDbEntity
  8
0-1
100
AcDbText
  6
BYLAYER
 10
470.56516573069
 20
293.29278819451
 40
12.8
  1
45
  7
Font_0
 72
1
 11
476.96516573069
 21
299.69278819451
100
AcDbText
 73
2
  0
LINE
  5
747
100
AcDbEntity
  8
0-0
100
AcDbLine
  6
CONTINUOUS
370
  -2
 10
459.46516573069
 20
294.08637719451
 11
454.46516573069
 21
295.42612219451
  0
LINE
  5
748
100
AcDbEntity
  8
0-0
100
AcDbLine
  6
CONTINUOUS
370
  -2
 10
454.46516573069
 20
295.42612219451
 11
459.46516573069
 21
296.76586719451
  0
LINE
  5
749
100
AcDbEntity
  8
0-0
100
AcDbLine
  6
CONTINUOUS
370
  -2
 10
454.46516573069
 20
295.42612219451
 11
459.46516573069
 21
295.42612219451
  0
LINE
  5
74A
100
AcDbEntity
  8
0-0
100
AcDbLine
  6
CONTINUOUS
370
  -2
 10
494.46516573069
 20
296.76586719451
 11
499.46516573069
 21
295.42612219451
  0
LINE
  5
74B
100
AcDbEntity
  8
0-0
100
AcDbLine
  6
CONTINUOUS
370
  -2
 10
499.46516573069
 20
295.42612219451
 11
494.46516573069
 21
294.08637719451
  0
LINE
  5
74C
100
AcDbEntity
  8
0-0
100
AcDbLine
  6
CONTINUOUS
370
  -2
 10
499.46516573069
 20
295.42612219451
 11
494.46516573069
 21
295.42612219451
  0
LINE
  5
74D
100
AcDbEntity
  8
0-1
100
AcDbLine
  6
BYLAYER
370
  -2
 10
353.57106367659
 20
500.2112154799
 11
481.46516573069
 21
500.2112154799
  0
LINE
  5
74E
100
AcDbEntity
  8
0-1
100
AcDbLine
  6
BYLAYER
370
  -2
 10
353.57106367659
 20
466.7112154799
 11
373.12940184189
 21
466.7112154799
  0
LINE
  5
74F
100
AcDbEntity
  8
0-1
100
AcDbLine
  6
BYLAYER
370
  -2
 10
353.57106367659
 20
495.2112154799
 11
353.57106367659
 21
471.7112154799
  0
TEXT
  5
750
100
AcDbEntity
  8
0-1
100
AcDbText
  6
BYLAYER
 10
355.70439767659
 20
470.6612154799
 40
12.8
  1
33.5
  7
Font_0
 50
90
 72
1
 11
349.30439767659
 21
483.4612154799
100
AcDbText
 73
2
  0
LINE
  5
751
100
AcDbEntity
  8
0-0
100
AcDbLine
  6
CONTINUOUS
370
  -2
 10
352.23131867659
 20
495.2112154799
 11
353.57106367659
 21
500.2112154799
  0
LINE
  5
752
100
AcDbEntity
  8
0-0
100
AcDbLine
  6
CONTINUOUS
370
  -2
 10
353.57106367659
 20
500.2112154799
 11
354.91080867659
 21
495.2112154799
  0
LINE
  5
753
100
AcDbEntity
  8
0-0
100
AcDbLine
  6
CONTINUOUS
370
  -2
 10
353.57106367659
 20
500.2112154799
 11
353.57106367659
 21
495.2112154799
  0
LINE
  5
754
100
AcDbEntity
  8
0-0
100
AcDbLine
  6
CONTINUOUS
370
  -2
 10
354.91080867659
 20
471.7112154799
 11
353.57106367659
 21
466.7112154799
  0
LINE
  5
755
100
AcDbEntity
  8
0-0
100
AcDbLine
  6
CONTINUOUS
370
  -2
 10
353.57106367659
 20
466.7112154799
 11
352.23131867659
 21
471.7112154799
  0
LINE
  5
756
100
AcDbEntity
  8
0-0
100
AcDbLine
  6
CONTINUOUS
370
  -2
 10
353.57106367659
 20
466.7112154799
 11
353.57106367659
 21
471.7112154799
  0
LINE
  5
757
100
AcDbEntity
  8
0-1
100
AcDbLine
  6
BYLAYER
370
  -2
 10
353.57106367659
 20
466.7112154799
 11
401.96516573069
 21
466.7112154799
  0
LINE
  5
758
100
AcDbEntity
  8
0-1
100
AcDbLine
  6
BYLAYER
370
  -2
 10
353.57106367659
 20
383.7112154799
 11
476.96516573069
 21
383.7112154799
  0
LINE
  5
759
100
AcDbEntity
  8
0-1
100
AcDbLine
  6
BYLAYER
370
  -2
 10
353.57106367659
 20
461.7112154799
 11
353.57106367659
 21
388.7112154799
  0
TEXT
  5
75A
100
AcDbEntity
  8
0-1
100
AcDbText
  6
BYLAYER
 10
355.70439767659
 20
418.8112154799
 40
12.8
  1
83
  7
Font_0
 50
90
 72
1
 11
349.30439767659
 21
425.2112154799
100
AcDbText
 73
2
  0
LINE
  5
75B
100
AcDbEntity
  8
0-0
100
AcDbLine
  6
CONTINUOUS
370
  -2
 10
352.23131867659
 20
461.7112154799
 11
353.57106367659
 21
466.7112154799
  0
LINE
  5
75C
100
AcDbEntity
  8
0-0
100
AcDbLine
  6
CONTINUOUS
370
  -2
 10
353.57106367659
 20
466.7112154799
 11
354.91080867659
 21
461.7112154799
  0
LINE
  5
75D
100
AcDbEntity
  8
0-0
100
AcDbLine
  6
CONTINUOUS
370
  -2
 10
353.57106367659
 20
466.7112154799
 11
353.57106367659
 21
461.7112154799
  0
LINE
  5
75E
100
AcDbEntity
  8
0-0
100
AcDbLine
  6
CONTINUOUS
370
  -2
 10
354.91080867659
 20
388.7112154799
 11
353.57106367659
 21
383.7112154799
  0
LINE
  5
75F
100
AcDbEntity
  8
0-0
100
AcDbLine
  6
CONTINUOUS
370
  -2
 10
353.57106367659
 20
383.7112154799
 11
352.23131867659
 21
388.7112154799
  0
LINE
  5
760
100
AcDbEntity
  8
0-0
100
AcDbLine
  6
CONTINUOUS
370
  -2
 10
353.57106367659
 20
383.7112154799
 11
353.57106367659
 21
388.7112154799
  0
TEXT
  5
761
100
AcDbEntity
  8
1-0
100
AcDbText
  6
CONTINUOUS
 10
504.125001459313
 20
365.356077723273
 40
12.0599996566772
 41
0.8578358190113
  1
左右各6.5mm
  7
Font_0
100
AcDbText
  0
TEXT
  5
762
100
AcDbEntity
  8
1-0
100
AcDbText
  6
CONTINUOUS
 10
504.421681984523
 20
373.363531492083
 40
12.0599996566772
 41
0.850746266465027
  1
左右微動
  7
Font_0
100
AcDbText
  0
TEXT
  5
763
100
AcDbEntity
  8
1-0
100
AcDbText
  6
CONTINUOUS
 10
566.602298949153
 20
399.226552325383
 40
12.0599996566772
 41
0.85547263482921
  1
上下動ﾉﾌﾞ
  7
Font_0
100
AcDbText
  0
TEXT
  5
764
100
AcDbEntity
  8
1-0
100
AcDbText
  6
CONTINUOUS
 10
566.108064331653
 20
390.626436279993
 40
12.0599996566772
 41
0.856823025790404
  1
上下各30mm
  7
Font_0
100
AcDbText
  0
LINE
  5
765
100
AcDbEntity
  8
0-1
100
AcDbLine
  6
BYLAYER
370
  -2
 10
400.46516573069
 20
517.48176433915
 11
400.46516573069
 21
486.7112154799
  0
LINE
  5
766
100
AcDbEntity
  8
0-1
100
AcDbLine
  6
BYLAYER
370
  -2
 10
401.96516573069
 20
517.48176433915
 11
401.96516573069
 21
493.5166408272
  0
LINE
  5
767
100
AcDbEntity
  8
0-1
100
AcDbLine
  6
BYLAYER
370
  -2
 10
400.46516573069
 20
517.48176433915
 11
401.96516573069
 21
517.48176433915
  0
LINE
  5
768
100
AcDbEntity
  8
0-1
100
AcDbLine
  6
BYLAYER
370
  -2
 10
395.46516573069
 20
517.48176433915
 11
390.46516573069
 21
517.48176433915
  0
LINE
  5
769
100
AcDbEntity
  8
0-1
100
AcDbLine
  6
BYLAYER
370
  -2
 10
406.96516573069
 20
517.48176433915
 11
420.384827110067
 21
517.48176433915
  0
TEXT
  5
76A
100
AcDbEntity
  8
0-1
100
AcDbText
  6
BYLAYER
 10
403.55508104738
 20
515.34843033915
 40
12.8
  1
1.5
  7
Font_0
 72
1
 11
413.15508104738
 21
521.74843033915
100
AcDbText
 73
2
  0
LINE
  5
76B
100
AcDbEntity
  8
0-0
100
AcDbLine
  6
CONTINUOUS
370
  -2
 10
395.46516573069
 20
518.82150933915
 11
400.46516573069
 21
517.48176433915
  0
LINE
  5
76C
100
AcDbEntity
  8
0-0
100
AcDbLine
  6
CONTINUOUS
370
  -2
 10
400.46516573069
 20
517.48176433915
 11
395.46516573069
 21
516.14201933915
  0
LINE
  5
76D
100
AcDbEntity
  8
0-0
100
AcDbLine
  6
CONTINUOUS
370
  -2
 10
400.46516573069
 20
517.48176433915
 11
395.46516573069
 21
517.48176433915
  0
LINE
  5
76E
100
AcDbEntity
  8
0-0
100
AcDbLine
  6
CONTINUOUS
370
  -2
 10
406.96516573069
 20
516.14201933915
 11
401.96516573069
 21
517.48176433915
  0
LINE
  5
76F
100
AcDbEntity
  8
0-0
100
AcDbLine
  6
CONTINUOUS
370
  -2
 10
401.96516573069
 20
517.48176433915
 11
406.96516573069
 21
518.82150933915
  0
LINE
  5
770
100
AcDbEntity
  8
0-0
100
AcDbLine
  6
CONTINUOUS
370
  -2
 10
401.96516573069
 20
517.48176433915
 11
406.96516573069
 21
517.48176433915
  0
LINE
  5
771
100
AcDbEntity
  8
0-1
100
AcDbLine
  6
BYLAYER
370
  -2
 10
431.48612842893
 20
486.7112154799
 11
426.48675187032
 21
486.7112154799
  0
LINE
  5
772
100
AcDbEntity
  8
0-1
100
AcDbLine
  6
BYLAYER
370
  -2
 10
431.48612842893
 20
446.7112154799
 11
426.48675187032
 21
446.7112154799
  0
LINE
  5
773
100
AcDbEntity
  8
0-1
100
AcDbLine
  6
BYLAYER
370
  -2
 10
431.48612842893
 20
481.7112154799
 11
431.48612842893
 21
451.7112154799
  0
TEXT
  5
774
100
AcDbEntity
  8
0-1
100
AcDbText
  6
BYLAYER
 10
433.61946242893
 20
468.86480673317
 40
12.8
  1
40
  7
Font_0
 50
90
 72
1
 11
427.21946242893
 21
475.26480673317
100
AcDbText
 73
2
  0
LINE
  5
775
100
AcDbEntity
  8
0-0
100
AcDbLine
  6
CONTINUOUS
370
  -2
 10
430.14638342893
 20
481.7112154799
 11
431.48612842893
 21
486.7112154799
  0
LINE
  5
776
100
AcDbEntity
  8
0-0
100
AcDbLine
  6
CONTINUOUS
370
  -2
 10
431.48612842893
 20
486.7112154799
 11
432.82587342893
 21
481.7112154799
  0
LINE
  5
777
100
AcDbEntity
  8
0-0
100
AcDbLine
  6
CONTINUOUS
370
  -2
 10
431.48612842893
 20
486.7112154799
 11
431.48612842893
 21
481.7112154799
  0
LINE
  5
778
100
AcDbEntity
  8
0-0
100
AcDbLine
  6
CONTINUOUS
370
  -2
 10
432.82587342893
 20
451.7112154799
 11
431.48612842893
 21
446.7112154799
  0
LINE
  5
779
100
AcDbEntity
  8
0-0
100
AcDbLine
  6
CONTINUOUS
370
  -2
 10
431.48612842893
 20
446.7112154799
 11
430.14638342893
 21
451.7112154799
  0
LINE
  5
77A
100
AcDbEntity
  8
0-0
100
AcDbLine
  6
CONTINUOUS
370
  -2
 10
431.48612842893
 20
446.7112154799
 11
431.48612842893
 21
451.7112154799
  0
TEXT
  5
77B
100
AcDbEntity
  8
0-1
100
AcDbText
  6
BYLAYER
 10
368.800621601559
 20
428.550079403844
 40
12.8
  1
φ16
  7
Font_0
 50
46.588870900999
 72
1
 11
372.947924364979
 21
442.246789950123
100
AcDbText
 73
2
  0
LINE
  5
77C
100
AcDbEntity
  8
0-1
100
AcDbLine
  6
BYLAYER
370
  -2
 10
396.43297528104
 20
460.86336383773
 11
407.49735618033
 21
472.55906712208
  0
LINE
  5
77D
100
AcDbEntity
  8
0-1
100
AcDbLine
  6
BYLAYER
370
  -2
 10
392.996832144615
 20
457.231157848802
 11
371.078917862283
 21
434.062629542403
  0
LINE
  5
77E
100
AcDbEntity
  8
0-1
100
AcDbLine
  6
BYLAYER
370
  -2
 10
410.933499316754
 20
476.191273111008
 11
414.369642453179
 21
479.823479099935
  0
LINE
  5
77F
100
AcDbEntity
  8
0-0
100
AcDbLine
  6
CONTINUOUS
370
  -2
 10
392.023586182088
 20
458.151868966064
 11
396.43297528104
 21
460.86336383773
  0
LINE
  5
780
100
AcDbEntity
  8
0-0
100
AcDbLine
  6
CONTINUOUS
370
  -2
 10
396.43297528104
 20
460.86336383773
 11
393.970078107143
 21
456.310446731541
  0
LINE
  5
781
100
AcDbEntity
  8
0-0
100
AcDbLine
  6
CONTINUOUS
370
  -2
 10
396.43297528104
 20
460.86336383773
 11
392.996832144615
 21
457.231157848803
  0
LINE
  5
782
100
AcDbEntity
  8
0-0
100
AcDbLine
  6
CONTINUOUS
370
  -2
 10
411.906745279282
 20
475.270561993746
 11
407.49735618033
 21
472.55906712208
  0
LINE
  5
783
100
AcDbEntity
  8
0-0
100
AcDbLine
  6
CONTINUOUS
370
  -2
 10
407.49735618033
 20
472.55906712208
 11
409.960253354227
 21
477.11198422827
  0
LINE
  5
784
100
AcDbEntity
  8
0-0
100
AcDbLine
  6
CONTINUOUS
370
  -2
 10
407.49735618033
 20
472.55906712208
 11
410.933499316754
 21
476.191273111008
  0
TEXT
  5
785
100
AcDbEntity
  8
0-1
100
AcDbText
  6
BYLAYER
 10
569.195479612516
 20
493.12329070308
 40
12.8
  1
φ25
  7
Font_0
 50
60.7599335947071
 72
1
 11
569.863378646316
 21
507.418531550322
100
AcDbText
 73
2
  0
LINE
  5
786
100
AcDbEntity
  8
0-1
100
AcDbLine
  6
BYLAYER
370
  -2
 10
558.0710403068
 20
477.61847433173
 11
545.85929115458
 21
455.80395662807
  0
LINE
  5
787
100
AcDbEntity
  8
0-1
100
AcDbLine
  6
BYLAYER
370
  -2
 10
560.513390137244
 20
481.981377872462
 11
577.1179029001
 21
511.642930293077
  0
LINE
  5
788
100
AcDbEntity
  8
0-1
100
AcDbLine
  6
BYLAYER
370
  -2
 10
543.416941324136
 20
451.441053087338
 11
540.974591493692
 21
447.078149546606
  0
LINE
  5
789
100
AcDbEntity
  8
0-0
100
AcDbLine
  6
CONTINUOUS
370
  -2
 10
561.682425778079
 20
481.326952677744
 11
558.0710403068
 21
477.61847433173
  0
LINE
  5
78A
100
AcDbEntity
  8
0-0
100
AcDbLine
  6
CONTINUOUS
370
  -2
 10
558.0710403068
 20
477.61847433173
 11
559.344354496408
 21
482.635803067179
  0
LINE
  5
78B
100
AcDbEntity
  8
0-0
100
AcDbLine
  6
CONTINUOUS
370
  -2
 10
558.0710403068
 20
477.61847433173
 11
560.513390137244
 21
481.981377872462
  0
LINE
  5
78C
100
AcDbEntity
  8
0-0
100
AcDbLine
  6
CONTINUOUS
370
  -2
 10
542.2479056833
 20
452.095478282056
 11
545.85929115458
 21
455.80395662807
  0
LINE
  5
78D
100
AcDbEntity
  8
0-0
100
AcDbLine
  6
CONTINUOUS
370
  -2
 10
545.85929115458
 20
455.80395662807
 11
544.585976964972
 21
450.78662789262
  0
LINE
  5
78E
100
AcDbEntity
  8
0-0
100
AcDbLine
  6
CONTINUOUS
370
  -2
 10
545.85929115458
 20
455.80395662807
 11
543.416941324136
 21
451.441053087338
  0
TEXT
  5
78F
100
AcDbEntity
  8
0-c
100
AcDbText
  6
CONTINUOUS
 10
628.81615590768
 20
75.429130011542
 40
6
  1
２００４年０９月０３日
  7
Font_0
100
AcDbText
  0
ENDSEC
  0
SECTION
  2
OBJECTS
  0
DICTIONARY
  5
790
100
AcDbDictionary
  3
ACAD_GROUP
350
791
  3
ACAD_MLINESTYLE
350
792
  0
DICTIONARY
  5
791
102
{ACAD_REACTORS
330
790
102
}
100
AcDbDictionary
  0
DICTIONARY
  5
792
102
{ACAD_REACTORS
330
790
102
}
100
AcDbDictionary
  3
STANDARD
350
793
  0
MLINESTYLE
  5
793
102
{ACAD_REACTORS
330
792
102
}
100
AcDbMlineStyle
  2
Standard
 70
     0
  3

 62
     0
 51
90.0
 52
90.0
 71
     2
 49
0.5
 62
   256
  6
ByLayer
 49
-0.5
 62
   256
  6
ByLayer
  0
ENDSEC
  0
EOF
