999
Outputted By AR_CAD Ver.1.5.2a
  0
SECTION
  2
HEADER
  9
$ACADVER
  1
AC1009
  9
$DWGCODEPAGE
  3
DOS932
  9
$EXTMIN
 10
0
 20
0
  9
$EXTMAX
 10
297
 20
210
  9
$INSBASE
 10
0.0
 20
0.0
 30
0.0
  9
$HANDLING
 70
     1
  9
$LTSCALE
 40
1
  0
ENDSEC
  0
SECTION
  2
TABLES
  0
TABLE
  2
LTYPE
 70
     8
  0
LTYPE
  2
BYBLOCK
 70
    64
 3

 72
    65
 73
    0
 40
    0
  0
LTYPE
  2
BYLAYER
 70
    64
 3

 72
    65
 73
    0
 40
    0
  0
LTYPE
  2
CONTINUOUS
 70
    64
 3
CONTINUOUS
 72
    65
 73
    0
 40
    0
  0
LTYPE
  2
DASHED
 70
    64
 3

 72
    65
 73
    2
 40
    3.5
 49
    2.91666666666667
 49
    -0.583333333333333
  0
LTYPE
  2
DOT
 70
    64
 3

 72
    65
 73
    2
 40
    0.5
 49
    0.25
 49
    -0.25
  0
LTYPE
  2
DASHDOT
 70
    64
 3

 72
    65
 73
    4
 40
    3.5
 49
    1.84210526315789
 49
    -0.552631578947368
 49
    0.552631578947368
 49
    -0.552631578947368
  0
LTYPE
  2
DIVIDE
 70
    64
 3

 72
    65
 73
    6
 40
    3.5
 49
    1.4
 49
    -0.42
 49
    0.42
 49
    -0.42
 49
    0.42
 49
    -0.42
  0
LTYPE
  2
HIDDEN
 70
    64
 3

 72
    65
 73
    2
 40
    4
 49
    2
 49
    -2
  0
LTYPE
  2
CENTER
 70
    64
 3

 72
    65
 73
    4
 40
    50.8
 49
    31.75
 49
    -6.35
 49
    6.35
 49
    -6.35
  0
ENDTAB
  0
TABLE
  2
LAYER
 70
   257
  0
LAYER
  2
画層0
 70
    0
 62
7
  6
CONTINUOUS
  0
LAYER
  2
画層1
 70
    0
 62
3
  6
CONTINUOUS
  0
LAYER
  2
画層2
 70
    0
 62
9
  6
CONTINUOUS
  0
LAYER
  2
画層3
 70
    0
 62
7
  6
CONTINUOUS
  0
LAYER
  2
画層4
 70
    0
 62
6
  6
CONTINUOUS
  0
LAYER
  2
画層5
 70
    0
 62
1
  6
CONTINUOUS
  0
LAYER
  2
画層6
 70
    0
 62
7
  6
CONTINUOUS
  0
LAYER
  2
画層7
 70
    0
 62
51
  6
CONTINUOUS
  0
LAYER
  2
画層8
 70
    0
 62
61
  6
CONTINUOUS
  0
LAYER
  2
画層9
 70
    0
 62
111
  6
CONTINUOUS
  0
LAYER
  2
画層10
 70
    0
 62
91
  6
CONTINUOUS
  0
LAYER
  2
画層11
 70
    0
 62
131
  6
CONTINUOUS
  0
LAYER
  2
画層12
 70
    0
 62
161
  6
CONTINUOUS
  0
LAYER
  2
画層13
 70
    0
 62
5
  6
CONTINUOUS
  0
LAYER
  2
画層14
 70
    0
 62
7
  6
CONTINUOUS
  0
LAYER
  2
画層15
 70
    0
 62
11
  6
CONTINUOUS
  0
LAYER
  2
画層16
 70
    0
 62
7
  6
CONTINUOUS
  0
LAYER
  2
画層17
 70
    0
 62
70
  6
CONTINUOUS
  0
LAYER
  2
画層18
 70
    0
 62
211
  6
CONTINUOUS
  0
LAYER
  2
画層19
 70
    0
 62
137
  6
CONTINUOUS
  0
LAYER
  2
画層20
 70
    0
 62
4
  6
CONTINUOUS
  0
LAYER
  2
画層21
 70
    0
 62
131
  6
CONTINUOUS
  0
LAYER
  2
画層22
 70
    0
 62
4
  6
CONTINUOUS
  0
LAYER
  2
画層23
 70
    0
 62
4
  6
CONTINUOUS
  0
LAYER
  2
画層24
 70
    0
 62
7
  6
CONTINUOUS
  0
LAYER
  2
画層25
 70
    0
 62
7
  6
CONTINUOUS
  0
LAYER
  2
画層26
 70
    0
 62
7
  6
CONTINUOUS
  0
LAYER
  2
画層27
 70
    0
 62
7
  6
CONTINUOUS
  0
LAYER
  2
画層28
 70
    0
 62
7
  6
CONTINUOUS
  0
LAYER
  2
画層29
 70
    0
 62
7
  6
CONTINUOUS
  0
LAYER
  2
画層30
 70
    0
 62
7
  6
CONTINUOUS
  0
LAYER
  2
画層31
 70
    0
 62
7
  6
CONTINUOUS
  0
LAYER
  2
画層32
 70
    0
 62
7
  6
CONTINUOUS
  0
LAYER
  2
画層33
 70
    0
 62
7
  6
CONTINUOUS
  0
LAYER
  2
画層34
 70
    0
 62
7
  6
CONTINUOUS
  0
LAYER
  2
画層35
 70
    0
 62
7
  6
CONTINUOUS
  0
LAYER
  2
画層36
 70
    0
 62
7
  6
CONTINUOUS
  0
LAYER
  2
画層37
 70
    0
 62
7
  6
CONTINUOUS
  0
LAYER
  2
画層38
 70
    0
 62
7
  6
CONTINUOUS
  0
LAYER
  2
画層39
 70
    0
 62
7
  6
CONTINUOUS
  0
LAYER
  2
画層40
 70
    0
 62
7
  6
CONTINUOUS
  0
LAYER
  2
画層41
 70
    0
 62
7
  6
CONTINUOUS
  0
LAYER
  2
画層42
 70
    0
 62
7
  6
CONTINUOUS
  0
LAYER
  2
画層43
 70
    0
 62
7
  6
CONTINUOUS
  0
LAYER
  2
画層44
 70
    0
 62
7
  6
CONTINUOUS
  0
LAYER
  2
画層45
 70
    0
 62
7
  6
CONTINUOUS
  0
LAYER
  2
画層46
 70
    0
 62
7
  6
CONTINUOUS
  0
LAYER
  2
画層47
 70
    0
 62
7
  6
CONTINUOUS
  0
LAYER
  2
画層48
 70
    0
 62
7
  6
CONTINUOUS
  0
LAYER
  2
画層49
 70
    0
 62
7
  6
CONTINUOUS
  0
LAYER
  2
画層50
 70
    0
 62
7
  6
CONTINUOUS
  0
LAYER
  2
画層51
 70
    0
 62
7
  6
CONTINUOUS
  0
LAYER
  2
画層52
 70
    0
 62
7
  6
CONTINUOUS
  0
LAYER
  2
画層53
 70
    0
 62
7
  6
CONTINUOUS
  0
LAYER
  2
画層54
 70
    0
 62
7
  6
CONTINUOUS
  0
LAYER
  2
画層55
 70
    0
 62
7
  6
CONTINUOUS
  0
LAYER
  2
画層56
 70
    0
 62
7
  6
CONTINUOUS
  0
LAYER
  2
画層57
 70
    0
 62
7
  6
CONTINUOUS
  0
LAYER
  2
画層58
 70
    0
 62
7
  6
CONTINUOUS
  0
LAYER
  2
画層59
 70
    0
 62
7
  6
CONTINUOUS
  0
LAYER
  2
画層60
 70
    0
 62
7
  6
CONTINUOUS
  0
LAYER
  2
画層61
 70
    0
 62
7
  6
CONTINUOUS
  0
LAYER
  2
画層62
 70
    0
 62
7
  6
CONTINUOUS
  0
LAYER
  2
画層63
 70
    0
 62
7
  6
CONTINUOUS
  0
LAYER
  2
画層64
 70
    0
 62
7
  6
CONTINUOUS
  0
LAYER
  2
画層65
 70
    0
 62
7
  6
CONTINUOUS
  0
LAYER
  2
画層66
 70
    0
 62
7
  6
CONTINUOUS
  0
LAYER
  2
画層67
 70
    0
 62
7
  6
CONTINUOUS
  0
LAYER
  2
画層68
 70
    0
 62
7
  6
CONTINUOUS
  0
LAYER
  2
画層69
 70
    0
 62
7
  6
CONTINUOUS
  0
LAYER
  2
画層70
 70
    0
 62
7
  6
CONTINUOUS
  0
LAYER
  2
画層71
 70
    0
 62
7
  6
CONTINUOUS
  0
LAYER
  2
画層72
 70
    0
 62
7
  6
CONTINUOUS
  0
LAYER
  2
画層73
 70
    0
 62
7
  6
CONTINUOUS
  0
LAYER
  2
画層74
 70
    0
 62
7
  6
CONTINUOUS
  0
LAYER
  2
画層75
 70
    0
 62
7
  6
CONTINUOUS
  0
LAYER
  2
画層76
 70
    0
 62
7
  6
CONTINUOUS
  0
LAYER
  2
画層77
 70
    0
 62
7
  6
CONTINUOUS
  0
LAYER
  2
画層78
 70
    0
 62
7
  6
CONTINUOUS
  0
LAYER
  2
画層79
 70
    0
 62
7
  6
CONTINUOUS
  0
LAYER
  2
画層80
 70
    0
 62
7
  6
CONTINUOUS
  0
LAYER
  2
画層81
 70
    0
 62
7
  6
CONTINUOUS
  0
LAYER
  2
画層82
 70
    0
 62
7
  6
CONTINUOUS
  0
LAYER
  2
画層83
 70
    0
 62
7
  6
CONTINUOUS
  0
LAYER
  2
画層84
 70
    0
 62
7
  6
CONTINUOUS
  0
LAYER
  2
画層85
 70
    0
 62
7
  6
CONTINUOUS
  0
LAYER
  2
画層86
 70
    0
 62
7
  6
CONTINUOUS
  0
LAYER
  2
画層87
 70
    0
 62
7
  6
CONTINUOUS
  0
LAYER
  2
画層88
 70
    0
 62
7
  6
CONTINUOUS
  0
LAYER
  2
画層89
 70
    0
 62
7
  6
CONTINUOUS
  0
LAYER
  2
画層90
 70
    0
 62
7
  6
CONTINUOUS
  0
LAYER
  2
画層91
 70
    0
 62
7
  6
CONTINUOUS
  0
LAYER
  2
画層92
 70
    0
 62
7
  6
CONTINUOUS
  0
LAYER
  2
画層93
 70
    0
 62
7
  6
CONTINUOUS
  0
LAYER
  2
画層94
 70
    0
 62
7
  6
CONTINUOUS
  0
LAYER
  2
画層95
 70
    0
 62
7
  6
CONTINUOUS
  0
LAYER
  2
画層96
 70
    0
 62
7
  6
CONTINUOUS
  0
LAYER
  2
画層97
 70
    0
 62
7
  6
CONTINUOUS
  0
LAYER
  2
画層98
 70
    0
 62
7
  6
CONTINUOUS
  0
LAYER
  2
画層99
 70
    0
 62
7
  6
CONTINUOUS
  0
LAYER
  2
画層100
 70
    0
 62
7
  6
CONTINUOUS
  0
LAYER
  2
画層101
 70
    0
 62
7
  6
CONTINUOUS
  0
LAYER
  2
画層102
 70
    0
 62
7
  6
CONTINUOUS
  0
LAYER
  2
画層103
 70
    0
 62
7
  6
CONTINUOUS
  0
LAYER
  2
画層104
 70
    0
 62
7
  6
CONTINUOUS
  0
LAYER
  2
画層105
 70
    0
 62
7
  6
CONTINUOUS
  0
LAYER
  2
画層106
 70
    0
 62
7
  6
CONTINUOUS
  0
LAYER
  2
画層107
 70
    0
 62
7
  6
CONTINUOUS
  0
LAYER
  2
画層108
 70
    0
 62
7
  6
CONTINUOUS
  0
LAYER
  2
画層109
 70
    0
 62
7
  6
CONTINUOUS
  0
LAYER
  2
画層110
 70
    0
 62
7
  6
CONTINUOUS
  0
LAYER
  2
画層111
 70
    0
 62
7
  6
CONTINUOUS
  0
LAYER
  2
画層112
 70
    0
 62
7
  6
CONTINUOUS
  0
LAYER
  2
画層113
 70
    0
 62
7
  6
CONTINUOUS
  0
LAYER
  2
画層114
 70
    0
 62
7
  6
CONTINUOUS
  0
LAYER
  2
画層115
 70
    0
 62
7
  6
CONTINUOUS
  0
LAYER
  2
画層116
 70
    0
 62
7
  6
CONTINUOUS
  0
LAYER
  2
画層117
 70
    0
 62
7
  6
CONTINUOUS
  0
LAYER
  2
画層118
 70
    0
 62
7
  6
CONTINUOUS
  0
LAYER
  2
画層119
 70
    0
 62
7
  6
CONTINUOUS
  0
LAYER
  2
画層120
 70
    0
 62
7
  6
CONTINUOUS
  0
LAYER
  2
画層121
 70
    0
 62
7
  6
CONTINUOUS
  0
LAYER
  2
画層122
 70
    0
 62
7
  6
CONTINUOUS
  0
LAYER
  2
画層123
 70
    0
 62
7
  6
CONTINUOUS
  0
LAYER
  2
画層124
 70
    0
 62
7
  6
CONTINUOUS
  0
LAYER
  2
画層125
 70
    0
 62
7
  6
CONTINUOUS
  0
LAYER
  2
画層126
 70
    0
 62
7
  6
CONTINUOUS
  0
LAYER
  2
画層127
 70
    0
 62
7
  6
CONTINUOUS
  0
LAYER
  2
画層128
 70
    0
 62
7
  6
CONTINUOUS
  0
LAYER
  2
画層129
 70
    0
 62
7
  6
CONTINUOUS
  0
LAYER
  2
画層130
 70
    0
 62
7
  6
CONTINUOUS
  0
LAYER
  2
画層131
 70
    0
 62
7
  6
CONTINUOUS
  0
LAYER
  2
画層132
 70
    0
 62
7
  6
CONTINUOUS
  0
LAYER
  2
画層133
 70
    0
 62
7
  6
CONTINUOUS
  0
LAYER
  2
画層134
 70
    0
 62
7
  6
CONTINUOUS
  0
LAYER
  2
画層135
 70
    0
 62
7
  6
CONTINUOUS
  0
LAYER
  2
画層136
 70
    0
 62
7
  6
CONTINUOUS
  0
LAYER
  2
画層137
 70
    0
 62
7
  6
CONTINUOUS
  0
LAYER
  2
画層138
 70
    0
 62
7
  6
CONTINUOUS
  0
LAYER
  2
画層139
 70
    0
 62
7
  6
CONTINUOUS
  0
LAYER
  2
画層140
 70
    0
 62
7
  6
CONTINUOUS
  0
LAYER
  2
画層141
 70
    0
 62
7
  6
CONTINUOUS
  0
LAYER
  2
画層142
 70
    0
 62
7
  6
CONTINUOUS
  0
LAYER
  2
画層143
 70
    0
 62
7
  6
CONTINUOUS
  0
LAYER
  2
画層144
 70
    0
 62
7
  6
CONTINUOUS
  0
LAYER
  2
画層145
 70
    0
 62
7
  6
CONTINUOUS
  0
LAYER
  2
画層146
 70
    0
 62
7
  6
CONTINUOUS
  0
LAYER
  2
画層147
 70
    0
 62
7
  6
CONTINUOUS
  0
LAYER
  2
画層148
 70
    0
 62
7
  6
CONTINUOUS
  0
LAYER
  2
画層149
 70
    0
 62
7
  6
CONTINUOUS
  0
LAYER
  2
画層150
 70
    0
 62
7
  6
CONTINUOUS
  0
LAYER
  2
画層151
 70
    0
 62
7
  6
CONTINUOUS
  0
LAYER
  2
画層152
 70
    0
 62
7
  6
CONTINUOUS
  0
LAYER
  2
画層153
 70
    0
 62
7
  6
CONTINUOUS
  0
LAYER
  2
画層154
 70
    0
 62
7
  6
CONTINUOUS
  0
LAYER
  2
画層155
 70
    0
 62
7
  6
CONTINUOUS
  0
LAYER
  2
画層156
 70
    0
 62
7
  6
CONTINUOUS
  0
LAYER
  2
画層157
 70
    0
 62
7
  6
CONTINUOUS
  0
LAYER
  2
画層158
 70
    0
 62
7
  6
CONTINUOUS
  0
LAYER
  2
画層159
 70
    0
 62
7
  6
CONTINUOUS
  0
LAYER
  2
画層160
 70
    0
 62
7
  6
CONTINUOUS
  0
LAYER
  2
画層161
 70
    0
 62
7
  6
CONTINUOUS
  0
LAYER
  2
画層162
 70
    0
 62
7
  6
CONTINUOUS
  0
LAYER
  2
画層163
 70
    0
 62
7
  6
CONTINUOUS
  0
LAYER
  2
画層164
 70
    0
 62
7
  6
CONTINUOUS
  0
LAYER
  2
画層165
 70
    0
 62
7
  6
CONTINUOUS
  0
LAYER
  2
画層166
 70
    0
 62
7
  6
CONTINUOUS
  0
LAYER
  2
画層167
 70
    0
 62
7
  6
CONTINUOUS
  0
LAYER
  2
画層168
 70
    0
 62
7
  6
CONTINUOUS
  0
LAYER
  2
画層169
 70
    0
 62
7
  6
CONTINUOUS
  0
LAYER
  2
画層170
 70
    0
 62
7
  6
CONTINUOUS
  0
LAYER
  2
画層171
 70
    0
 62
7
  6
CONTINUOUS
  0
LAYER
  2
画層172
 70
    0
 62
7
  6
CONTINUOUS
  0
LAYER
  2
画層173
 70
    0
 62
7
  6
CONTINUOUS
  0
LAYER
  2
画層174
 70
    0
 62
7
  6
CONTINUOUS
  0
LAYER
  2
画層175
 70
    0
 62
7
  6
CONTINUOUS
  0
LAYER
  2
画層176
 70
    0
 62
7
  6
CONTINUOUS
  0
LAYER
  2
画層177
 70
    0
 62
7
  6
CONTINUOUS
  0
LAYER
  2
画層178
 70
    0
 62
7
  6
CONTINUOUS
  0
LAYER
  2
画層179
 70
    0
 62
7
  6
CONTINUOUS
  0
LAYER
  2
画層180
 70
    0
 62
7
  6
CONTINUOUS
  0
LAYER
  2
画層181
 70
    0
 62
7
  6
CONTINUOUS
  0
LAYER
  2
画層182
 70
    0
 62
7
  6
CONTINUOUS
  0
LAYER
  2
画層183
 70
    0
 62
7
  6
CONTINUOUS
  0
LAYER
  2
画層184
 70
    0
 62
7
  6
CONTINUOUS
  0
LAYER
  2
画層185
 70
    0
 62
7
  6
CONTINUOUS
  0
LAYER
  2
画層186
 70
    0
 62
7
  6
CONTINUOUS
  0
LAYER
  2
画層187
 70
    0
 62
7
  6
CONTINUOUS
  0
LAYER
  2
画層188
 70
    0
 62
7
  6
CONTINUOUS
  0
LAYER
  2
画層189
 70
    0
 62
7
  6
CONTINUOUS
  0
LAYER
  2
画層190
 70
    0
 62
7
  6
CONTINUOUS
  0
LAYER
  2
画層191
 70
    0
 62
7
  6
CONTINUOUS
  0
LAYER
  2
画層192
 70
    0
 62
7
  6
CONTINUOUS
  0
LAYER
  2
画層193
 70
    0
 62
7
  6
CONTINUOUS
  0
LAYER
  2
画層194
 70
    0
 62
7
  6
CONTINUOUS
  0
LAYER
  2
画層195
 70
    0
 62
7
  6
CONTINUOUS
  0
LAYER
  2
画層196
 70
    0
 62
7
  6
CONTINUOUS
  0
LAYER
  2
画層197
 70
    0
 62
7
  6
CONTINUOUS
  0
LAYER
  2
画層198
 70
    0
 62
7
  6
CONTINUOUS
  0
LAYER
  2
画層199
 70
    0
 62
7
  6
CONTINUOUS
  0
LAYER
  2
画層200
 70
    0
 62
7
  6
CONTINUOUS
  0
LAYER
  2
画層201
 70
    0
 62
7
  6
CONTINUOUS
  0
LAYER
  2
画層202
 70
    0
 62
7
  6
CONTINUOUS
  0
LAYER
  2
画層203
 70
    0
 62
7
  6
CONTINUOUS
  0
LAYER
  2
画層204
 70
    0
 62
7
  6
CONTINUOUS
  0
LAYER
  2
画層205
 70
    0
 62
7
  6
CONTINUOUS
  0
LAYER
  2
画層206
 70
    0
 62
7
  6
CONTINUOUS
  0
LAYER
  2
画層207
 70
    0
 62
7
  6
CONTINUOUS
  0
LAYER
  2
画層208
 70
    0
 62
7
  6
CONTINUOUS
  0
LAYER
  2
画層209
 70
    0
 62
7
  6
CONTINUOUS
  0
LAYER
  2
画層210
 70
    0
 62
7
  6
CONTINUOUS
  0
LAYER
  2
画層211
 70
    0
 62
7
  6
CONTINUOUS
  0
LAYER
  2
画層212
 70
    0
 62
7
  6
CONTINUOUS
  0
LAYER
  2
画層213
 70
    0
 62
7
  6
CONTINUOUS
  0
LAYER
  2
画層214
 70
    0
 62
7
  6
CONTINUOUS
  0
LAYER
  2
画層215
 70
    0
 62
7
  6
CONTINUOUS
  0
LAYER
  2
画層216
 70
    0
 62
7
  6
CONTINUOUS
  0
LAYER
  2
画層217
 70
    0
 62
7
  6
CONTINUOUS
  0
LAYER
  2
画層218
 70
    0
 62
7
  6
CONTINUOUS
  0
LAYER
  2
画層219
 70
    0
 62
7
  6
CONTINUOUS
  0
LAYER
  2
画層220
 70
    0
 62
7
  6
CONTINUOUS
  0
LAYER
  2
画層221
 70
    0
 62
7
  6
CONTINUOUS
  0
LAYER
  2
画層222
 70
    0
 62
7
  6
CONTINUOUS
  0
LAYER
  2
画層223
 70
    0
 62
7
  6
CONTINUOUS
  0
LAYER
  2
画層224
 70
    0
 62
7
  6
CONTINUOUS
  0
LAYER
  2
画層225
 70
    0
 62
7
  6
CONTINUOUS
  0
LAYER
  2
画層226
 70
    0
 62
7
  6
CONTINUOUS
  0
LAYER
  2
画層227
 70
    0
 62
7
  6
CONTINUOUS
  0
LAYER
  2
画層228
 70
    0
 62
7
  6
CONTINUOUS
  0
LAYER
  2
画層229
 70
    0
 62
7
  6
CONTINUOUS
  0
LAYER
  2
画層230
 70
    0
 62
7
  6
CONTINUOUS
  0
LAYER
  2
画層231
 70
    0
 62
7
  6
CONTINUOUS
  0
LAYER
  2
画層232
 70
    0
 62
7
  6
CONTINUOUS
  0
LAYER
  2
画層233
 70
    0
 62
7
  6
CONTINUOUS
  0
LAYER
  2
画層234
 70
    0
 62
7
  6
CONTINUOUS
  0
LAYER
  2
画層235
 70
    0
 62
7
  6
CONTINUOUS
  0
LAYER
  2
画層236
 70
    0
 62
7
  6
CONTINUOUS
  0
LAYER
  2
画層237
 70
    0
 62
7
  6
CONTINUOUS
  0
LAYER
  2
画層238
 70
    0
 62
7
  6
CONTINUOUS
  0
LAYER
  2
画層239
 70
    0
 62
7
  6
CONTINUOUS
  0
LAYER
  2
画層240
 70
    0
 62
7
  6
CONTINUOUS
  0
LAYER
  2
画層241
 70
    0
 62
7
  6
CONTINUOUS
  0
LAYER
  2
画層242
 70
    0
 62
7
  6
CONTINUOUS
  0
LAYER
  2
画層243
 70
    0
 62
7
  6
CONTINUOUS
  0
LAYER
  2
画層244
 70
    0
 62
7
  6
CONTINUOUS
  0
LAYER
  2
画層245
 70
    0
 62
7
  6
CONTINUOUS
  0
LAYER
  2
画層246
 70
    0
 62
7
  6
CONTINUOUS
  0
LAYER
  2
画層247
 70
    0
 62
7
  6
CONTINUOUS
  0
LAYER
  2
画層248
 70
    0
 62
7
  6
CONTINUOUS
  0
LAYER
  2
画層249
 70
    0
 62
7
  6
CONTINUOUS
  0
LAYER
  2
画層250
 70
    0
 62
7
  6
CONTINUOUS
  0
LAYER
  2
画層251
 70
    0
 62
7
  6
CONTINUOUS
  0
LAYER
  2
画層252
 70
    0
 62
7
  6
CONTINUOUS
  0
LAYER
  2
画層253
 70
    0
 62
7
  6
CONTINUOUS
  0
LAYER
  2
画層254
 70
    0
 62
7
  6
CONTINUOUS
  0
LAYER
  2
画層255
 70
    0
 62
7
  6
CONTINUOUS
  0
LAYER
  2
0
 70
   64
 62
    7
  6
CONTINUOUS
  0
ENDTAB
  0
TABLE
  2
STYLE
 70
     1
  0
STYLE
  2
Standard
 70
     0
 40
0.0
 41
1.0
 50
0.0
 71
     0
 42
3.2
  3
TXT
  4
BIGFONT
  0
STYLE
  2
Font_0
 70
     0
 40
0.0
 41
1.0
 50
0.0
 71
     0
 42
3.2
  3
txt
  4
BIGFONT
  0
ENDTAB
  0
ENDSEC
  0
SECTION
  2
BLOCKS
  0
BLOCK
  8
画層0
  2
13462_KCAD_FINI
 70
    0
 10
0
 20
0
 30
0.0
  3
13462_KCAD_FINI
  1

  0
LINE
  8
画層0
  6
CONTINUOUS
 62
134
 10
0
 20
0
 11
1.8475208614068
 21
3.2
  0
LINE
  8
画層0
  6
CONTINUOUS
 62
134
 10
1.8475208614068
 20
3.2
 11
-1.8475208614068
 21
3.2
  0
LINE
  8
画層0
  6
CONTINUOUS
 62
134
 10
-1.8475208614068
 20
3.2
 11
0
 21
0
  0
LINE
  8
画層0
  6
CONTINUOUS
 62
134
 10
3.69504172281361
 20
0
 11
5.54256258422041
 21
3.2
  0
LINE
  8
画層0
  6
CONTINUOUS
 62
134
 10
5.54256258422041
 20
3.2
 11
1.8475208614068
 21
3.2
  0
LINE
  8
画層0
  6
CONTINUOUS
 62
134
 10
1.8475208614068
 20
3.2
 11
3.69504172281361
 21
0
  0
LINE
  8
画層0
  6
CONTINUOUS
 62
134
 10
7.39008344562721
 20
0
 11
9.23760430703401
 21
3.2
  0
LINE
  8
画層0
  6
CONTINUOUS
 62
134
 10
9.23760430703401
 20
3.2
 11
5.54256258422041
 21
3.2
  0
LINE
  8
画層0
  6
CONTINUOUS
 62
134
 10
5.54256258422041
 20
3.2
 11
7.39008344562721
 21
0
  0
ENDBLK
  0
ENDSEC
  0
SECTION
  2
ENTITIES
  0
LINE
  8
画層12
  6
CONTINUOUS
 62
7
 10
285.622576638432
 20
202.409302706712
 11
10.6225766384322
 21
202.409302706712
  0
LINE
  8
画層12
  6
CONTINUOUS
 62
7
 10
10.6225766384322
 20
202.409302706712
 11
10.6225766384322
 21
15.4093027067125
  0
LINE
  8
画層12
  6
CONTINUOUS
 62
7
 10
285.622576638432
 20
202.409302706712
 11
285.622576638432
 21
15.4093027067125
  0
LINE
  8
画層12
  6
CONTINUOUS
 62
7
 10
147.122576638432
 20
202.409302706712
 11
147.122576638432
 21
204.909302706712
  0
LINE
  8
画層12
  6
CONTINUOUS
 62
7
 10
285.622576638432
 20
15.4093027067125
 11
10.6225766384322
 21
15.4093027067125
  0
LINE
  8
画層12
  6
CONTINUOUS
 62
7
 10
95.6225766384312
 20
47.9093027067125
 11
285.622576638432
 21
47.9093027067125
  0
LINE
  8
画層12
  6
CONTINUOUS
 62
7
 10
225.622576638432
 20
47.9093027067125
 11
225.622576638432
 21
15.4093027067125
  0
LINE
  8
画層12
  6
CONTINUOUS
 62
7
 10
285.622576638432
 20
35.4093027067125
 11
10.6225766384321
 21
35.4093027067125
  0
LINE
  8
画層12
  6
CONTINUOUS
 62
7
 10
180.622576638431
 20
15.4093027067125
 11
180.622576638431
 21
47.9093027067125
  0
LINE
  8
画層12
  6
CONTINUOUS
 62
7
 10
230.622576638432
 20
15.4093027067125
 11
230.622576638432
 21
35.4093027067125
  0
LINE
  8
画層12
  6
CONTINUOUS
 62
7
 10
285.622576638432
 20
25.4093027067125
 11
180.622576638431
 21
25.4093027067125
  0
TEXT
  8
画層12
 62
7
  6
CENTER
 62
7
 10
226.352490899942
 20
32.2948545443125
 40
2.7
 41
1.26666666666667
  1
製
  7
Font_0
  0
TEXT
  8
画層12
 62
7
  6
CENTER
 62
7
 10
226.352490899942
 20
29.1948545443125
 40
2.7
 41
1.26666666666667
  1
品
  7
Font_0
  0
TEXT
  8
画層12
 62
7
  6
CENTER
 62
7
 10
226.352490899942
 20
26.0948545443125
 40
2.7
 41
1.26666666666667
  1
名
  7
Font_0
  0
TEXT
  8
画層12
 62
7
  6
CENTER
 62
7
 10
136.685076638431
 20
31.3343027067125
 40
3.15
  1
設 計
  7
Font_0
 72
1
 11
140.622576638431
 21
32.9093027067125
 73
2
  0
TEXT
  8
画層12
 62
7
  6
CENTER
 62
7
 10
181.638044814095
 20
21.0046632918125
 40
2.7
 41
1.20333331823349
  1
面
  7
Font_0
  0
TEXT
  8
画層12
 62
7
  6
CENTER
 62
7
 10
181.638044814095
 20
17.5046632918125
 40
2.7
 41
1.20333331823349
  1
取
  7
Font_0
  0
TEXT
  8
画層12
 62
7
  6
CENTER
 62
7
 10
181.291102175013
 20
27.2765353520125
 40
2.7
 41
1.27
  1
上
  7
Font_0
  0
TEXT
  8
画層12
 62
7
  6
CENTER
 62
7
 10
181.291102175013
 20
30.7765353520125
 40
2.7
 41
1.26666666666667
  1
仕
  7
Font_0
  0
TEXT
  8
画層12
 62
7
  6
CENTER
 62
7
 10
226.272576638432
 20
21.5593027067125
 40
2.7
 41
1.26666666666667
  1
図
  7
Font_0
  0
TEXT
  8
画層12
 62
7
  6
CENTER
 62
7
 10
226.272576638432
 20
17.0593027067125
 40
2.7
 41
1.26666666666667
  1
番
  7
Font_0
  0
LINE
  8
画層12
  6
CONTINUOUS
 62
7
 10
95.6225766384312
 20
40.4093027067125
 11
285.622576638432
 21
40.4093027067125
  0
LINE
  8
画層12
  6
CONTINUOUS
 62
7
 10
185.622576638431
 20
15.4093027067125
 11
185.622576638431
 21
35.4093027067125
  0
TEXT
  8
画層12
 62
7
  6
CENTER
 62
7
 10
102.275076638431
 20
31.3343027067125
 40
3.15
 41
1.22142857142857
  1
尺度
  7
Font_0
 72
1
 11
106.122576638431
 21
32.9093027067125
 73
2
  0
TEXT
  8
画層12
 62
7
  6
CENTER
 62
7
 10
99.8225766384311
 20
36.3343027067125
 40
3.15
  1
部品番号
  7
Font_0
 72
1
 11
106.122576638431
 21
37.9093027067125
 73
2
  0
TEXT
  8
画層12
 62
7
  6
CENTER
 62
7
 10
169.472576638431
 20
36.3343027067125
 40
3.15
  1
個数
  7
Font_0
 72
1
 11
172.622576638431
 21
37.9093027067125
 73
2
  0
TEXT
  8
画層12
 62
7
  6
CENTER
 62
7
 10
196.822576638432
 20
36.3343027067125
 40
3.15
  1
材    質
  7
Font_0
 72
1
 11
203.122576638432
 21
37.9093027067125
 73
2
  0
TEXT
  8
画層0
 62
7
  6
CENTER
 62
7
 10
102.391326638431
 20
23.3753027067125
 40
4.068
 41
1.22295968534907
  1
1/1
  7
Font_0
 72
1
 11
106.122576638431
 21
25.4093027067125
 73
2
  0
TEXT
  8
画層0
 62
7
  6
CENTER
 62
7
 10
43.2575766384317
 20
18.6943027067125
 40
3.43
  1
２００９年　８月　６日
  7
Font_0
 72
1
 11
62.1225766384317
 21
20.4093027067125
 73
2
  0
TEXT
  8
画層12
 62
7
  6
CENTER
 62
7
 10
13.2302708187197
 20
32.8821369480859
 40
1.35600025863647
 41
0.577433297908475
  1
2
  7
Font_0
  0
TEXT
  8
画層12
 62
7
  6
CENTER
 62
7
 10
13.3628208777796
 20
29.5558964180008
 40
1.35600025863647
 41
0.577433297908475
  1
1
  7
Font_0
  0
TEXT
  8
画層12
 62
7
  6
CENTER
 62
7
 10
18.5506274009146
 20
25.8919203764793
 40
2.4
  1
年月日
  7
Font_0
  0
TEXT
  8
画層12
 62
7
  6
CENTER
 62
7
 10
30.234961990846
 20
25.9587512439153
 40
2.4
  1
担当
  7
Font_0
  0
LINE
  8
画層12
  6
CONTINUOUS
 62
7
 10
13.5024460499219
 20
31.6273972934812
 11
14.8357793833219
 21
29.3179962167812
  0
LINE
  8
画層12
  6
CONTINUOUS
 62
7
 10
14.8357793833219
 20
29.3179962167812
 11
12.1691127166219
 21
29.3179962167812
  0
LINE
  8
画層12
  6
CONTINUOUS
 62
7
 10
12.1691127166219
 20
29.3179962167812
 11
13.5024460499219
 21
31.6273972934812
  0
LINE
  8
画層12
  6
CONTINUOUS
 62
7
 10
12.1667691093321
 20
32.6300983432125
 11
13.5001024427322
 21
34.9394994200125
  0
LINE
  8
画層12
  6
CONTINUOUS
 62
7
 10
14.8334357760322
 20
32.6300983432125
 11
12.1667691093321
 21
32.6300983432125
  0
LINE
  8
画層12
  6
CONTINUOUS
 62
7
 10
13.5001024427322
 20
34.9394994200125
 11
14.8334357760322
 21
32.6300983432125
  0
TEXT
  8
画層12
 62
7
  6
CENTER
 62
7
 10
11.5220625152322
 20
26.2587513869664
 40
1.8
  1
符号
  7
Font_0
  0
TEXT
  8
画層12
 62
7
  6
CENTER
 62
7
 10
53.676013138881
 20
25.9201313597613
 40
2.4
  1
訂  正  記  事
  7
Font_0
  0
LINE
  8
画層12
  6
CONTINUOUS
 62
7
 10
16.0225766384322
 20
25.4093027067125
 11
16.0225766384322
 21
35.4093027067125
  0
LINE
  8
画層12
  6
CONTINUOUS
 62
7
 10
28.6225766384322
 20
15.4093027067125
 11
28.6225766384322
 21
35.4093027067125
  0
LINE
  8
画層12
  6
CONTINUOUS
 62
7
 10
10.6225766384322
 20
25.4093027067125
 11
95.6225766384312
 21
25.4093027067125
  0
LINE
  8
画層12
  6
CONTINUOUS
 62
7
 10
10.6225766384322
 20
28.7426360400125
 11
95.6225766384312
 21
28.7426360400125
  0
LINE
  8
画層12
  6
CONTINUOUS
 62
7
 10
10.6225766384322
 20
32.0759693734125
 11
95.6225766384312
 21
32.0759693734125
  0
LINE
  8
画層12
  6
CONTINUOUS
 62
7
 10
36.6225766384322
 20
25.4093027067125
 11
36.6225766384322
 21
35.4093027067125
  0
LINE
  8
画層12
  6
CONTINUOUS
 62
7
 10
95.6225766384312
 20
30.4093027067125
 11
180.622576638431
 21
30.4093027067125
  0
TEXT
  8
画層12
 62
7
  6
CENTER
 62
7
 10
100.452576638431
 20
16.5593027067125
 40
2.7
 41
1.2
  1
 三角法
  7
Font_0
 72
1
 11
106.122576638431
 21
17.9093027067125
 73
2
  0
TEXT
  8
画層12
 62
7
  6
CENTER
 62
7
 10
15.5416970523322
 20
19.0835971563125
 40
3.15
  1
日付
  7
Font_0
  0
LINE
  8
画層12
  6
CONTINUOUS
 62
7
 10
95.6225766384312
 20
20.4093027067125
 11
116.622576638431
 21
20.4093027067125
  0
TEXT
  8
画層12
 62
7
  6
CENTER
 62
7
 10
244.597576638432
 20
36.3343027067125
 40
3.15
  1
表  面  処  理
  7
Font_0
 72
1
 11
255.622576638432
 21
37.9093027067125
 73
2
  0
TEXT
  8
画層12
 62
7
  6
CENTER
 62
7
 10
131.172576638431
 20
36.3343027067125
 40
3.15
  1
部   品   名
  7
Font_0
 72
1
 11
140.622576638431
 21
37.9093027067125
 73
2
  0
TEXT
  8
画層12
 62
7
  6
CENTER
 62
7
 10
120.685076638431
 20
31.3343027067125
 40
3.15
  1
製 図
  7
Font_0
 72
1
 11
124.622576638431
 21
32.9093027067125
 73
2
  0
TEXT
  8
画層12
 62
7
  6
CENTER
 62
7
 10
152.685076638431
 20
31.3343027067125
 40
3.15
  1
検 図
  7
Font_0
 72
1
 11
156.622576638431
 21
32.9093027067125
 73
2
  0
TEXT
  8
画層12
 62
7
  6
CENTER
 62
7
 10
168.685076638431
 20
31.3343027067125
 40
3.15
  1
承 認
  7
Font_0
 72
1
 11
172.622576638431
 21
32.9093027067125
 73
2
  0
LINE
  8
画層12
  6
CONTINUOUS
 62
7
 10
164.622576638431
 20
15.4093027067125
 11
164.622576638431
 21
47.9093027067125
  0
LINE
  8
画層12
  6
CONTINUOUS
 62
7
 10
148.622576638431
 20
15.4093027067125
 11
148.622576638431
 21
35.4093027067125
  0
LINE
  8
画層12
  6
CONTINUOUS
 62
7
 10
132.622576638431
 20
15.4093027067125
 11
132.622576638431
 21
35.4093027067125
  0
LINE
  8
画層12
  6
CONTINUOUS
 62
7
 10
116.622576638431
 20
15.4093027067125
 11
116.622576638431
 21
47.9093027067125
  0
LINE
  8
画層12
  6
CONTINUOUS
 62
7
 10
95.6225766384312
 20
15.4093027067125
 11
95.6225766384312
 21
47.9093027067125
  0
LINE
  8
画層12
  6
CONTINUOUS
 62
7
 10
285.622576638432
 20
106.409302706712
 11
288.122576638432
 21
106.409302706712
  0
LINE
  8
画層12
  6
CONTINUOUS
 62
7
 10
10.6225766384322
 20
106.409302706712
 11
8.12257663843221
 21
106.409302706712
  0
LINE
  8
画層12
  6
CONTINUOUS
 62
7
 10
137.797878449891
 20
12.9301891155016
 11
132.122576638432
 21
12.9301891155016
  0
LINE
  8
画層12
  6
CONTINUOUS
 62
7
 10
135.536619823968
 20
11.9349153865386
 11
137.797878449891
 21
11.9349153865386
  0
LINE
  8
画層12
  6
CONTINUOUS
 62
7
 10
135.536619823968
 20
8.40930270671248
 11
135.536619823968
 21
11.9349153865386
  0
LINE
  8
画層12
  6
CONTINUOUS
 62
7
 10
134.348269205335
 20
11.9349153865386
 11
134.348269205335
 21
8.40930270671248
  0
LINE
  8
画層12
  6
CONTINUOUS
 62
7
 10
132.122576638432
 20
11.9349153865386
 11
134.348269205335
 21
11.9349153865386
  0
LINE
  8
画層12
  6
CONTINUOUS
 62
7
 10
137.797878449891
 20
11.9349153865386
 11
137.797878449891
 21
12.9301891155016
  0
ARC
  8
画層12
  6
CONTINUOUS
 62
7
 10
138.767583553194
 20
10.6999157409821
 40
1.19452833626332
 50
90
 51
180
  0
LINE
  8
画層12
  6
CONTINUOUS
 62
7
 10
137.573055216931
 20
10.6999157409821
 11
137.573055216931
 21
9.60383104297583
  0
LINE
  8
画層12
  6
CONTINUOUS
 62
7
 10
141.726104488212
 20
11.8944440772455
 11
138.767583553194
 21
11.8944440772455
  0
ARC
  8
画層12
  6
CONTINUOUS
 62
7
 10
138.707502357384
 20
10.8431527543391
 40
0.162890227672278
 50
90
 51
180
  0
LINE
  8
画層12
  6
CONTINUOUS
 62
7
 10
138.544612129712
 20
10.8431527543391
 11
138.544612129712
 21
9.46733601015651
  0
LINE
  8
画層12
  6
CONTINUOUS
 62
7
 10
141.643696700596
 20
11.0060429820114
 11
138.707502357384
 21
11.0060429820114
  0
ARC
  8
画層12
  6
CONTINUOUS
 62
7
 10
138.767583553194
 20
9.60383104297583
 40
1.19452833626332
 50
180
 51
270
  0
LINE
  8
画層12
  6
CONTINUOUS
 62
7
 10
132.122576638432
 20
12.9301891155016
 11
132.122576638432
 21
11.9349153865386
  0
ARC
  8
画層12
  6
CONTINUOUS
 62
7
 10
138.707502357384
 20
9.46733601015651
 40
0.162890227672278
 50
180
 51
270
  0
LINE
  8
画層12
  6
CONTINUOUS
 62
7
 10
134.348269205335
 20
8.40930270671248
 11
135.536619823968
 21
8.40930270671248
  0
LINE
  8
画層12
  6
CONTINUOUS
 62
7
 10
138.707502357384
 20
9.30444578248424
 11
141.643696700596
 21
9.30444578248424
  0
LINE
  8
画層12
  6
CONTINUOUS
 62
7
 10
138.767583553194
 20
8.40930270671248
 11
141.726104488212
 21
8.40930270671248
  0
ARC
  8
画層12
  6
CONTINUOUS
 62
7
 10
141.726104488212
 20
10.6999157409821
 40
1.19452833626335
 50
0
 51
90
  0
ARC
  8
画層12
  6
CONTINUOUS
 62
7
 10
141.643696700596
 20
10.8431527543391
 40
0.162890227672278
 50
0
 51
90
  0
LINE
  8
画層12
  6
CONTINUOUS
 62
7
 10
141.806586928269
 20
9.46733601015651
 11
141.806586928269
 21
10.8431527543391
  0
ARC
  8
画層12
  6
CONTINUOUS
 62
7
 10
141.643696700596
 20
9.46733601015651
 40
0.162890227672278
 50
270
 51
0
  0
ARC
  8
画層12
  6
CONTINUOUS
 62
7
 10
141.726104488212
 20
9.60383104297583
 40
1.19452833626335
 50
270
 51
0
  0
LINE
  8
画層12
  6
CONTINUOUS
 62
7
 10
142.920632824476
 20
9.60383104297583
 11
142.920632824476
 21
10.6999157409821
  0
LINE
  8
画層12
  6
CONTINUOUS
 62
7
 10
143.466081083235
 20
12.9301891155016
 11
143.466081083235
 21
8.40930270671248
  0
LINE
  8
画層12
  6
CONTINUOUS
 62
7
 10
144.521746869341
 20
12.9301891155016
 11
143.466081083235
 21
12.9301891155016
  0
LINE
  8
画層12
  6
CONTINUOUS
 62
7
 10
144.521746869341
 20
10.3449018686071
 11
144.521746869341
 21
12.9301891155016
  0
LINE
  8
画層12
  6
CONTINUOUS
 62
7
 10
143.466081083235
 20
8.40930270671248
 11
144.521746869341
 21
8.40930270671248
  0
ARC
  8
画層12
  6
CONTINUOUS
 62
7
 10
144.630340354456
 20
10.3449018686071
 40
0.108593485114881
 50
180
 51
305.751288374722
  0
ARC
  8
画層12
  6
CONTINUOUS
 62
7
 10
144.630340354456
 20
9.95938431182591
 40
0.108593485114881
 50
52.9521908437076
 51
180
  0
LINE
  8
画層12
  6
CONTINUOUS
 62
7
 10
144.521746869341
 20
8.40930270671248
 11
144.521746869341
 21
9.95938431182591
  0
LINE
  8
画層12
  6
CONTINUOUS
 62
7
 10
146.957873024619
 20
11.8867569050194
 11
144.693788043571
 21
10.2567716481636
  0
LINE
  8
画層12
  6
CONTINUOUS
 62
7
 10
146.864044616749
 20
8.40930270671248
 11
144.695765889499
 21
10.0460563625329
  0
LINE
  8
画層12
  6
CONTINUOUS
 62
7
 10
148.61995780898
 20
11.8867569050194
 11
146.020584230875
 21
10.1502127155373
  0
LINE
  8
画層12
  6
CONTINUOUS
 62
7
 10
146.020584230875
 20
10.1502127155373
 11
148.67616361722
 21
8.40930270671248
  0
LINE
  8
画層12
  6
CONTINUOUS
 62
7
 10
148.61995780898
 20
11.8867569050194
 11
146.957873024619
 21
11.8867569050194
  0
LINE
  8
画層12
  6
CONTINUOUS
 62
7
 10
146.864044616749
 20
8.40930270671248
 11
148.67616361722
 21
8.40930270671248
  0
LINE
  8
画層12
  6
CONTINUOUS
 62
7
 10
149.34740433338
 20
12.9301891155016
 11
149.34740433338
 21
12.1343954875125
  0
LINE
  8
画層12
  6
CONTINUOUS
 62
7
 10
150.402483736929
 20
12.9301891155016
 11
149.34740433338
 21
12.9301891155016
  0
LINE
  8
画層12
  6
CONTINUOUS
 62
7
 10
149.34740433338
 20
12.1343954875125
 11
150.402483736929
 21
12.1343954875125
  0
LINE
  8
画層12
  6
CONTINUOUS
 62
7
 10
150.402483736929
 20
11.8867569050194
 11
149.34740433338
 21
11.8867569050194
  0
LINE
  8
画層12
  6
CONTINUOUS
 62
7
 10
149.34740433338
 20
11.8867569050194
 11
149.34740433338
 21
8.40930270671248
  0
LINE
  8
画層12
  6
CONTINUOUS
 62
7
 10
149.34740433338
 20
8.40930270671248
 11
150.402483736929
 21
8.40930270671248
  0
LINE
  8
画層12
  6
CONTINUOUS
 62
7
 10
150.402483736929
 20
12.1343954875125
 11
150.402483736929
 21
12.9301891155016
  0
LINE
  8
画層12
  6
CONTINUOUS
 62
7
 10
150.402483736929
 20
8.40930270671248
 11
150.402483736929
 21
11.8867569050194
  0
LINE
  8
画層12
  6
CONTINUOUS
 62
7
 10
151.019125995952
 20
11.8867569050194
 11
155.148349156
 21
11.8867569050194
  0
LINE
  8
画層12
  6
CONTINUOUS
 62
7
 10
151.019125995952
 20
8.40930270671248
 11
151.019125995952
 21
11.8867569050194
  0
LINE
  8
画層12
  6
CONTINUOUS
 62
7
 10
152.079006296495
 20
8.40930270671248
 11
151.019125995952
 21
8.40930270671248
  0
LINE
  8
画層12
  6
CONTINUOUS
 62
7
 10
152.079006296495
 20
10.9958263844903
 11
152.079006296495
 21
8.40930270671248
  0
LINE
  8
画層12
  6
CONTINUOUS
 62
7
 10
154.921018908004
 20
10.9958263844903
 11
152.079006296495
 21
10.9958263844903
  0
ARC
  8
画層12
  6
CONTINUOUS
 62
7
 10
154.921018908004
 20
10.7786394142606
 40
0.217186970229704
 50
0
 51
90
  0
ARC
  8
画層12
  6
CONTINUOUS
 62
7
 10
155.148349156
 20
10.8370198822425
 40
1.04973702277681
 50
0
 51
90
  0
LINE
  8
画層12
  6
CONTINUOUS
 62
7
 10
155.138205878234
 20
8.40930270671248
 11
155.138205878234
 21
10.7786394142606
  0
LINE
  8
画層12
  6
CONTINUOUS
 62
7
 10
156.198086178777
 20
8.40930270671248
 11
155.138205878234
 21
8.40930270671248
  0
LINE
  8
画層12
  6
CONTINUOUS
 62
7
 10
156.198086178777
 20
10.8370198822425
 11
156.198086178777
 21
8.40930270671248
  0
LINE
  8
画層12
  6
CONTINUOUS
 62
7
 10
160.953475407677
 20
11.8867569050194
 11
156.837301169086
 21
11.8867569050194
  0
LINE
  8
画層12
  6
CONTINUOUS
 62
7
 10
156.837301169086
 20
11.8867569050194
 11
156.837301169086
 21
11.0988863372128
  0
LINE
  8
画層12
  6
CONTINUOUS
 62
7
 10
156.837301169086
 20
11.0988863372128
 11
160.879774175185
 21
11.0988863372128
  0
POLYLINE
  8
画層12
 62
7
  6
CONTINUOUS
 10
0.0
 20
0.0
 30
0.0
 66
1
  0
VERTEX
  8
画層12
 10
157.961416628674
  20
10.5127147308896
  0
VERTEX
  8
画層12
 10
157.732235849039
  20
10.505516285256
  0
VERTEX
  8
画層12
 10
157.503773743484
  20
10.4812448994736
  0
VERTEX
  8
画層12
 10
157.306561486511
  20
10.4385298119254
  0
VERTEX
  8
画層12
 10
157.150619279233
  20
10.3814517758103
  0
VERTEX
  8
画層12
 10
157.032995674242
  20
10.3154827941326
  0
VERTEX
  8
画層12
 10
156.939013446842
  20
10.2399148862446
  0
VERTEX
  8
画層12
 10
156.868418314404
  20
10.1551163056001
  0
VERTEX
  8
画層12
 10
156.816002299021
  20
10.0655025753217
  0
VERTEX
  8
画層12
 10
156.780449258033
  20
9.96042035399165
  0
VERTEX
  8
画層12
 10
156.760722741126
  20
9.8425620185732
  0
VERTEX
  8
画層12
 10
156.757007308431
  20
9.71810092111235
  0
SEQEND
100
AcDbEntity
  8
画層12
  0
LINE
  8
画層12
  6
CONTINUOUS
 62
7
 10
156.757007308431
 20
9.71810092111235
 11
156.757007308431
 21
9.18835850740413
  0
POLYLINE
  8
画層12
 62
7
  6
CONTINUOUS
 10
0.0
 20
0.0
 30
0.0
 66
1
  0
VERTEX
  8
画層12
 10
157.961416628674
  20
8.40930270671248
  0
VERTEX
  8
画層12
 10
157.732235849039
  20
8.41650115234609
  0
VERTEX
  8
画層12
 10
157.503773743484
  20
8.4407725381285
  0
VERTEX
  8
画層12
 10
157.306561486511
  20
8.48348762567676
  0
VERTEX
  8
画層12
 10
157.150619279233
  20
8.54056566179179
  0
VERTEX
  8
画層12
 10
157.032995674242
  20
8.60653464346949
  0
VERTEX
  8
画層12
 10
156.939013446842
  20
8.6821025513575
  0
VERTEX
  8
画層12
 10
156.868418314404
  20
8.76690113200195
  0
VERTEX
  8
画層12
 10
156.816002299021
  20
8.85651486228043
  0
VERTEX
  8
画層12
 10
156.780449258033
  20
8.96159708361043
  0
VERTEX
  8
画層12
 10
156.760722741126
  20
9.07945541902889
  0
VERTEX
  8
画層12
 10
156.757007308431
  20
9.20391651648975
  0
SEQEND
100
AcDbEntity
  8
画層12
  0
LINE
  8
画層12
  6
CONTINUOUS
 62
7
 10
161.060763317043
 20
10.5127147308896
 11
157.961416628674
 21
10.5127147308896
  0
LINE
  8
画層12
  6
CONTINUOUS
 62
7
 10
157.961416628674
 20
9.71810092111235
 11
157.961416628674
 21
9.18835850740413
  0
LINE
  8
画層12
  6
CONTINUOUS
 62
7
 10
161.060763317043
 20
9.71810092111235
 11
157.961416628674
 21
9.71810092111235
  0
LINE
  8
画層12
  6
CONTINUOUS
 62
7
 10
157.961416628674
 20
9.18835850740413
 11
161.060763317043
 21
9.18835850740413
  0
LINE
  8
画層12
  6
CONTINUOUS
 62
7
 10
157.961416627872
 20
8.40930270671248
 11
157.961416628674
 21
8.40930270671248
  0
LINE
  8
画層12
  6
CONTINUOUS
 62
7
 10
157.961416628674
 20
8.40930270671248
 11
162.122587530415
 21
8.40930270671248
  0
ARC
  8
画層12
  6
CONTINUOUS
 62
7
 10
160.879774175185
 20
10.9178971953547
 40
0.180989141858049
 50
0
 51
90
  0
POLYLINE
  8
画層12
 62
7
  6
CONTINUOUS
 10
0.0
 20
0.0
 30
0.0
 66
1
  0
VERTEX
  8
画層12
 10
162.122587530415
  20
10.7127903543459
  0
VERTEX
  8
画層12
 10
162.10751514021
  20
10.9426616794291
  0
VERTEX
  8
画層12
 10
162.072909811231
  20
11.1635002915142
  0
VERTEX
  8
画層12
 10
162.000803627049
  20
11.369968067072
  0
VERTEX
  8
画層12
 10
161.880308600494
  20
11.5450889729325
  0
VERTEX
  8
画層12
 10
161.717039160886
  20
11.687015628001
  0
VERTEX
  8
画層12
 10
161.514810003159
  20
11.7856844656108
  0
VERTEX
  8
画層12
 10
161.306350587335
  20
11.8430388906032
  0
VERTEX
  8
画層12
 10
161.115491385852
  20
11.8736383350359
  0
VERTEX
  8
画層12
 10
160.953475407677
  20
11.8867569050194
  0
SEQEND
100
AcDbEntity
  8
画層12
  0
LINE
  8
画層12
  6
CONTINUOUS
 62
7
 10
161.060763317043
 20
10.9178971953547
 11
161.060763317043
 21
10.5127147308896
  0
LINE
  8
画層12
  6
CONTINUOUS
 62
7
 10
161.060763317043
 20
9.18835850740413
 11
161.060763317043
 21
9.71810092111235
  0
LINE
  8
画層12
  6
CONTINUOUS
 62
7
 10
162.122587530415
 20
8.40930270671248
 11
162.122587530415
 21
10.7127903543459
  0
TEXT
  8
画層0
 62
7
  6
CONTINUOUS
 62
7
 10
240.259337320385
 20
28.6808872898062
 40
3.3
  1
ＫＣＭ－２－６５Ｃ
  7
Font_0
  0
TEXT
  8
画層0
 62
7
  6
CONTINUOUS
 62
7
 10
241.496185459853
 20
18.3924128679531
 40
4
  1
ＫＶＴ－１００６
  7
Font_0
 72
1
 11
257.496185459853
 21
20.3924128679531
 73
2
  0
TEXT
  8
画層0
 62
7
  6
CENTER
 62
7
 10
239.872576638432
 20
42.4093027067125
 40
3.5
  1
サテン黒アルマイト
  7
Font_0
 72
1
 11
255.622576638432
 21
44.1593027067125
 73
2
  0
TEXT
  8
画層0
 62
7
  6
CENTER
 62
7
 10
190.872576638432
 20
42.4093027067125
 40
3.5
  1
Ａ５０５２ＴＤ
  7
Font_0
 72
1
 11
203.122576638432
 21
44.1593027067125
 73
2
  0
TEXT
  8
画層0
 62
7
  6
CENTER
 62
7
 10
171.722576638431
 20
42.3593027067125
 40
3.6
  1
1
  7
Font_0
 72
1
 11
172.622576638431
 21
44.1593027067125
 73
2
  0
TEXT
  8
画層0
 62
7
  6
CENTER
 62
7
 10
133.422576638431
 20
42.4915993338507
 40
3.6
  1
組 立 図
  7
Font_0
 72
1
 11
140.622576638431
 21
44.2915993338507
 73
2
  0
TEXT
  8
画層0
 62
7
  6
CENTER
 62
7
 10
100.722576638431
 20
42.3593027067125
 40
3.6
  1
０００
  7
Font_0
 72
1
 11
106.122576638431
 21
44.1593027067125
 73
2
  0
TEXT
  8
画層0
 62
7
  6
CONTINUOUS
 62
7
 10
135.36432663652
 20
23.1904013572092
 40
3.6
 41
0.973750000353902
  1
宇賀田
  7
Font_0
 72
1
 11
140.622576638431
 21
24.9904013572092
 73
2
  0
TEXT
  8
画層0
 62
7
  6
CONTINUOUS
 62
7
 10
168.240701636839
 20
23.1904013572092
 40
3.6
 41
0.973750000353902
  1
藤 田
  7
Font_0
 72
1
 11
172.622576638431
 21
24.9904013572092
 73
2
  0
TEXT
  8
画層0
 62
7
  6
CONTINUOUS
 62
7
 10
200.822576638432
 20
18.4093027067125
 40
4
 41
1.2
  1
C0.1
  7
Font_0
 72
1
 11
205.622576638432
 21
20.4093027067125
 73
2
  0
TEXT
  8
画層0
 62
7
  6
CONTINUOUS
 62
7
 10
152.240701636839
 20
23.1904013572092
 40
3.6
 41
0.973750000353902
  1
藤 田
  7
Font_0
 72
1
 11
156.622576638431
 21
24.9904013572092
 73
2
  0
TEXT
  8
画層0
 62
7
  6
CONTINUOUS
 62
7
 10
119.36432663652
 20
23.1904013572092
 40
3.6
 41
0.973750000353902
  1
宇賀田
  7
Font_0
 72
1
 11
124.622576638431
 21
24.9904013572092
 73
2
  0
TEXT
  8
画層0
 62
7
  6
CONTINUOUS
 62
7
 10
121.130976638431
 20
19.1034157086162
 40
2.03
 41
0.86
  1
09/08/06
  7
Font_0
 72
1
 11
124.622576638431
 21
20.1184157086162
 73
2
  0
INSERT
  8
画層0
  6
CONTINUOUS
 62
7
  2
13462_KCAD_FINI
 10
201.927534915618
 20
28.4429347374179
 30
0.0
  0
TEXT
  8
画層0
 62
7
  6
CONTINUOUS
 62
7
 10
137.130976638431
 20
19.1034157086162
 40
2.03
 41
0.86
  1
09/08/06
  7
Font_0
 72
1
 11
140.622576638431
 21
20.1184157086162
 73
2
  0
TEXT
  8
画層0
 62
7
  6
CONTINUOUS
 62
7
 10
153.130976638431
 20
19.1034157086162
 40
2.03
 41
0.86
  1
09/08/06
  7
Font_0
 72
1
 11
156.622576638431
 21
20.1184157086162
 73
2
  0
TEXT
  8
画層0
 62
7
  6
CONTINUOUS
 62
7
 10
169.130976638431
 20
19.1034157086162
 40
2.03
 41
0.86
  1
09/08/06
  7
Font_0
 72
1
 11
172.622576638431
 21
20.1184157086162
 73
2
  0
LINE
  8
画層0
  6
CENTER
 62
7
 10
139.023346179509
 20
117.409302706712
 11
220.94835969148
 21
117.409302706712
  0
LINE
  8
画層0
  6
CENTER
 62
7
 10
77.6453318774827
 20
117.409302706712
 11
132.573044730556
 21
117.409302706712
  0
LINE
  8
画層0
  6
CONTINUOUS
 62
7
 10
145.622576638432
 20
109.709302706712
 11
145.922576638432
 21
109.409302706712
  0
LINE
  8
画層0
  6
CONTINUOUS
 62
7
 10
163.722576638432
 20
109.409302706712
 11
179.522576638432
 21
109.409302706712
  0
LINE
  8
画層0
  6
CONTINUOUS
 62
7
 10
163.522576638432
 20
109.409302706712
 11
145.922576638432
 21
109.409302706712
  0
LINE
  8
画層0
  6
CONTINUOUS
 62
7
 10
179.722576638432
 20
109.409302706712
 11
202.222576638432
 21
109.409302706712
  0
LINE
  8
画層0
  6
CONTINUOUS
 62
7
 10
179.622576638432
 20
109.509302706712
 11
179.522576638432
 21
109.409302706712
  0
LINE
  8
画層0
  6
CONTINUOUS
 62
7
 10
179.722576638432
 20
109.409302706712
 11
179.622576638432
 21
109.509302706712
  0
LINE
  8
画層0
  6
CONTINUOUS
 62
7
 10
163.622576638432
 20
109.509302706712
 11
163.722576638432
 21
109.409302706712
  0
LINE
  8
画層0
  6
CONTINUOUS
 62
7
 10
163.522576638432
 20
109.409302706712
 11
163.622576638432
 21
109.509302706712
  0
LINE
  8
画層0
  6
CONTINUOUS
 62
7
 10
80.8225766384323
 20
114.640475706712
 11
80.8225766384323
 21
120.178129706712
  0
LINE
  8
画層0
  6
CONTINUOUS
 62
7
 10
209.722576638432
 20
104.709302706712
 11
209.722576638432
 21
130.109302706712
  0
LINE
  8
画層0
  6
CONTINUOUS
 62
7
 10
208.422576638432
 20
101.909302706712
 11
208.422576638432
 21
132.909302706712
  0
LINE
  8
画層0
  6
CONTINUOUS
 62
7
 10
202.722576638432
 20
101.909302706712
 11
202.722576638432
 21
132.909302706712
  0
LINE
  8
画層0
  6
CONTINUOUS
 62
7
 10
202.722576638432
 20
101.909302706712
 11
202.222576638432
 21
102.409302706712
  0
LINE
  8
画層0
  6
CONTINUOUS
 62
7
 10
208.722576638432
 20
102.209302706712
 11
208.422576638432
 21
101.909302706712
  0
LINE
  8
画層0
  6
CONTINUOUS
 62
7
 10
208.422576638432
 20
101.909302706712
 11
202.722576638432
 21
101.909302706712
  0
LINE
  8
画層0
  6
CONTINUOUS
 62
7
 10
212.122576638432
 20
104.709302706712
 11
212.122576638432
 21
130.109302706712
  0
LINE
  8
画層0
  6
CONTINUOUS
 62
7
 10
212.122576638432
 20
104.709302706712
 11
212.722576638432
 21
105.309302706712
  0
LINE
  8
画層0
  6
CONTINUOUS
 62
7
 10
212.722576638432
 20
105.309302706712
 11
212.722576638432
 21
129.509302706712
  0
LINE
  8
画層0
  6
CONTINUOUS
 62
7
 10
212.122576638432
 20
104.709302706712
 11
209.722576638432
 21
104.709302706712
  0
LINE
  8
画層0
  6
CONTINUOUS
 62
7
 10
208.722576638432
 20
105.159302706712
 11
212.572576638432
 21
105.159302706712
  0
LINE
  8
画層0
  6
CONTINUOUS
 62
7
 10
202.222576638432
 20
102.409302706712
 11
202.222576638432
 21
132.409302706712
  0
LINE
  8
画層0
  6
CONTINUOUS
 62
7
 10
208.722576638432
 20
102.209302706712
 11
208.722576638432
 21
132.609302706712
  0
LINE
  8
画層0
  6
CONTINUOUS
 62
7
 10
145.622576638432
 20
109.709302706712
 11
145.622576638432
 21
125.109302706712
  0
LINE
  8
画層0
  6
CONTINUOUS
 62
7
 10
163.622576638432
 20
125.309302706712
 11
163.622576638432
 21
109.509302706712
  0
LINE
  8
画層0
  6
CONTINUOUS
 62
7
 10
145.922576638432
 20
125.409302706712
 11
145.922576638432
 21
109.409302706712
  0
LINE
  8
画層0
  6
CONTINUOUS
 62
7
 10
208.722576638432
 20
129.659302706712
 11
212.572576638432
 21
129.659302706712
  0
LINE
  8
画層0
  6
CONTINUOUS
 62
7
 10
212.122576638432
 20
130.109302706712
 11
209.722576638432
 21
130.109302706712
  0
LINE
  8
画層0
  6
CONTINUOUS
 62
7
 10
212.122576638432
 20
130.109302706712
 11
212.722576638432
 21
129.509302706712
  0
LINE
  8
画層0
  6
CONTINUOUS
 62
7
 10
208.422576638432
 20
132.909302706712
 11
202.722576638432
 21
132.909302706712
  0
LINE
  8
画層0
  6
CONTINUOUS
 62
7
 10
208.722576638432
 20
132.609302706712
 11
208.422576638432
 21
132.909302706712
  0
LINE
  8
画層0
  6
CONTINUOUS
 62
7
 10
202.722576638432
 20
132.909302706712
 11
202.222576638432
 21
132.409302706712
  0
LINE
  8
画層0
  6
CONTINUOUS
 62
7
 10
179.622576638432
 20
125.309302706712
 11
179.622576638432
 21
109.509302706712
  0
LINE
  8
画層0
  6
CONTINUOUS
 62
7
 10
163.522576638432
 20
125.409302706712
 11
163.622576638432
 21
125.309302706712
  0
LINE
  8
画層0
  6
CONTINUOUS
 62
7
 10
163.622576638432
 20
125.309302706712
 11
163.722576638432
 21
125.409302706712
  0
LINE
  8
画層0
  6
CONTINUOUS
 62
7
 10
179.722576638432
 20
125.409302706712
 11
179.622576638432
 21
125.309302706712
  0
LINE
  8
画層0
  6
CONTINUOUS
 62
7
 10
179.622576638432
 20
125.309302706712
 11
179.522576638432
 21
125.409302706712
  0
LINE
  8
画層0
  6
CONTINUOUS
 62
7
 10
179.722576638432
 20
125.409302706712
 11
202.222576638432
 21
125.409302706712
  0
LINE
  8
画層0
  6
CONTINUOUS
 62
7
 10
163.522576638432
 20
125.409302706712
 11
145.922576638432
 21
125.409302706712
  0
LINE
  8
画層0
  6
CONTINUOUS
 62
7
 10
163.722576638432
 20
125.409302706712
 11
179.522576638432
 21
125.409302706712
  0
LINE
  8
画層0
  6
CONTINUOUS
 62
7
 10
145.622576638432
 20
125.109302706712
 11
145.922576638432
 21
125.409302706712
  0
CIRCLE
  8
画層0
  6
CONTINUOUS
 62
7
 10
205.522576638432
 20
117.409302706712
 40
1.25
  0
CIRCLE
  8
画層0
  6
CONTINUOUS
 62
7
 10
205.522576638432
 20
117.409302706712
 40
1.50000000000011
  0
LINE
  8
画層0
  6
CENTER
 62
7
 10
205.522576638432
 20
120.409302706713
 11
205.522576638432
 21
114.409302706712
  0
LINE
  8
画層1
  6
CONTINUOUS
 62
7
 10
80.8225766384323
 20
86.9738705280479
 11
80.8225766384323
 21
113.640475706712
  0
LINE
  8
画層1
  6
CONTINUOUS
 62
7
 10
145.622576638432
 20
86.9738705280479
 11
145.622576638432
 21
108.709302706712
  0
LINE
  8
画層1
  6
CONTINUOUS
 62
7
 10
83.8225766384323
 20
87.9738705280479
 11
142.622576638432
 21
87.9738705280479
  0
TEXT
  8
画層1
 62
7
  6
BYLAYER
 62
7
 10
103.622576638432
 20
88.5071705280479
 40
3.2
  1
W.D.=64.8%%p2
  7
Font_0
 72
1
 11
113.222576638432
 21
90.1071705280479
 73
2
  0
LINE
  8
画層0
  6
CONTINUOUS
 62
7
 10
83.8225766384323
 20
87.1700235280479
 11
80.8225766384323
 21
87.9738705280479
  0
LINE
  8
画層0
  6
CONTINUOUS
 62
7
 10
80.8225766384323
 20
87.9738705280479
 11
83.8225766384323
 21
88.7777175280479
  0
LINE
  8
画層0
  6
CONTINUOUS
 62
7
 10
80.8225766384323
 20
87.9738705280479
 11
83.8225766384323
 21
87.9738705280479
  0
LINE
  8
画層0
  6
CONTINUOUS
 62
7
 10
142.622576638432
 20
88.7777175280479
 11
145.622576638432
 21
87.9738705280479
  0
LINE
  8
画層0
  6
CONTINUOUS
 62
7
 10
145.622576638432
 20
87.9738705280479
 11
142.622576638432
 21
87.1700235280479
  0
LINE
  8
画層0
  6
CONTINUOUS
 62
7
 10
145.622576638432
 20
87.9738705280479
 11
142.622576638432
 21
87.9738705280479
  0
LINE
  8
画層1
  6
CONTINUOUS
 62
7
 10
208.722576638432
 20
86.9738705280479
 11
208.722576638432
 21
101.209302706712
  0
LINE
  8
画層1
  6
CONTINUOUS
 62
7
 10
148.622576638432
 20
87.9738705280479
 11
205.722576638432
 21
87.9738705280479
  0
TEXT
  8
画層1
 62
7
  6
BYLAYER
 62
7
 10
173.972576638432
 20
88.5071705280479
 40
3.2
  1
63.1
  7
Font_0
 72
1
 11
177.172576638432
 21
90.1071705280479
 73
2
  0
LINE
  8
画層0
  6
CONTINUOUS
 62
7
 10
148.622576638432
 20
87.1700235280479
 11
145.622576638432
 21
87.9738705280479
  0
LINE
  8
画層0
  6
CONTINUOUS
 62
7
 10
145.622576638432
 20
87.9738705280479
 11
148.622576638432
 21
88.7777175280479
  0
LINE
  8
画層0
  6
CONTINUOUS
 62
7
 10
145.622576638432
 20
87.9738705280479
 11
148.622576638432
 21
87.9738705280479
  0
LINE
  8
画層0
  6
CONTINUOUS
 62
7
 10
205.722576638432
 20
88.7777175280479
 11
208.722576638432
 21
87.9738705280479
  0
LINE
  8
画層0
  6
CONTINUOUS
 62
7
 10
208.722576638432
 20
87.9738705280479
 11
205.722576638432
 21
87.1700235280479
  0
LINE
  8
画層0
  6
CONTINUOUS
 62
7
 10
208.722576638432
 20
87.9738705280479
 11
205.722576638432
 21
87.9738705280479
  0
LINE
  8
画層1
  6
CONTINUOUS
 62
7
 10
212.722576638432
 20
86.9738705280479
 11
212.722576638432
 21
104.309302706712
  0
LINE
  8
画層1
  6
CONTINUOUS
 62
7
 10
208.722576638432
 20
87.9738705280479
 11
212.722576638432
 21
87.9738705280479
  0
LINE
  8
画層1
  6
CONTINUOUS
 62
7
 10
206.722576638432
 20
87.9738705280479
 11
204.722576638432
 21
87.9738705280479
  0
LINE
  8
画層1
  6
CONTINUOUS
 62
7
 10
215.722576638432
 20
87.9738705280479
 11
219.389209971766
 21
87.9738705280479
  0
TEXT
  8
画層1
 62
7
  6
BYLAYER
 62
7
 10
217.522543305099
 20
88.5071705280479
 40
3.2
  1
4
  7
Font_0
 72
1
 11
218.322543305099
 21
90.1071705280479
 73
2
  0
LINE
  8
画層0
  6
CONTINUOUS
 62
7
 10
208.722576638432
 20
87.9738705280479
 11
206.722576638432
 21
87.9738705280479
  0
LINE
  8
画層0
  6
CONTINUOUS
 62
7
 10
215.722576638432
 20
87.1700235280479
 11
212.722576638432
 21
87.9738705280479
  0
LINE
  8
画層0
  6
CONTINUOUS
 62
7
 10
212.722576638432
 20
87.9738705280479
 11
215.722576638432
 21
88.7777175280479
  0
LINE
  8
画層0
  6
CONTINUOUS
 62
7
 10
212.722576638432
 20
87.9738705280479
 11
215.722576638432
 21
87.9738705280479
  0
LINE
  8
画層1
  6
CONTINUOUS
 62
7
 10
136.824067041933
 20
125.409302706712
 11
144.922576638432
 21
125.409302706712
  0
LINE
  8
画層1
  6
CONTINUOUS
 62
7
 10
136.824067041933
 20
109.409302706712
 11
144.922576638432
 21
109.409302706712
  0
LINE
  8
画層1
  6
CONTINUOUS
 62
7
 10
137.824067041933
 20
122.409302706712
 11
137.824067041933
 21
112.409302706712
  0
TEXT
  8
画層1
 62
7
  6
BYLAYER
 62
7
 10
137.290767041933
 20
114.209302706712
 40
3.2
  1
%%c16
  7
Font_0
 50
90
 72
1
 11
135.690767041933
 21
117.409302706712
 73
2
  0
LINE
  8
画層0
  6
CONTINUOUS
 62
7
 10
137.020220041933
 20
122.409302706712
 11
137.824067041933
 21
125.409302706712
  0
LINE
  8
画層0
  6
CONTINUOUS
 62
7
 10
137.824067041933
 20
125.409302706712
 11
138.627914041933
 21
122.409302706712
  0
LINE
  8
画層0
  6
CONTINUOUS
 62
7
 10
137.824067041933
 20
125.409302706712
 11
137.824067041933
 21
122.409302706712
  0
LINE
  8
画層0
  6
CONTINUOUS
 62
7
 10
138.627914041933
 20
112.409302706712
 11
137.824067041933
 21
109.409302706712
  0
LINE
  8
画層0
  6
CONTINUOUS
 62
7
 10
137.824067041933
 20
109.409302706712
 11
137.020220041933
 21
112.409302706712
  0
LINE
  8
画層0
  6
CONTINUOUS
 62
7
 10
137.824067041933
 20
109.409302706712
 11
137.824067041933
 21
112.409302706712
  0
LINE
  8
画層1
  6
CONTINUOUS
 62
7
 10
233.039205979652
 20
101.909302706712
 11
209.422576638432
 21
101.909302706712
  0
LINE
  8
画層1
  6
CONTINUOUS
 62
7
 10
233.039205979652
 20
132.909302706712
 11
209.422576638432
 21
132.909302706712
  0
LINE
  8
画層1
  6
CONTINUOUS
 62
7
 10
232.039205979652
 20
104.909302706712
 11
232.039205979652
 21
129.909302706712
  0
TEXT
  8
画層1
 62
7
  6
BYLAYER
 62
7
 10
231.505905979652
 20
114.209302706712
 40
3.2
  1
%%c31
  7
Font_0
 50
90
 72
1
 11
229.905905979652
 21
117.409302706712
 73
2
  0
LINE
  8
画層0
  6
CONTINUOUS
 62
7
 10
232.843052979652
 20
104.909302706712
 11
232.039205979652
 21
101.909302706712
  0
LINE
  8
画層0
  6
CONTINUOUS
 62
7
 10
232.039205979652
 20
101.909302706712
 11
231.235358979652
 21
104.909302706712
  0
LINE
  8
画層0
  6
CONTINUOUS
 62
7
 10
232.039205979652
 20
101.909302706712
 11
232.039205979652
 21
104.909302706712
  0
LINE
  8
画層0
  6
CONTINUOUS
 62
7
 10
231.235358979652
 20
129.909302706712
 11
232.039205979652
 21
132.909302706712
  0
LINE
  8
画層0
  6
CONTINUOUS
 62
7
 10
232.039205979652
 20
132.909302706712
 11
232.843052979652
 21
129.909302706712
  0
LINE
  8
画層0
  6
CONTINUOUS
 62
7
 10
232.039205979652
 20
132.909302706712
 11
232.039205979652
 21
129.909302706712
  0
LINE
  8
画層1
  6
CONTINUOUS
 62
7
 10
227.054372865914
 20
104.709302706712
 11
213.122576638432
 21
104.709302706712
  0
LINE
  8
画層1
  6
CONTINUOUS
 62
7
 10
227.054372865914
 20
130.109302706712
 11
213.122576638432
 21
130.109302706712
  0
LINE
  8
画層1
  6
CONTINUOUS
 62
7
 10
226.054372865914
 20
107.709302706712
 11
226.054372865914
 21
127.109302706712
  0
TEXT
  8
画層1
 62
7
  6
BYLAYER
 62
7
 10
225.521072865914
 20
109.409302706712
 40
3.2
  1
Ｃマウント
  7
Font_0
 50
90
 72
1
 11
223.921072865914
 21
117.409302706712
 73
2
  0
LINE
  8
画層0
  6
CONTINUOUS
 62
7
 10
226.858219865914
 20
107.709302706712
 11
226.054372865914
 21
104.709302706712
  0
LINE
  8
画層0
  6
CONTINUOUS
 62
7
 10
226.054372865914
 20
104.709302706712
 11
225.250525865914
 21
107.709302706712
  0
LINE
  8
画層0
  6
CONTINUOUS
 62
7
 10
226.054372865914
 20
104.709302706712
 11
226.054372865914
 21
107.709302706712
  0
LINE
  8
画層0
  6
CONTINUOUS
 62
7
 10
225.250525865914
 20
127.109302706712
 11
226.054372865914
 21
130.109302706712
  0
LINE
  8
画層0
  6
CONTINUOUS
 62
7
 10
226.054372865914
 20
130.109302706712
 11
226.858219865914
 21
127.109302706712
  0
LINE
  8
画層0
  6
CONTINUOUS
 62
7
 10
226.054372865914
 20
130.109302706712
 11
226.054372865914
 21
127.109302706712
  0
LINE
  8
画層0
  6
CONTINUOUS
 62
7
 10
58.6225766384322
 20
196.409302706713
 11
58.6225766384322
 21
132.409302706713
  0
TEXT
  8
画層0
 62
7
  6
BYLAYER
 62
7
 10
18.6225766384322
 20
191.609302706713
 40
3.2
  1
倍率
  7
Font_0
 11
18.6225766384322
 21
193.209302706713
 73
2
  0
TEXT
  8
画層0
 62
7
  6
BYLAYER
 62
7
 10
18.6225766384322
 20
185.209302706713
 40
3.2
  1
Ｏ／Ｉ
  7
Font_0
 11
18.6225766384322
 21
186.809302706713
 73
2
  0
TEXT
  8
画層0
 62
7
  6
BYLAYER
 62
7
 10
18.6225766384322
 20
178.809302706713
 40
3.2
  1
Ｗ．Ｄ．
  7
Font_0
 11
18.6225766384322
 21
180.409302706713
 73
2
  0
TEXT
  8
画層0
 62
7
  6
BYLAYER
 62
7
 10
18.6225766384322
 20
172.409302706713
 40
3.2
  1
被写界深度
  7
Font_0
 11
18.6225766384322
 21
174.009302706713
 73
2
  0
TEXT
  8
画層0
 62
7
  6
BYLAYER
 62
7
 10
18.6225766384322
 20
166.009302706713
 40
3.2
  1
分解能
  7
Font_0
 11
18.6225766384322
 21
167.609302706713
 73
2
  0
TEXT
  8
画層0
 62
7
  6
BYLAYER
 62
7
 10
18.6225766384322
 20
159.609302706713
 40
3.2
  1
有効Ｆナンバー
  7
Font_0
 11
18.6225766384322
 21
161.209302706713
 73
2
  0
TEXT
  8
画層0
 62
7
  6
BYLAYER
 62
7
 10
18.6225766384322
 20
153.209302706713
 40
3.2
  1
Ｎ．Ａ．
  7
Font_0
 11
18.6225766384322
 21
154.809302706713
 73
2
  0
TEXT
  8
画層0
 62
7
  6
BYLAYER
 62
7
 10
18.6225766384322
 20
146.809302706713
 40
3.2
  1
ＴＶディストーション
  7
Font_0
 11
18.6225766384322
 21
148.409302706713
 73
2
  0
TEXT
  8
画層0
 62
7
  6
BYLAYER
 62
7
 10
18.6225766384322
 20
140.409302706713
 40
3.2
  1
重量
  7
Font_0
 11
18.6225766384322
 21
142.009302706713
 73
2
  0
TEXT
  8
画層0
 62
7
  6
BYLAYER
 62
7
 10
18.6225766384322
 20
134.009302706713
 40
3.2
  1
対応素子サイズ
  7
Font_0
 11
18.6225766384322
 21
135.609302706713
 73
2
  0
LINE
  8
画層0
  6
CONTINUOUS
 62
7
 10
88.6225766384322
 20
132.409302706713
 11
88.6225766384322
 21
196.409302706713
  0
LINE
  8
画層0
  6
CONTINUOUS
 62
7
 10
88.6225766384322
 20
196.409302706713
 11
16.6225766384322
 21
196.409302706713
  0
LINE
  8
画層0
  6
CONTINUOUS
 62
7
 10
16.6225766384322
 20
196.409302706713
 11
16.6225766384322
 21
132.409302706713
  0
LINE
  8
画層0
  6
CONTINUOUS
 62
7
 10
16.6225766384322
 20
190.009302706713
 11
88.6225766384322
 21
190.009302706713
  0
LINE
  8
画層0
  6
CONTINUOUS
 62
7
 10
88.6225766384322
 20
183.609302706713
 11
16.6225766384322
 21
183.609302706713
  0
LINE
  8
画層0
  6
CONTINUOUS
 62
7
 10
16.6225766384322
 20
177.209302706713
 11
88.6225766384322
 21
177.209302706713
  0
LINE
  8
画層0
  6
CONTINUOUS
 62
7
 10
88.6225766384322
 20
170.809302706713
 11
16.6225766384322
 21
170.809302706713
  0
LINE
  8
画層0
  6
CONTINUOUS
 62
7
 10
16.6225766384322
 20
164.409302706713
 11
88.6225766384322
 21
164.409302706713
  0
LINE
  8
画層0
  6
CONTINUOUS
 62
7
 10
88.6225766384322
 20
158.009302706713
 11
16.6225766384322
 21
158.009302706713
  0
LINE
  8
画層0
  6
CONTINUOUS
 62
7
 10
16.6225766384322
 20
151.609302706713
 11
88.6225766384322
 21
151.609302706713
  0
LINE
  8
画層0
  6
CONTINUOUS
 62
7
 10
88.6225766384322
 20
145.209302706713
 11
16.6225766384322
 21
145.209302706713
  0
LINE
  8
画層0
  6
CONTINUOUS
 62
7
 10
88.6225766384322
 20
138.809302706713
 11
16.6225766384322
 21
138.809302706713
  0
LINE
  8
画層0
  6
CONTINUOUS
 62
7
 10
88.6225766384322
 20
132.409302706713
 11
16.6225766384322
 21
132.409302706713
  0
TEXT
  8
画層0
 62
7
  6
CONTINUOUS
 62
7
 10
68.8225766384322
 20
191.609302706713
 40
3.2
  1
２．０
  7
Font_0
 72
1
 11
73.6225766384322
 21
193.209302706713
 73
2
  0
TEXT
  8
画層0
 62
7
  6
CONTINUOUS
 62
7
 10
62.4225766384322
 20
185.209302706713
 40
3.2
  1
１４５．４ｍｍ
  7
Font_0
 72
1
 11
73.6225766384322
 21
186.809302706713
 73
2
  0
TEXT
  8
画層0
 62
7
  6
CONTINUOUS
 62
7
 10
64.0225766384322
 20
178.809302706713
 40
3.2
  1
６４．８ｍｍ
  7
Font_0
 72
1
 11
73.6225766384322
 21
180.409302706713
 73
2
  0
TEXT
  8
画層0
 62
7
  6
CONTINUOUS
 62
7
 10
67.2225766384322
 20
172.409302706713
 40
3.2
  1
３００μ
  7
Font_0
 72
1
 11
73.6225766384322
 21
174.009302706713
 73
2
  0
TEXT
  8
画層0
 62
7
  6
CONTINUOUS
 62
7
 10
67.2225766384322
 20
166.009302706713
 40
3.2
  1
５．１μ
  7
Font_0
 72
1
 11
73.6225766384322
 21
167.609302706713
 73
2
  0
TEXT
  8
画層0
 62
7
  6
CONTINUOUS
 62
7
 10
67.2225766384322
 20
159.609302706713
 40
3.2
  1
１５．０
  7
Font_0
 72
1
 11
73.6225766384322
 21
161.209302706713
 73
2
  0
TEXT
  8
画層0
 62
7
  6
CONTINUOUS
 62
7
 10
65.6225766384322
 20
153.209302706713
 40
3.2
  1
０．０６６
  7
Font_0
 72
1
 11
73.6225766384322
 21
154.809302706713
 73
2
  0
TEXT
  8
画層0
 62
7
  6
CONTINUOUS
 62
7
 10
70.4225766384322
 20
140.409302706713
 40
3.2
  1
３７
  7
Font_0
 72
1
 11
73.6225766384322
 21
142.009302706713
 73
2
  0
TEXT
  8
画層0
 62
7
  6
CONTINUOUS
 62
7
 10
67.2225766384322
 20
134.009302706713
 40
3.2
  1
２／３″
  7
Font_0
 72
1
 11
73.6225766384322
 21
135.609302706713
 73
2
  0
TEXT
  8
画層0
 62
7
  6
CONTINUOUS
 62
7
 10
64.0225766384322
 20
146.809302706713
 40
3.2
  1
－０．０３％
  7
Font_0
 72
1
 11
73.6225766384322
 21
148.409302706713
 73
2
  0
ENDSEC
  0
EOF
