999
Outputted By AR_CAD Ver.1.5.2a
  0
SECTION
  2
HEADER
  9
$ACADVER
  1
AC1009
  9
$DWGCODEPAGE
  3
DOS932
  9
$EXTMIN
 10
0
 20
0
  9
$EXTMAX
 10
297
 20
210
  9
$INSBASE
 10
0.0
 20
0.0
 30
0.0
  9
$HANDLING
 70
     1
  9
$LTSCALE
 40
1
  0
ENDSEC
  0
SECTION
  2
TABLES
  0
TABLE
  2
LTYPE
 70
     8
  0
LTYPE
  2
BYBLOCK
 70
    64
 3

 72
    65
 73
    0
 40
    0
  0
LTYPE
  2
BYLAYER
 70
    64
 3

 72
    65
 73
    0
 40
    0
  0
LTYPE
  2
CONTINUOUS
 70
    64
 3
CONTINUOUS
 72
    65
 73
    0
 40
    0
  0
LTYPE
  2
DASHED
 70
    64
 3

 72
    65
 73
    2
 40
    3.5
 49
    2.91666666666667
 49
    -0.583333333333333
  0
LTYPE
  2
DOT
 70
    64
 3

 72
    65
 73
    2
 40
    0.5
 49
    0.25
 49
    -0.25
  0
LTYPE
  2
DASHDOT
 70
    64
 3

 72
    65
 73
    4
 40
    3.5
 49
    1.84210526315789
 49
    -0.552631578947368
 49
    0.552631578947368
 49
    -0.552631578947368
  0
LTYPE
  2
DIVIDE
 70
    64
 3

 72
    65
 73
    6
 40
    3.5
 49
    1.4
 49
    -0.42
 49
    0.42
 49
    -0.42
 49
    0.42
 49
    -0.42
  0
LTYPE
  2
HIDDEN
 70
    64
 3

 72
    65
 73
    2
 40
    4
 49
    2
 49
    -2
  0
LTYPE
  2
CENTER
 70
    64
 3

 72
    65
 73
    4
 40
    50.8
 49
    31.75
 49
    -6.35
 49
    6.35
 49
    -6.35
  0
ENDTAB
  0
TABLE
  2
LAYER
 70
   257
  0
LAYER
  2
画層0
 70
    0
 62
7
  6
CONTINUOUS
  0
LAYER
  2
画層1
 70
    0
 62
3
  6
CONTINUOUS
  0
LAYER
  2
画層2
 70
    0
 62
9
  6
CONTINUOUS
  0
LAYER
  2
画層3
 70
    0
 62
7
  6
CONTINUOUS
  0
LAYER
  2
画層4
 70
    0
 62
6
  6
CONTINUOUS
  0
LAYER
  2
画層5
 70
    0
 62
1
  6
CONTINUOUS
  0
LAYER
  2
画層6
 70
    0
 62
7
  6
CONTINUOUS
  0
LAYER
  2
画層7
 70
    0
 62
51
  6
CONTINUOUS
  0
LAYER
  2
画層8
 70
    0
 62
61
  6
CONTINUOUS
  0
LAYER
  2
画層9
 70
    0
 62
111
  6
CONTINUOUS
  0
LAYER
  2
画層10
 70
    0
 62
91
  6
CONTINUOUS
  0
LAYER
  2
画層11
 70
    0
 62
131
  6
CONTINUOUS
  0
LAYER
  2
画層12
 70
    0
 62
161
  6
CONTINUOUS
  0
LAYER
  2
画層13
 70
    0
 62
5
  6
CONTINUOUS
  0
LAYER
  2
画層14
 70
    0
 62
7
  6
CONTINUOUS
  0
LAYER
  2
画層15
 70
    0
 62
11
  6
CONTINUOUS
  0
LAYER
  2
画層16
 70
    0
 62
7
  6
CONTINUOUS
  0
LAYER
  2
画層17
 70
    0
 62
70
  6
CONTINUOUS
  0
LAYER
  2
画層18
 70
    0
 62
211
  6
CONTINUOUS
  0
LAYER
  2
画層19
 70
    0
 62
137
  6
CONTINUOUS
  0
LAYER
  2
画層20
 70
    0
 62
4
  6
CONTINUOUS
  0
LAYER
  2
画層21
 70
    0
 62
131
  6
CONTINUOUS
  0
LAYER
  2
画層22
 70
    0
 62
4
  6
CONTINUOUS
  0
LAYER
  2
画層23
 70
    0
 62
4
  6
CONTINUOUS
  0
LAYER
  2
画層24
 70
    0
 62
7
  6
CONTINUOUS
  0
LAYER
  2
画層25
 70
    0
 62
7
  6
CONTINUOUS
  0
LAYER
  2
画層26
 70
    0
 62
7
  6
CONTINUOUS
  0
LAYER
  2
画層27
 70
    0
 62
7
  6
CONTINUOUS
  0
LAYER
  2
画層28
 70
    0
 62
7
  6
CONTINUOUS
  0
LAYER
  2
画層29
 70
    0
 62
7
  6
CONTINUOUS
  0
LAYER
  2
画層30
 70
    0
 62
7
  6
CONTINUOUS
  0
LAYER
  2
画層31
 70
    0
 62
7
  6
CONTINUOUS
  0
LAYER
  2
画層32
 70
    0
 62
7
  6
CONTINUOUS
  0
LAYER
  2
画層33
 70
    0
 62
7
  6
CONTINUOUS
  0
LAYER
  2
画層34
 70
    0
 62
7
  6
CONTINUOUS
  0
LAYER
  2
画層35
 70
    0
 62
7
  6
CONTINUOUS
  0
LAYER
  2
画層36
 70
    0
 62
7
  6
CONTINUOUS
  0
LAYER
  2
画層37
 70
    0
 62
7
  6
CONTINUOUS
  0
LAYER
  2
画層38
 70
    0
 62
7
  6
CONTINUOUS
  0
LAYER
  2
画層39
 70
    0
 62
7
  6
CONTINUOUS
  0
LAYER
  2
画層40
 70
    0
 62
7
  6
CONTINUOUS
  0
LAYER
  2
画層41
 70
    0
 62
7
  6
CONTINUOUS
  0
LAYER
  2
画層42
 70
    0
 62
7
  6
CONTINUOUS
  0
LAYER
  2
画層43
 70
    0
 62
7
  6
CONTINUOUS
  0
LAYER
  2
画層44
 70
    0
 62
7
  6
CONTINUOUS
  0
LAYER
  2
画層45
 70
    0
 62
7
  6
CONTINUOUS
  0
LAYER
  2
画層46
 70
    0
 62
7
  6
CONTINUOUS
  0
LAYER
  2
画層47
 70
    0
 62
7
  6
CONTINUOUS
  0
LAYER
  2
画層48
 70
    0
 62
7
  6
CONTINUOUS
  0
LAYER
  2
画層49
 70
    0
 62
7
  6
CONTINUOUS
  0
LAYER
  2
画層50
 70
    0
 62
7
  6
CONTINUOUS
  0
LAYER
  2
画層51
 70
    0
 62
7
  6
CONTINUOUS
  0
LAYER
  2
画層52
 70
    0
 62
7
  6
CONTINUOUS
  0
LAYER
  2
画層53
 70
    0
 62
7
  6
CONTINUOUS
  0
LAYER
  2
画層54
 70
    0
 62
7
  6
CONTINUOUS
  0
LAYER
  2
画層55
 70
    0
 62
7
  6
CONTINUOUS
  0
LAYER
  2
画層56
 70
    0
 62
7
  6
CONTINUOUS
  0
LAYER
  2
画層57
 70
    0
 62
7
  6
CONTINUOUS
  0
LAYER
  2
画層58
 70
    0
 62
7
  6
CONTINUOUS
  0
LAYER
  2
画層59
 70
    0
 62
7
  6
CONTINUOUS
  0
LAYER
  2
画層60
 70
    0
 62
7
  6
CONTINUOUS
  0
LAYER
  2
画層61
 70
    0
 62
7
  6
CONTINUOUS
  0
LAYER
  2
画層62
 70
    0
 62
7
  6
CONTINUOUS
  0
LAYER
  2
画層63
 70
    0
 62
7
  6
CONTINUOUS
  0
LAYER
  2
画層64
 70
    0
 62
7
  6
CONTINUOUS
  0
LAYER
  2
画層65
 70
    0
 62
7
  6
CONTINUOUS
  0
LAYER
  2
画層66
 70
    0
 62
7
  6
CONTINUOUS
  0
LAYER
  2
画層67
 70
    0
 62
7
  6
CONTINUOUS
  0
LAYER
  2
画層68
 70
    0
 62
7
  6
CONTINUOUS
  0
LAYER
  2
画層69
 70
    0
 62
7
  6
CONTINUOUS
  0
LAYER
  2
画層70
 70
    0
 62
7
  6
CONTINUOUS
  0
LAYER
  2
画層71
 70
    0
 62
7
  6
CONTINUOUS
  0
LAYER
  2
画層72
 70
    0
 62
7
  6
CONTINUOUS
  0
LAYER
  2
画層73
 70
    0
 62
7
  6
CONTINUOUS
  0
LAYER
  2
画層74
 70
    0
 62
7
  6
CONTINUOUS
  0
LAYER
  2
画層75
 70
    0
 62
7
  6
CONTINUOUS
  0
LAYER
  2
画層76
 70
    0
 62
7
  6
CONTINUOUS
  0
LAYER
  2
画層77
 70
    0
 62
7
  6
CONTINUOUS
  0
LAYER
  2
画層78
 70
    0
 62
7
  6
CONTINUOUS
  0
LAYER
  2
画層79
 70
    0
 62
7
  6
CONTINUOUS
  0
LAYER
  2
画層80
 70
    0
 62
7
  6
CONTINUOUS
  0
LAYER
  2
画層81
 70
    0
 62
7
  6
CONTINUOUS
  0
LAYER
  2
画層82
 70
    0
 62
7
  6
CONTINUOUS
  0
LAYER
  2
画層83
 70
    0
 62
7
  6
CONTINUOUS
  0
LAYER
  2
画層84
 70
    0
 62
7
  6
CONTINUOUS
  0
LAYER
  2
画層85
 70
    0
 62
7
  6
CONTINUOUS
  0
LAYER
  2
画層86
 70
    0
 62
7
  6
CONTINUOUS
  0
LAYER
  2
画層87
 70
    0
 62
7
  6
CONTINUOUS
  0
LAYER
  2
画層88
 70
    0
 62
7
  6
CONTINUOUS
  0
LAYER
  2
画層89
 70
    0
 62
7
  6
CONTINUOUS
  0
LAYER
  2
画層90
 70
    0
 62
7
  6
CONTINUOUS
  0
LAYER
  2
画層91
 70
    0
 62
7
  6
CONTINUOUS
  0
LAYER
  2
画層92
 70
    0
 62
7
  6
CONTINUOUS
  0
LAYER
  2
画層93
 70
    0
 62
7
  6
CONTINUOUS
  0
LAYER
  2
画層94
 70
    0
 62
7
  6
CONTINUOUS
  0
LAYER
  2
画層95
 70
    0
 62
7
  6
CONTINUOUS
  0
LAYER
  2
画層96
 70
    0
 62
7
  6
CONTINUOUS
  0
LAYER
  2
画層97
 70
    0
 62
7
  6
CONTINUOUS
  0
LAYER
  2
画層98
 70
    0
 62
7
  6
CONTINUOUS
  0
LAYER
  2
画層99
 70
    0
 62
7
  6
CONTINUOUS
  0
LAYER
  2
画層100
 70
    0
 62
7
  6
CONTINUOUS
  0
LAYER
  2
画層101
 70
    0
 62
7
  6
CONTINUOUS
  0
LAYER
  2
画層102
 70
    0
 62
7
  6
CONTINUOUS
  0
LAYER
  2
画層103
 70
    0
 62
7
  6
CONTINUOUS
  0
LAYER
  2
画層104
 70
    0
 62
7
  6
CONTINUOUS
  0
LAYER
  2
画層105
 70
    0
 62
7
  6
CONTINUOUS
  0
LAYER
  2
画層106
 70
    0
 62
7
  6
CONTINUOUS
  0
LAYER
  2
画層107
 70
    0
 62
7
  6
CONTINUOUS
  0
LAYER
  2
画層108
 70
    0
 62
7
  6
CONTINUOUS
  0
LAYER
  2
画層109
 70
    0
 62
7
  6
CONTINUOUS
  0
LAYER
  2
画層110
 70
    0
 62
7
  6
CONTINUOUS
  0
LAYER
  2
画層111
 70
    0
 62
7
  6
CONTINUOUS
  0
LAYER
  2
画層112
 70
    0
 62
7
  6
CONTINUOUS
  0
LAYER
  2
画層113
 70
    0
 62
7
  6
CONTINUOUS
  0
LAYER
  2
画層114
 70
    0
 62
7
  6
CONTINUOUS
  0
LAYER
  2
画層115
 70
    0
 62
7
  6
CONTINUOUS
  0
LAYER
  2
画層116
 70
    0
 62
7
  6
CONTINUOUS
  0
LAYER
  2
画層117
 70
    0
 62
7
  6
CONTINUOUS
  0
LAYER
  2
画層118
 70
    0
 62
7
  6
CONTINUOUS
  0
LAYER
  2
画層119
 70
    0
 62
7
  6
CONTINUOUS
  0
LAYER
  2
画層120
 70
    0
 62
7
  6
CONTINUOUS
  0
LAYER
  2
画層121
 70
    0
 62
7
  6
CONTINUOUS
  0
LAYER
  2
画層122
 70
    0
 62
7
  6
CONTINUOUS
  0
LAYER
  2
画層123
 70
    0
 62
7
  6
CONTINUOUS
  0
LAYER
  2
画層124
 70
    0
 62
7
  6
CONTINUOUS
  0
LAYER
  2
画層125
 70
    0
 62
7
  6
CONTINUOUS
  0
LAYER
  2
画層126
 70
    0
 62
7
  6
CONTINUOUS
  0
LAYER
  2
画層127
 70
    0
 62
7
  6
CONTINUOUS
  0
LAYER
  2
画層128
 70
    0
 62
7
  6
CONTINUOUS
  0
LAYER
  2
画層129
 70
    0
 62
7
  6
CONTINUOUS
  0
LAYER
  2
画層130
 70
    0
 62
7
  6
CONTINUOUS
  0
LAYER
  2
画層131
 70
    0
 62
7
  6
CONTINUOUS
  0
LAYER
  2
画層132
 70
    0
 62
7
  6
CONTINUOUS
  0
LAYER
  2
画層133
 70
    0
 62
7
  6
CONTINUOUS
  0
LAYER
  2
画層134
 70
    0
 62
7
  6
CONTINUOUS
  0
LAYER
  2
画層135
 70
    0
 62
7
  6
CONTINUOUS
  0
LAYER
  2
画層136
 70
    0
 62
7
  6
CONTINUOUS
  0
LAYER
  2
画層137
 70
    0
 62
7
  6
CONTINUOUS
  0
LAYER
  2
画層138
 70
    0
 62
7
  6
CONTINUOUS
  0
LAYER
  2
画層139
 70
    0
 62
7
  6
CONTINUOUS
  0
LAYER
  2
画層140
 70
    0
 62
7
  6
CONTINUOUS
  0
LAYER
  2
画層141
 70
    0
 62
7
  6
CONTINUOUS
  0
LAYER
  2
画層142
 70
    0
 62
7
  6
CONTINUOUS
  0
LAYER
  2
画層143
 70
    0
 62
7
  6
CONTINUOUS
  0
LAYER
  2
画層144
 70
    0
 62
7
  6
CONTINUOUS
  0
LAYER
  2
画層145
 70
    0
 62
7
  6
CONTINUOUS
  0
LAYER
  2
画層146
 70
    0
 62
7
  6
CONTINUOUS
  0
LAYER
  2
画層147
 70
    0
 62
7
  6
CONTINUOUS
  0
LAYER
  2
画層148
 70
    0
 62
7
  6
CONTINUOUS
  0
LAYER
  2
画層149
 70
    0
 62
7
  6
CONTINUOUS
  0
LAYER
  2
画層150
 70
    0
 62
7
  6
CONTINUOUS
  0
LAYER
  2
画層151
 70
    0
 62
7
  6
CONTINUOUS
  0
LAYER
  2
画層152
 70
    0
 62
7
  6
CONTINUOUS
  0
LAYER
  2
画層153
 70
    0
 62
7
  6
CONTINUOUS
  0
LAYER
  2
画層154
 70
    0
 62
7
  6
CONTINUOUS
  0
LAYER
  2
画層155
 70
    0
 62
7
  6
CONTINUOUS
  0
LAYER
  2
画層156
 70
    0
 62
7
  6
CONTINUOUS
  0
LAYER
  2
画層157
 70
    0
 62
7
  6
CONTINUOUS
  0
LAYER
  2
画層158
 70
    0
 62
7
  6
CONTINUOUS
  0
LAYER
  2
画層159
 70
    0
 62
7
  6
CONTINUOUS
  0
LAYER
  2
画層160
 70
    0
 62
7
  6
CONTINUOUS
  0
LAYER
  2
画層161
 70
    0
 62
7
  6
CONTINUOUS
  0
LAYER
  2
画層162
 70
    0
 62
7
  6
CONTINUOUS
  0
LAYER
  2
画層163
 70
    0
 62
7
  6
CONTINUOUS
  0
LAYER
  2
画層164
 70
    0
 62
7
  6
CONTINUOUS
  0
LAYER
  2
画層165
 70
    0
 62
7
  6
CONTINUOUS
  0
LAYER
  2
画層166
 70
    0
 62
7
  6
CONTINUOUS
  0
LAYER
  2
画層167
 70
    0
 62
7
  6
CONTINUOUS
  0
LAYER
  2
画層168
 70
    0
 62
7
  6
CONTINUOUS
  0
LAYER
  2
画層169
 70
    0
 62
7
  6
CONTINUOUS
  0
LAYER
  2
画層170
 70
    0
 62
7
  6
CONTINUOUS
  0
LAYER
  2
画層171
 70
    0
 62
7
  6
CONTINUOUS
  0
LAYER
  2
画層172
 70
    0
 62
7
  6
CONTINUOUS
  0
LAYER
  2
画層173
 70
    0
 62
7
  6
CONTINUOUS
  0
LAYER
  2
画層174
 70
    0
 62
7
  6
CONTINUOUS
  0
LAYER
  2
画層175
 70
    0
 62
7
  6
CONTINUOUS
  0
LAYER
  2
画層176
 70
    0
 62
7
  6
CONTINUOUS
  0
LAYER
  2
画層177
 70
    0
 62
7
  6
CONTINUOUS
  0
LAYER
  2
画層178
 70
    0
 62
7
  6
CONTINUOUS
  0
LAYER
  2
画層179
 70
    0
 62
7
  6
CONTINUOUS
  0
LAYER
  2
画層180
 70
    0
 62
7
  6
CONTINUOUS
  0
LAYER
  2
画層181
 70
    0
 62
7
  6
CONTINUOUS
  0
LAYER
  2
画層182
 70
    0
 62
7
  6
CONTINUOUS
  0
LAYER
  2
画層183
 70
    0
 62
7
  6
CONTINUOUS
  0
LAYER
  2
画層184
 70
    0
 62
7
  6
CONTINUOUS
  0
LAYER
  2
画層185
 70
    0
 62
7
  6
CONTINUOUS
  0
LAYER
  2
画層186
 70
    0
 62
7
  6
CONTINUOUS
  0
LAYER
  2
画層187
 70
    0
 62
7
  6
CONTINUOUS
  0
LAYER
  2
画層188
 70
    0
 62
7
  6
CONTINUOUS
  0
LAYER
  2
画層189
 70
    0
 62
7
  6
CONTINUOUS
  0
LAYER
  2
画層190
 70
    0
 62
7
  6
CONTINUOUS
  0
LAYER
  2
画層191
 70
    0
 62
7
  6
CONTINUOUS
  0
LAYER
  2
画層192
 70
    0
 62
7
  6
CONTINUOUS
  0
LAYER
  2
画層193
 70
    0
 62
7
  6
CONTINUOUS
  0
LAYER
  2
画層194
 70
    0
 62
7
  6
CONTINUOUS
  0
LAYER
  2
画層195
 70
    0
 62
7
  6
CONTINUOUS
  0
LAYER
  2
画層196
 70
    0
 62
7
  6
CONTINUOUS
  0
LAYER
  2
画層197
 70
    0
 62
7
  6
CONTINUOUS
  0
LAYER
  2
画層198
 70
    0
 62
7
  6
CONTINUOUS
  0
LAYER
  2
画層199
 70
    0
 62
7
  6
CONTINUOUS
  0
LAYER
  2
画層200
 70
    0
 62
7
  6
CONTINUOUS
  0
LAYER
  2
画層201
 70
    0
 62
7
  6
CONTINUOUS
  0
LAYER
  2
画層202
 70
    0
 62
7
  6
CONTINUOUS
  0
LAYER
  2
画層203
 70
    0
 62
7
  6
CONTINUOUS
  0
LAYER
  2
画層204
 70
    0
 62
7
  6
CONTINUOUS
  0
LAYER
  2
画層205
 70
    0
 62
7
  6
CONTINUOUS
  0
LAYER
  2
画層206
 70
    0
 62
7
  6
CONTINUOUS
  0
LAYER
  2
画層207
 70
    0
 62
7
  6
CONTINUOUS
  0
LAYER
  2
画層208
 70
    0
 62
7
  6
CONTINUOUS
  0
LAYER
  2
画層209
 70
    0
 62
7
  6
CONTINUOUS
  0
LAYER
  2
画層210
 70
    0
 62
7
  6
CONTINUOUS
  0
LAYER
  2
画層211
 70
    0
 62
7
  6
CONTINUOUS
  0
LAYER
  2
画層212
 70
    0
 62
7
  6
CONTINUOUS
  0
LAYER
  2
画層213
 70
    0
 62
7
  6
CONTINUOUS
  0
LAYER
  2
画層214
 70
    0
 62
7
  6
CONTINUOUS
  0
LAYER
  2
画層215
 70
    0
 62
7
  6
CONTINUOUS
  0
LAYER
  2
画層216
 70
    0
 62
7
  6
CONTINUOUS
  0
LAYER
  2
画層217
 70
    0
 62
7
  6
CONTINUOUS
  0
LAYER
  2
画層218
 70
    0
 62
7
  6
CONTINUOUS
  0
LAYER
  2
画層219
 70
    0
 62
7
  6
CONTINUOUS
  0
LAYER
  2
画層220
 70
    0
 62
7
  6
CONTINUOUS
  0
LAYER
  2
画層221
 70
    0
 62
7
  6
CONTINUOUS
  0
LAYER
  2
画層222
 70
    0
 62
7
  6
CONTINUOUS
  0
LAYER
  2
画層223
 70
    0
 62
7
  6
CONTINUOUS
  0
LAYER
  2
画層224
 70
    0
 62
7
  6
CONTINUOUS
  0
LAYER
  2
画層225
 70
    0
 62
7
  6
CONTINUOUS
  0
LAYER
  2
画層226
 70
    0
 62
7
  6
CONTINUOUS
  0
LAYER
  2
画層227
 70
    0
 62
7
  6
CONTINUOUS
  0
LAYER
  2
画層228
 70
    0
 62
7
  6
CONTINUOUS
  0
LAYER
  2
画層229
 70
    0
 62
7
  6
CONTINUOUS
  0
LAYER
  2
画層230
 70
    0
 62
7
  6
CONTINUOUS
  0
LAYER
  2
画層231
 70
    0
 62
7
  6
CONTINUOUS
  0
LAYER
  2
画層232
 70
    0
 62
7
  6
CONTINUOUS
  0
LAYER
  2
画層233
 70
    0
 62
7
  6
CONTINUOUS
  0
LAYER
  2
画層234
 70
    0
 62
7
  6
CONTINUOUS
  0
LAYER
  2
画層235
 70
    0
 62
7
  6
CONTINUOUS
  0
LAYER
  2
画層236
 70
    0
 62
7
  6
CONTINUOUS
  0
LAYER
  2
画層237
 70
    0
 62
7
  6
CONTINUOUS
  0
LAYER
  2
画層238
 70
    0
 62
7
  6
CONTINUOUS
  0
LAYER
  2
画層239
 70
    0
 62
7
  6
CONTINUOUS
  0
LAYER
  2
画層240
 70
    0
 62
7
  6
CONTINUOUS
  0
LAYER
  2
画層241
 70
    0
 62
7
  6
CONTINUOUS
  0
LAYER
  2
画層242
 70
    0
 62
7
  6
CONTINUOUS
  0
LAYER
  2
画層243
 70
    0
 62
7
  6
CONTINUOUS
  0
LAYER
  2
画層244
 70
    0
 62
7
  6
CONTINUOUS
  0
LAYER
  2
画層245
 70
    0
 62
7
  6
CONTINUOUS
  0
LAYER
  2
画層246
 70
    0
 62
7
  6
CONTINUOUS
  0
LAYER
  2
画層247
 70
    0
 62
7
  6
CONTINUOUS
  0
LAYER
  2
画層248
 70
    0
 62
7
  6
CONTINUOUS
  0
LAYER
  2
画層249
 70
    0
 62
7
  6
CONTINUOUS
  0
LAYER
  2
画層250
 70
    0
 62
7
  6
CONTINUOUS
  0
LAYER
  2
画層251
 70
    0
 62
7
  6
CONTINUOUS
  0
LAYER
  2
画層252
 70
    0
 62
7
  6
CONTINUOUS
  0
LAYER
  2
画層253
 70
    0
 62
7
  6
CONTINUOUS
  0
LAYER
  2
画層254
 70
    0
 62
7
  6
CONTINUOUS
  0
LAYER
  2
画層255
 70
    0
 62
7
  6
CONTINUOUS
  0
LAYER
  2
0
 70
   64
 62
    7
  6
CONTINUOUS
  0
ENDTAB
  0
TABLE
  2
STYLE
 70
     1
  0
STYLE
  2
Standard
 70
     0
 40
0.0
 41
1.0
 50
0.0
 71
     0
 42
3.2
  3
TXT
  4
BIGFONT
  0
STYLE
  2
Font_0
 70
     0
 40
0.0
 41
1.0
 50
0.0
 71
     0
 42
3.2
  3
txt
  4
BIGFONT
  0
ENDTAB
  0
ENDSEC
  0
SECTION
  2
BLOCKS
  0
BLOCK
  8
画層0
  2
13462_KCAD_FINI
 70
    0
 10
0
 20
0
 30
0.0
  3
13462_KCAD_FINI
  1

  0
LINE
  8
画層0
  6
CONTINUOUS
 62
134
 10
0
 20
0
 11
1.8475208614068
 21
3.2
  0
LINE
  8
画層0
  6
CONTINUOUS
 62
134
 10
1.8475208614068
 20
3.2
 11
-1.8475208614068
 21
3.2
  0
LINE
  8
画層0
  6
CONTINUOUS
 62
134
 10
-1.8475208614068
 20
3.2
 11
0
 21
0
  0
LINE
  8
画層0
  6
CONTINUOUS
 62
134
 10
3.69504172281361
 20
0
 11
5.54256258422041
 21
3.2
  0
LINE
  8
画層0
  6
CONTINUOUS
 62
134
 10
5.54256258422041
 20
3.2
 11
1.8475208614068
 21
3.2
  0
LINE
  8
画層0
  6
CONTINUOUS
 62
134
 10
1.8475208614068
 20
3.2
 11
3.69504172281361
 21
0
  0
LINE
  8
画層0
  6
CONTINUOUS
 62
134
 10
7.39008344562721
 20
0
 11
9.23760430703401
 21
3.2
  0
LINE
  8
画層0
  6
CONTINUOUS
 62
134
 10
9.23760430703401
 20
3.2
 11
5.54256258422041
 21
3.2
  0
LINE
  8
画層0
  6
CONTINUOUS
 62
134
 10
5.54256258422041
 20
3.2
 11
7.39008344562721
 21
0
  0
ENDBLK
  0
ENDSEC
  0
SECTION
  2
ENTITIES
  0
TEXT
  8
画層0
 62
7
  6
CONTINUOUS
 62
7
 10
169.137153013367
 20
19.4859714283775
 40
2.03
 41
0.86
  1
09/08/06
  7
Font_0
 72
1
 11
172.628753013367
 21
20.5009714283775
 73
2
  0
TEXT
  8
画層0
 62
7
  6
CONTINUOUS
 62
7
 10
153.137153013367
 20
19.4859714283775
 40
2.03
 41
0.86
  1
09/08/06
  7
Font_0
 72
1
 11
156.628753013367
 21
20.5009714283775
 73
2
  0
TEXT
  8
画層0
 62
7
  6
CONTINUOUS
 62
7
 10
137.137153013367
 20
19.4859714283775
 40
2.03
 41
0.86
  1
09/08/06
  7
Font_0
 72
1
 11
140.628753013367
 21
20.5009714283775
 73
2
  0
INSERT
  8
画層0
  6
CONTINUOUS
 62
7
  2
13462_KCAD_FINI
 10
201.933711290554
 20
28.8254904571793
 30
0.0
  0
TEXT
  8
画層0
 62
7
  6
CONTINUOUS
 62
7
 10
121.137153013367
 20
19.4859714283775
 40
2.03
 41
0.86
  1
09/08/06
  7
Font_0
 72
1
 11
124.628753013367
 21
20.5009714283775
 73
2
  0
TEXT
  8
画層0
 62
7
  6
CONTINUOUS
 62
7
 10
119.370503011456
 20
23.5729570769705
 40
3.6
 41
0.973750000353902
  1
宇賀田
  7
Font_0
 72
1
 11
124.628753013367
 21
25.3729570769705
 73
2
  0
TEXT
  8
画層0
 62
7
  6
CONTINUOUS
 62
7
 10
152.246878011775
 20
23.5729570769705
 40
3.6
 41
0.973750000353902
  1
藤 田
  7
Font_0
 72
1
 11
156.628753013367
 21
25.3729570769705
 73
2
  0
TEXT
  8
画層0
 62
7
  6
CONTINUOUS
 62
7
 10
200.828753013368
 20
18.7918584264738
 40
4
 41
1.2
  1
C0.1
  7
Font_0
 72
1
 11
205.628753013368
 21
20.7918584264738
 73
2
  0
TEXT
  8
画層0
 62
7
  6
CONTINUOUS
 62
7
 10
168.246878011775
 20
23.5729570769705
 40
3.6
 41
0.973750000353902
  1
藤 田
  7
Font_0
 72
1
 11
172.628753013367
 21
25.3729570769705
 73
2
  0
TEXT
  8
画層0
 62
7
  6
CONTINUOUS
 62
7
 10
135.370503011456
 20
23.5729570769705
 40
3.6
 41
0.973750000353902
  1
宇賀田
  7
Font_0
 72
1
 11
140.628753013367
 21
25.3729570769705
 73
2
  0
TEXT
  8
画層0
 62
7
  6
CENTER
 62
7
 10
100.728753013367
 20
42.7418584264738
 40
3.6
  1
０００
  7
Font_0
 72
1
 11
106.128753013367
 21
44.5418584264738
 73
2
  0
TEXT
  8
画層0
 62
7
  6
CENTER
 62
7
 10
133.428753013367
 20
42.874155053612
 40
3.6
  1
組 立 図
  7
Font_0
 72
1
 11
140.628753013367
 21
44.674155053612
 73
2
  0
TEXT
  8
画層0
 62
7
  6
CENTER
 62
7
 10
171.728753013367
 20
42.7418584264738
 40
3.6
  1
1
  7
Font_0
 72
1
 11
172.628753013367
 21
44.5418584264738
 73
2
  0
TEXT
  8
画層0
 62
7
  6
CENTER
 62
7
 10
190.878753013368
 20
42.7918584264738
 40
3.5
  1
Ａ５０５２ＴＤ
  7
Font_0
 72
1
 11
203.128753013368
 21
44.5418584264738
 73
2
  0
TEXT
  8
画層0
 62
7
  6
CENTER
 62
7
 10
239.878753013368
 20
42.7918584264738
 40
3.5
  1
サテン黒アルマイト
  7
Font_0
 72
1
 11
255.628753013368
 21
44.5418584264738
 73
2
  0
TEXT
  8
画層0
 62
7
  6
CONTINUOUS
 62
7
 10
241.502361834789
 20
18.7749685877144
 40
4
  1
ＫＶＴ－１００８
  7
Font_0
 72
1
 11
257.502361834789
 21
20.7749685877144
 73
2
  0
TEXT
  8
画層0
 62
7
  6
CONTINUOUS
 62
7
 10
242.13183009017
 20
29.1553517737042
 40
3.3
  1
ＫＣＭ－４－６５Ｃ
  7
Font_0
  0
LINE
  8
画層12
  6
CONTINUOUS
 62
7
 10
162.128763905351
 20
8.79185842647382
 11
162.128763905351
 21
11.0953460741073
  0
LINE
  8
画層12
  6
CONTINUOUS
 62
7
 10
161.066939691979
 20
9.57091422716547
 11
161.066939691979
 21
10.1006566408737
  0
LINE
  8
画層12
  6
CONTINUOUS
 62
7
 10
161.066939691979
 20
11.300452915116
 11
161.066939691979
 21
10.895270450651
  0
POLYLINE
  8
画層12
 62
7
  6
CONTINUOUS
 10
0.0
 20
0.0
 30
0.0
 66
1
  0
VERTEX
  8
画層12
 10
162.128763905351
  20
11.0953460741073
  0
VERTEX
  8
画層12
 10
162.113691515146
  20
11.3252173991904
  0
VERTEX
  8
画層12
 10
162.079086186167
  20
11.5460560112755
  0
VERTEX
  8
画層12
 10
162.006980001985
  20
11.7525237868334
  0
VERTEX
  8
画層12
 10
161.88648497543
  20
11.9276446926939
  0
VERTEX
  8
画層12
 10
161.723215535823
  20
12.0695713477623
  0
VERTEX
  8
画層12
 10
161.520986378095
  20
12.1682401853721
  0
VERTEX
  8
画層12
 10
161.312526962271
  20
12.2255946103646
  0
VERTEX
  8
画層12
 10
161.121667760788
  20
12.2561940547972
  0
VERTEX
  8
画層12
 10
160.959651782613
  20
12.2693126247807
  0
SEQEND
100
AcDbEntity
  8
画層12
  0
ARC
  8
画層12
  6
CONTINUOUS
 62
7
 10
160.885950550121
 20
11.300452915116
 40
0.180989141858163
 50
0
 51
90
  0
LINE
  8
画層12
  6
CONTINUOUS
 62
7
 10
157.96759300361
 20
8.79185842647382
 11
162.128763905351
 21
8.79185842647382
  0
LINE
  8
画層12
  6
CONTINUOUS
 62
7
 10
157.967593002808
 20
8.79185842647382
 11
157.96759300361
 21
8.79185842647382
  0
LINE
  8
画層12
  6
CONTINUOUS
 62
7
 10
157.96759300361
 20
9.57091422716547
 11
161.066939691979
 21
9.57091422716547
  0
LINE
  8
画層12
  6
CONTINUOUS
 62
7
 10
161.066939691979
 20
10.1006566408737
 11
157.96759300361
 21
10.1006566408737
  0
LINE
  8
画層12
  6
CONTINUOUS
 62
7
 10
157.96759300361
 20
10.1006566408737
 11
157.96759300361
 21
9.57091422716547
  0
LINE
  8
画層12
  6
CONTINUOUS
 62
7
 10
161.066939691979
 20
10.895270450651
 11
157.96759300361
 21
10.895270450651
  0
POLYLINE
  8
画層12
 62
7
  6
CONTINUOUS
 10
0.0
 20
0.0
 30
0.0
 66
1
  0
VERTEX
  8
画層12
 10
157.96759300361
  20
8.79185842647382
  0
VERTEX
  8
画層12
 10
157.738412223975
  20
8.79905687210743
  0
VERTEX
  8
画層12
 10
157.50995011842
  20
8.82332825788984
  0
VERTEX
  8
画層12
 10
157.312737861448
  20
8.86604334543808
  0
VERTEX
  8
画層12
 10
157.156795654169
  20
8.92312138155314
  0
VERTEX
  8
画層12
 10
157.039172049178
  20
8.98909036323084
  0
VERTEX
  8
画層12
 10
156.945189821778
  20
9.06465827111882
  0
VERTEX
  8
画層12
 10
156.87459468934
  20
9.14945685176331
  0
VERTEX
  8
画層12
 10
156.822178673957
  20
9.23907058204177
  0
VERTEX
  8
画層12
 10
156.78662563297
  20
9.34415280337177
  0
VERTEX
  8
画層12
 10
156.766899116062
  20
9.46201113879023
  0
VERTEX
  8
画層12
 10
156.763183683367
  20
9.5864722362511
  0
SEQEND
100
AcDbEntity
  8
画層12
  0
LINE
  8
画層12
  6
CONTINUOUS
 62
7
 10
156.763183683367
 20
10.1006566408737
 11
156.763183683367
 21
9.57091422716547
  0
POLYLINE
  8
画層12
 62
7
  6
CONTINUOUS
 10
0.0
 20
0.0
 30
0.0
 66
1
  0
VERTEX
  8
画層12
 10
157.96759300361
  20
10.895270450651
  0
VERTEX
  8
画層12
 10
157.738412223975
  20
10.8880720050174
  0
VERTEX
  8
画層12
 10
157.50995011842
  20
10.8638006192349
  0
VERTEX
  8
画層12
 10
157.312737861448
  20
10.8210855316867
  0
VERTEX
  8
画層12
 10
157.156795654169
  20
10.7640074955716
  0
VERTEX
  8
画層12
 10
157.039172049178
  20
10.6980385138939
  0
VERTEX
  8
画層12
 10
156.945189821778
  20
10.6224706060059
  0
VERTEX
  8
画層12
 10
156.87459468934
  20
10.5376720253615
  0
VERTEX
  8
画層12
 10
156.822178673957
  20
10.448058295083
  0
VERTEX
  8
画層12
 10
156.78662563297
  20
10.342976073753
  0
VERTEX
  8
画層12
 10
156.766899116062
  20
10.2251177383345
  0
VERTEX
  8
画層12
 10
156.763183683367
  20
10.1006566408737
  0
SEQEND
100
AcDbEntity
  8
画層12
  0
LINE
  8
画層12
  6
CONTINUOUS
 62
7
 10
156.843477544022
 20
11.4814420569741
 11
160.885950550121
 21
11.4814420569741
  0
LINE
  8
画層12
  6
CONTINUOUS
 62
7
 10
156.843477544022
 20
12.2693126247807
 11
156.843477544022
 21
11.4814420569741
  0
LINE
  8
画層12
  6
CONTINUOUS
 62
7
 10
160.959651782613
 20
12.2693126247807
 11
156.843477544022
 21
12.2693126247807
  0
LINE
  8
画層12
  6
CONTINUOUS
 62
7
 10
156.204262553713
 20
11.2195756020039
 11
156.204262553713
 21
8.79185842647382
  0
LINE
  8
画層12
  6
CONTINUOUS
 62
7
 10
156.204262553713
 20
8.79185842647382
 11
155.14438225317
 21
8.79185842647382
  0
LINE
  8
画層12
  6
CONTINUOUS
 62
7
 10
155.14438225317
 20
8.79185842647382
 11
155.14438225317
 21
11.161195134022
  0
ARC
  8
画層12
  6
CONTINUOUS
 62
7
 10
155.154525530936
 20
11.2195756020039
 40
1.04973702277704
 50
0
 51
90
  0
ARC
  8
画層12
  6
CONTINUOUS
 62
7
 10
154.927195282941
 20
11.161195134022
 40
0.217186970229818
 50
0
 51
90
  0
LINE
  8
画層12
  6
CONTINUOUS
 62
7
 10
154.927195282941
 20
11.3783821042517
 11
152.085182671431
 21
11.3783821042517
  0
LINE
  8
画層12
  6
CONTINUOUS
 62
7
 10
152.085182671431
 20
11.3783821042517
 11
152.085182671431
 21
8.79185842647382
  0
LINE
  8
画層12
  6
CONTINUOUS
 62
7
 10
152.085182671431
 20
8.79185842647382
 11
151.025302370888
 21
8.79185842647382
  0
LINE
  8
画層12
  6
CONTINUOUS
 62
7
 10
151.025302370888
 20
8.79185842647382
 11
151.025302370888
 21
12.2693126247807
  0
LINE
  8
画層12
  6
CONTINUOUS
 62
7
 10
151.025302370888
 20
12.2693126247807
 11
155.154525530936
 21
12.2693126247807
  0
LINE
  8
画層12
  6
CONTINUOUS
 62
7
 10
150.408660111866
 20
8.79185842647382
 11
150.408660111866
 21
12.2693126247807
  0
LINE
  8
画層12
  6
CONTINUOUS
 62
7
 10
150.408660111866
 20
12.5169512072738
 11
150.408660111866
 21
13.3127448352629
  0
LINE
  8
画層12
  6
CONTINUOUS
 62
7
 10
149.353580708316
 20
8.79185842647382
 11
150.408660111866
 21
8.79185842647382
  0
LINE
  8
画層12
  6
CONTINUOUS
 62
7
 10
149.353580708316
 20
12.2693126247807
 11
149.353580708316
 21
8.79185842647382
  0
LINE
  8
画層12
  6
CONTINUOUS
 62
7
 10
150.408660111866
 20
12.2693126247807
 11
149.353580708316
 21
12.2693126247807
  0
LINE
  8
画層12
  6
CONTINUOUS
 62
7
 10
149.353580708316
 20
12.5169512072738
 11
150.408660111866
 21
12.5169512072738
  0
LINE
  8
画層12
  6
CONTINUOUS
 62
7
 10
150.408660111866
 20
13.3127448352629
 11
149.353580708316
 21
13.3127448352629
  0
LINE
  8
画層12
  6
CONTINUOUS
 62
7
 10
149.353580708316
 20
13.3127448352629
 11
149.353580708316
 21
12.5169512072738
  0
LINE
  8
画層12
  6
CONTINUOUS
 62
7
 10
146.870220991685
 20
8.79185842647382
 11
148.682339992156
 21
8.79185842647382
  0
LINE
  8
画層12
  6
CONTINUOUS
 62
7
 10
148.626134183917
 20
12.2693126247807
 11
146.964049399555
 21
12.2693126247807
  0
LINE
  8
画層12
  6
CONTINUOUS
 62
7
 10
146.026760605811
 20
10.5327684352986
 11
148.682339992156
 21
8.79185842647382
  0
LINE
  8
画層12
  6
CONTINUOUS
 62
7
 10
148.626134183917
 20
12.2693126247807
 11
146.026760605811
 21
10.5327684352986
  0
LINE
  8
画層12
  6
CONTINUOUS
 62
7
 10
146.870220991685
 20
8.79185842647382
 11
144.701942264435
 21
10.4286120822942
  0
LINE
  8
画層12
  6
CONTINUOUS
 62
7
 10
146.964049399555
 20
12.2693126247807
 11
144.699964418507
 21
10.639327367925
  0
LINE
  8
画層12
  6
CONTINUOUS
 62
7
 10
144.527923244277
 20
8.79185842647382
 11
144.527923244277
 21
10.3419400315873
  0
ARC
  8
画層12
  6
CONTINUOUS
 62
7
 10
144.636516729392
 20
10.3419400315873
 40
0.108593485114852
 50
52.9521908437077
 51
180
  0
ARC
  8
画層12
  6
CONTINUOUS
 62
7
 10
144.636516729392
 20
10.7274575883685
 40
0.108593485114852
 50
180
 51
305.751288374722
  0
LINE
  8
画層12
  6
CONTINUOUS
 62
7
 10
143.472257458171
 20
8.79185842647382
 11
144.527923244277
 21
8.79185842647382
  0
LINE
  8
画層12
  6
CONTINUOUS
 62
7
 10
144.527923244277
 20
10.7274575883685
 11
144.527923244277
 21
13.3127448352629
  0
LINE
  8
画層12
  6
CONTINUOUS
 62
7
 10
144.527923244277
 20
13.3127448352629
 11
143.472257458171
 21
13.3127448352629
  0
LINE
  8
画層12
  6
CONTINUOUS
 62
7
 10
143.472257458171
 20
13.3127448352629
 11
143.472257458171
 21
8.79185842647382
  0
LINE
  8
画層12
  6
CONTINUOUS
 62
7
 10
142.926809199412
 20
9.98638676273717
 11
142.926809199412
 21
11.0824714607435
  0
ARC
  8
画層12
  6
CONTINUOUS
 62
7
 10
141.732280863149
 20
9.98638676273717
 40
1.19452833626326
 50
270
 51
0
  0
ARC
  8
画層12
  6
CONTINUOUS
 62
7
 10
141.649873075533
 20
9.84989172991786
 40
0.162890227672278
 50
270
 51
0
  0
LINE
  8
画層12
  6
CONTINUOUS
 62
7
 10
141.812763303205
 20
9.84989172991786
 11
141.812763303205
 21
11.2257084741005
  0
ARC
  8
画層12
  6
CONTINUOUS
 62
7
 10
141.649873075533
 20
11.2257084741005
 40
0.162890227672278
 50
0
 51
90
  0
ARC
  8
画層12
  6
CONTINUOUS
 62
7
 10
141.732280863149
 20
11.0824714607435
 40
1.19452833626326
 50
-8.52032946536999E-14
 51
89.9999999999999
  0
LINE
  8
画層12
  6
CONTINUOUS
 62
7
 10
138.773759928131
 20
8.79185842647382
 11
141.732280863149
 21
8.79185842647382
  0
LINE
  8
画層12
  6
CONTINUOUS
 62
7
 10
138.71367873232
 20
9.68700150224558
 11
141.649873075533
 21
9.68700150224558
  0
LINE
  8
画層12
  6
CONTINUOUS
 62
7
 10
134.354445580271
 20
8.79185842647382
 11
135.542796198904
 21
8.79185842647382
  0
ARC
  8
画層12
  6
CONTINUOUS
 62
7
 10
138.71367873232
 20
9.84989172991786
 40
0.162890227672278
 50
180
 51
270
  0
LINE
  8
画層12
  6
CONTINUOUS
 62
7
 10
132.128753013368
 20
13.3127448352629
 11
132.128753013368
 21
12.3174711063
  0
ARC
  8
画層12
  6
CONTINUOUS
 62
7
 10
138.773759928131
 20
9.98638676273717
 40
1.19452833626326
 50
180
 51
270
  0
LINE
  8
画層12
  6
CONTINUOUS
 62
7
 10
141.649873075533
 20
11.3885987017728
 11
138.71367873232
 21
11.3885987017728
  0
LINE
  8
画層12
  6
CONTINUOUS
 62
7
 10
138.550788504648
 20
11.2257084741005
 11
138.550788504648
 21
9.84989172991786
  0
ARC
  8
画層12
  6
CONTINUOUS
 62
7
 10
138.71367873232
 20
11.2257084741005
 40
0.162890227672278
 50
90
 51
180
  0
LINE
  8
画層12
  6
CONTINUOUS
 62
7
 10
141.732280863149
 20
12.2769997970068
 11
138.773759928131
 21
12.2769997970069
  0
LINE
  8
画層12
  6
CONTINUOUS
 62
7
 10
137.579231591867
 20
11.0824714607435
 11
137.579231591867
 21
9.98638676273717
  0
ARC
  8
画層12
  6
CONTINUOUS
 62
7
 10
138.773759928131
 20
11.0824714607435
 40
1.19452833626326
 50
89.9999999999999
 51
180
  0
LINE
  8
画層12
  6
CONTINUOUS
 62
7
 10
137.804054824827
 20
12.3174711063
 11
137.804054824827
 21
13.3127448352629
  0
LINE
  8
画層12
  6
CONTINUOUS
 62
7
 10
132.128753013368
 20
12.3174711063
 11
134.354445580271
 21
12.3174711063
  0
LINE
  8
画層12
  6
CONTINUOUS
 62
7
 10
134.354445580271
 20
12.3174711063
 11
134.354445580271
 21
8.79185842647382
  0
LINE
  8
画層12
  6
CONTINUOUS
 62
7
 10
135.542796198904
 20
8.79185842647382
 11
135.542796198904
 21
12.3174711063
  0
LINE
  8
画層12
  6
CONTINUOUS
 62
7
 10
135.542796198904
 20
12.3174711063
 11
137.804054824827
 21
12.3174711063
  0
LINE
  8
画層12
  6
CONTINUOUS
 62
7
 10
137.804054824827
 20
13.3127448352629
 11
132.128753013368
 21
13.3127448352629
  0
LINE
  8
画層12
  6
CONTINUOUS
 62
7
 10
10.6287530133685
 20
106.791858426474
 11
8.12875301336845
 21
106.791858426474
  0
LINE
  8
画層12
  6
CONTINUOUS
 62
7
 10
285.628753013368
 20
106.791858426474
 11
288.128753013368
 21
106.791858426474
  0
LINE
  8
画層12
  6
CONTINUOUS
 62
7
 10
95.6287530133674
 20
15.7918584264738
 11
95.6287530133674
 21
48.2918584264738
  0
LINE
  8
画層12
  6
CONTINUOUS
 62
7
 10
116.628753013367
 20
15.7918584264738
 11
116.628753013367
 21
48.2918584264738
  0
LINE
  8
画層12
  6
CONTINUOUS
 62
7
 10
132.628753013367
 20
15.7918584264738
 11
132.628753013367
 21
35.7918584264738
  0
LINE
  8
画層12
  6
CONTINUOUS
 62
7
 10
148.628753013367
 20
15.7918584264738
 11
148.628753013367
 21
35.7918584264738
  0
LINE
  8
画層12
  6
CONTINUOUS
 62
7
 10
164.628753013367
 20
15.7918584264738
 11
164.628753013367
 21
48.2918584264738
  0
TEXT
  8
画層12
 62
7
  6
CENTER
 62
7
 10
168.691253013367
 20
31.7168584264738
 40
3.15
  1
承 認
  7
Font_0
 72
1
 11
172.628753013367
 21
33.2918584264738
 73
2
  0
TEXT
  8
画層12
 62
7
  6
CENTER
 62
7
 10
152.691253013367
 20
31.7168584264738
 40
3.15
  1
検 図
  7
Font_0
 72
1
 11
156.628753013367
 21
33.2918584264738
 73
2
  0
TEXT
  8
画層12
 62
7
  6
CENTER
 62
7
 10
120.691253013367
 20
31.7168584264738
 40
3.15
  1
製 図
  7
Font_0
 72
1
 11
124.628753013367
 21
33.2918584264738
 73
2
  0
TEXT
  8
画層12
 62
7
  6
CENTER
 62
7
 10
131.178753013367
 20
36.7168584264738
 40
3.15
  1
部   品   名
  7
Font_0
 72
1
 11
140.628753013367
 21
38.2918584264738
 73
2
  0
TEXT
  8
画層12
 62
7
  6
CENTER
 62
7
 10
244.603753013368
 20
36.7168584264738
 40
3.15
  1
表  面  処  理
  7
Font_0
 72
1
 11
255.628753013368
 21
38.2918584264738
 73
2
  0
LINE
  8
画層12
  6
CONTINUOUS
 62
7
 10
95.6287530133674
 20
20.7918584264738
 11
116.628753013367
 21
20.7918584264738
  0
TEXT
  8
画層12
 62
7
  6
CENTER
 62
7
 10
15.5478734272684
 20
19.4661528760738
 40
3.15
  1
日付
  7
Font_0
  0
TEXT
  8
画層12
 62
7
  6
CENTER
 62
7
 10
100.458753013367
 20
16.9418584264738
 40
2.7
 41
1.2
  1
 三角法
  7
Font_0
 72
1
 11
106.128753013367
 21
18.2918584264738
 73
2
  0
LINE
  8
画層12
  6
CONTINUOUS
 62
7
 10
95.6287530133674
 20
30.7918584264738
 11
180.628753013367
 21
30.7918584264738
  0
LINE
  8
画層12
  6
CONTINUOUS
 62
7
 10
36.6287530133685
 20
25.7918584264738
 11
36.6287530133685
 21
35.7918584264738
  0
LINE
  8
画層12
  6
CONTINUOUS
 62
7
 10
10.6287530133685
 20
32.4585250931738
 11
95.6287530133674
 21
32.4585250931738
  0
LINE
  8
画層12
  6
CONTINUOUS
 62
7
 10
10.6287530133685
 20
29.1251917597738
 11
95.6287530133674
 21
29.1251917597738
  0
LINE
  8
画層12
  6
CONTINUOUS
 62
7
 10
10.6287530133685
 20
25.7918584264738
 11
95.6287530133674
 21
25.7918584264738
  0
LINE
  8
画層12
  6
CONTINUOUS
 62
7
 10
28.6287530133685
 20
15.7918584264738
 11
28.6287530133685
 21
35.7918584264738
  0
LINE
  8
画層12
  6
CONTINUOUS
 62
7
 10
16.0287530133684
 20
25.7918584264738
 11
16.0287530133684
 21
35.7918584264738
  0
TEXT
  8
画層12
 62
7
  6
CENTER
 62
7
 10
53.6821895138173
 20
26.3026870795227
 40
2.4
  1
訂  正  記  事
  7
Font_0
  0
TEXT
  8
画層12
 62
7
  6
CENTER
 62
7
 10
11.5282388901684
 20
26.6413071067278
 40
1.8
  1
符号
  7
Font_0
  0
LINE
  8
画層12
  6
CONTINUOUS
 62
7
 10
13.5062788176684
 20
35.3220551397738
 11
14.8396121509684
 21
33.0126540629738
  0
LINE
  8
画層12
  6
CONTINUOUS
 62
7
 10
14.8396121509684
 20
33.0126540629738
 11
12.1729454842683
 21
33.0126540629738
  0
LINE
  8
画層12
  6
CONTINUOUS
 62
7
 10
12.1729454842683
 20
33.0126540629738
 11
13.5062788176684
 21
35.3220551397738
  0
LINE
  8
画層12
  6
CONTINUOUS
 62
7
 10
12.175289091558
 20
29.7005519365426
 11
13.5086224248582
 21
32.0099530132426
  0
LINE
  8
画層12
  6
CONTINUOUS
 62
7
 10
14.8419557582582
 20
29.7005519365426
 11
12.175289091558
 21
29.7005519365426
  0
LINE
  8
画層12
  6
CONTINUOUS
 62
7
 10
13.5086224248582
 20
32.0099530132426
 11
14.8419557582582
 21
29.7005519365426
  0
TEXT
  8
画層12
 62
7
  6
CENTER
 62
7
 10
30.2411383657823
 20
26.3413069636767
 40
2.4
  1
担当
  7
Font_0
  0
TEXT
  8
画層12
 62
7
  6
CENTER
 62
7
 10
18.5568037758508
 20
26.2744760962407
 40
2.4
  1
年月日
  7
Font_0
  0
TEXT
  8
画層12
 62
7
  6
CENTER
 62
7
 10
13.3689972527159
 20
29.9384521377622
 40
1.35600025863647
 41
0.577433297908475
  1
1
  7
Font_0
  0
TEXT
  8
画層12
 62
7
  6
CENTER
 62
7
 10
13.236447193656
 20
33.2646926678473
 40
1.35600025863647
 41
0.577433297908475
  1
2
  7
Font_0
  0
TEXT
  8
画層0
 62
7
  6
CENTER
 62
7
 10
43.2637530133679
 20
19.0768584264738
 40
3.43
  1
２００９年　８月　６日
  7
Font_0
 72
1
 11
62.1287530133679
 21
20.7918584264738
 73
2
  0
TEXT
  8
画層0
 62
7
  6
CENTER
 62
7
 10
102.397503013367
 20
23.7578584264738
 40
4.068
 41
1.22295968534907
  1
1/1
  7
Font_0
 72
1
 11
106.128753013367
 21
25.7918584264738
 73
2
  0
TEXT
  8
画層12
 62
7
  6
CENTER
 62
7
 10
196.828753013368
 20
36.7168584264738
 40
3.15
  1
材    質
  7
Font_0
 72
1
 11
203.128753013368
 21
38.2918584264738
 73
2
  0
TEXT
  8
画層12
 62
7
  6
CENTER
 62
7
 10
169.478753013367
 20
36.7168584264738
 40
3.15
  1
個数
  7
Font_0
 72
1
 11
172.628753013367
 21
38.2918584264738
 73
2
  0
TEXT
  8
画層12
 62
7
  6
CENTER
 62
7
 10
99.8287530133674
 20
36.7168584264738
 40
3.15
  1
部品番号
  7
Font_0
 72
1
 11
106.128753013367
 21
38.2918584264738
 73
2
  0
TEXT
  8
画層12
 62
7
  6
CENTER
 62
7
 10
102.281253013367
 20
31.7168584264738
 40
3.15
 41
1.22142857142857
  1
尺度
  7
Font_0
 72
1
 11
106.128753013367
 21
33.2918584264738
 73
2
  0
LINE
  8
画層12
  6
CONTINUOUS
 62
7
 10
185.628753013367
 20
15.7918584264738
 11
185.628753013367
 21
35.7918584264738
  0
LINE
  8
画層12
  6
CONTINUOUS
 62
7
 10
95.6287530133674
 20
40.7918584264738
 11
285.628753013368
 21
40.7918584264738
  0
TEXT
  8
画層12
 62
7
  6
CENTER
 62
7
 10
226.278753013368
 20
17.4418584264738
 40
2.7
 41
1.26666666666667
  1
番
  7
Font_0
  0
TEXT
  8
画層12
 62
7
  6
CENTER
 62
7
 10
226.278753013368
 20
21.9418584264738
 40
2.7
 41
1.26666666666667
  1
図
  7
Font_0
  0
TEXT
  8
画層12
 62
7
  6
CENTER
 62
7
 10
181.297278549949
 20
31.1590910717738
 40
2.7
 41
1.26666666666667
  1
仕
  7
Font_0
  0
TEXT
  8
画層12
 62
7
  6
CENTER
 62
7
 10
181.297278549949
 20
27.6590910717738
 40
2.7
 41
1.27
  1
上
  7
Font_0
  0
TEXT
  8
画層12
 62
7
  6
CENTER
 62
7
 10
181.644221189031
 20
17.8872190115738
 40
2.7
 41
1.20333331823349
  1
取
  7
Font_0
  0
TEXT
  8
画層12
 62
7
  6
CENTER
 62
7
 10
181.644221189031
 20
21.3872190115738
 40
2.7
 41
1.20333331823349
  1
面
  7
Font_0
  0
TEXT
  8
画層12
 62
7
  6
CENTER
 62
7
 10
136.691253013367
 20
31.7168584264738
 40
3.15
  1
設 計
  7
Font_0
 72
1
 11
140.628753013367
 21
33.2918584264738
 73
2
  0
TEXT
  8
画層12
 62
7
  6
CENTER
 62
7
 10
226.358667274878
 20
26.4774102640738
 40
2.7
 41
1.26666666666667
  1
名
  7
Font_0
  0
TEXT
  8
画層12
 62
7
  6
CENTER
 62
7
 10
226.358667274878
 20
29.5774102640738
 40
2.7
 41
1.26666666666667
  1
品
  7
Font_0
  0
TEXT
  8
画層12
 62
7
  6
CENTER
 62
7
 10
226.358667274878
 20
32.6774102640738
 40
2.7
 41
1.26666666666667
  1
製
  7
Font_0
  0
LINE
  8
画層12
  6
CONTINUOUS
 62
7
 10
285.628753013368
 20
25.7918584264738
 11
180.628753013367
 21
25.7918584264738
  0
LINE
  8
画層12
  6
CONTINUOUS
 62
7
 10
230.628753013368
 20
15.7918584264738
 11
230.628753013368
 21
35.7918584264738
  0
LINE
  8
画層12
  6
CONTINUOUS
 62
7
 10
180.628753013367
 20
15.7918584264738
 11
180.628753013367
 21
48.2918584264738
  0
LINE
  8
画層12
  6
CONTINUOUS
 62
7
 10
285.628753013368
 20
35.7918584264738
 11
10.6287530133683
 21
35.7918584264738
  0
LINE
  8
画層12
  6
CONTINUOUS
 62
7
 10
225.628753013368
 20
48.2918584264738
 11
225.628753013368
 21
15.7918584264738
  0
LINE
  8
画層12
  6
CONTINUOUS
 62
7
 10
95.6287530133674
 20
48.2918584264738
 11
285.628753013368
 21
48.2918584264738
  0
LINE
  8
画層12
  6
CONTINUOUS
 62
7
 10
285.628753013368
 20
15.7918584264738
 11
10.6287530133685
 21
15.7918584264738
  0
LINE
  8
画層12
  6
CONTINUOUS
 62
7
 10
147.128753013368
 20
202.791858426474
 11
147.128753013368
 21
205.291858426474
  0
LINE
  8
画層12
  6
CONTINUOUS
 62
7
 10
285.628753013368
 20
202.791858426474
 11
285.628753013368
 21
15.7918584264738
  0
LINE
  8
画層12
  6
CONTINUOUS
 62
7
 10
10.6287530133685
 20
202.791858426474
 11
10.6287530133685
 21
15.7918584264738
  0
LINE
  8
画層12
  6
CONTINUOUS
 62
7
 10
285.628753013368
 20
202.791858426474
 11
10.6287530133685
 21
202.791858426474
  0
LINE
  8
画層0
  6
CENTER
 62
7
 10
139.029522554446
 20
117.791858426474
 11
234.735853299119
 21
117.791858426474
  0
LINE
  8
画層0
  6
CENTER
 62
7
 10
77.651508252419
 20
117.791858426474
 11
132.579221105492
 21
117.791858426474
  0
LINE
  8
画層0
  6
CONTINUOUS
 62
7
 10
80.8287530133686
 20
115.023031426474
 11
80.8287530133686
 21
120.560685426474
  0
LINE
  8
画層0
  6
CONTINUOUS
 62
7
 10
145.928753013368
 20
109.791858426474
 11
145.628753013369
 21
110.091858426474
  0
LINE
  8
画層0
  6
CONTINUOUS
 62
7
 10
179.728753013368
 20
109.791858426474
 11
204.428753013368
 21
109.791858426474
  0
LINE
  8
画層0
  6
CONTINUOUS
 62
7
 10
163.728753013368
 20
109.791858426474
 11
179.528753013368
 21
109.791858426474
  0
LINE
  8
画層0
  6
CONTINUOUS
 62
7
 10
163.528753013368
 20
109.791858426474
 11
145.928753013368
 21
109.791858426474
  0
LINE
  8
画層0
  6
CONTINUOUS
 62
7
 10
179.728753013368
 20
109.791858426474
 11
179.628753013368
 21
109.891858426474
  0
LINE
  8
画層0
  6
CONTINUOUS
 62
7
 10
179.628753013368
 20
109.891858426474
 11
179.528753013368
 21
109.791858426474
  0
LINE
  8
画層0
  6
CONTINUOUS
 62
7
 10
163.528753013368
 20
109.791858426474
 11
163.628753013368
 21
109.891858426474
  0
LINE
  8
画層0
  6
CONTINUOUS
 62
7
 10
163.628753013368
 20
109.891858426474
 11
163.728753013368
 21
109.791858426474
  0
LINE
  8
画層0
  6
CONTINUOUS
 62
7
 10
179.628753013368
 20
109.891858426474
 11
179.628753013368
 21
125.691858426474
  0
LINE
  8
画層0
  6
CONTINUOUS
 62
7
 10
223.128753013368
 20
105.091858426474
 11
223.128753013368
 21
130.491858426474
  0
LINE
  8
画層0
  6
CONTINUOUS
 62
7
 10
145.928753013368
 20
109.791858426474
 11
145.928753013368
 21
125.791858426474
  0
LINE
  8
画層0
  6
CONTINUOUS
 62
7
 10
145.628753013369
 20
110.091858426474
 11
145.628753013369
 21
125.491858426474
  0
LINE
  8
画層0
  6
CONTINUOUS
 62
7
 10
163.628753013368
 20
109.891858426474
 11
163.628753013368
 21
125.691858426474
  0
LINE
  8
画層0
  6
CONTINUOUS
 62
7
 10
222.128753013368
 20
102.591858426474
 11
222.128753013368
 21
132.991858426474
  0
LINE
  8
画層0
  6
CONTINUOUS
 62
7
 10
215.628753013368
 20
102.791858426474
 11
215.628753013368
 21
132.791858426474
  0
LINE
  8
画層0
  6
CONTINUOUS
 62
7
 10
222.128753013368
 20
105.541858426474
 11
225.978753013368
 21
105.541858426474
  0
LINE
  8
画層0
  6
CONTINUOUS
 62
7
 10
225.528753013368
 20
105.091858426474
 11
223.128753013368
 21
105.091858426474
  0
LINE
  8
画層0
  6
CONTINUOUS
 62
7
 10
225.528753013368
 20
105.091858426474
 11
226.128753013368
 21
105.691858426474
  0
LINE
  8
画層0
  6
CONTINUOUS
 62
7
 10
225.528753013368
 20
105.091858426474
 11
225.528753013368
 21
130.491858426474
  0
LINE
  8
画層0
  6
CONTINUOUS
 62
7
 10
221.828753013369
 20
102.291858426474
 11
216.128753013368
 21
102.291858426474
  0
LINE
  8
画層0
  6
CONTINUOUS
 62
7
 10
222.128753013368
 20
102.591858426474
 11
221.828753013369
 21
102.291858426474
  0
LINE
  8
画層0
  6
CONTINUOUS
 62
7
 10
216.128753013368
 20
102.291858426474
 11
215.628753013368
 21
102.791858426474
  0
LINE
  8
画層0
  6
CONTINUOUS
 62
7
 10
216.128753013368
 20
102.291858426474
 11
216.128753013368
 21
133.291858426474
  0
LINE
  8
画層0
  6
CONTINUOUS
 62
7
 10
221.828753013369
 20
102.291858426474
 11
221.828753013369
 21
133.291858426474
  0
LINE
  8
画層0
  6
CONTINUOUS
 62
7
 10
226.128753013368
 20
105.691858426474
 11
226.128753013368
 21
129.891858426474
  0
LINE
  8
画層0
  6
CONTINUOUS
 62
7
 10
187.028753013368
 20
109.791858426474
 11
215.628753013368
 21
109.791858426474
  0
CIRCLE
  8
画層0
  6
CONTINUOUS
 62
7
 10
218.928753013368
 20
117.791858426474
 40
1.24999999999977
  0
CIRCLE
  8
画層0
  6
CONTINUOUS
 62
7
 10
218.928753013368
 20
117.791858426474
 40
1.5
  0
LINE
  8
画層0
  6
CENTER
 62
7
 10
218.928753013368
 20
120.791858426474
 11
218.928753013368
 21
114.791858426474
  0
LINE
  8
画層0
  6
CONTINUOUS
 62
7
 10
187.028753013368
 20
125.791858426474
 11
215.628753013368
 21
125.791858426474
  0
LINE
  8
画層0
  6
CONTINUOUS
 62
7
 10
216.128753013368
 20
133.291858426474
 11
215.628753013368
 21
132.791858426474
  0
LINE
  8
画層0
  6
CONTINUOUS
 62
7
 10
222.128753013368
 20
132.991858426474
 11
221.828753013369
 21
133.291858426474
  0
LINE
  8
画層0
  6
CONTINUOUS
 62
7
 10
221.828753013369
 20
133.291858426474
 11
216.128753013368
 21
133.291858426474
  0
LINE
  8
画層0
  6
CONTINUOUS
 62
7
 10
225.528753013368
 20
130.491858426474
 11
226.128753013368
 21
129.891858426474
  0
LINE
  8
画層0
  6
CONTINUOUS
 62
7
 10
225.528753013368
 20
130.491858426474
 11
223.128753013368
 21
130.491858426474
  0
LINE
  8
画層0
  6
CONTINUOUS
 62
7
 10
222.128753013368
 20
130.041858426474
 11
225.978753013368
 21
130.041858426474
  0
LINE
  8
画層0
  6
CONTINUOUS
 62
7
 10
163.628753013368
 20
125.691858426474
 11
163.728753013368
 21
125.791858426474
  0
LINE
  8
画層0
  6
CONTINUOUS
 62
7
 10
163.528753013368
 20
125.791858426474
 11
163.628753013368
 21
125.691858426474
  0
LINE
  8
画層0
  6
CONTINUOUS
 62
7
 10
179.628753013368
 20
125.691858426474
 11
179.528753013368
 21
125.791858426474
  0
LINE
  8
画層0
  6
CONTINUOUS
 62
7
 10
179.728753013368
 20
125.791858426474
 11
179.628753013368
 21
125.691858426474
  0
LINE
  8
画層0
  6
CONTINUOUS
 62
7
 10
163.528753013368
 20
125.791858426474
 11
145.928753013368
 21
125.791858426474
  0
LINE
  8
画層0
  6
CONTINUOUS
 62
7
 10
163.728753013368
 20
125.791858426474
 11
179.528753013368
 21
125.791858426474
  0
LINE
  8
画層0
  6
CONTINUOUS
 62
7
 10
179.728753013368
 20
125.791858426474
 11
204.428753013368
 21
125.791858426474
  0
LINE
  8
画層0
  6
CONTINUOUS
 62
7
 10
145.928753013368
 20
125.791858426474
 11
145.628753013369
 21
125.491858426474
  0
LINE
  8
画層1
  6
CONTINUOUS
 62
7
 10
80.8287530133686
 20
87.2918584264737
 11
80.8287530133686
 21
114.023031426474
  0
LINE
  8
画層1
  6
CONTINUOUS
 62
7
 10
145.628753013369
 20
87.2918584264737
 11
145.628753013369
 21
109.091858426474
  0
LINE
  8
画層1
  6
CONTINUOUS
 62
7
 10
83.8287530133684
 20
88.2918584264737
 11
142.628753013369
 21
88.2918584264737
  0
TEXT
  8
画層1
 62
7
  6
BYLAYER
 62
7
 10
103.628753013368
 20
88.8251584264737
 40
3.2
  1
W.D.=64.8%%p2
  7
Font_0
 72
1
 11
113.228753013368
 21
90.4251584264737
 73
2
  0
LINE
  8
画層0
  6
CONTINUOUS
 62
7
 10
83.8287530133686
 20
87.4880114264737
 11
80.8287530133686
 21
88.2918584264737
  0
LINE
  8
画層0
  6
CONTINUOUS
 62
7
 10
80.8287530133686
 20
88.2918584264737
 11
83.8287530133686
 21
89.0957054264737
  0
LINE
  8
画層0
  6
CONTINUOUS
 62
7
 10
80.8287530133686
 20
88.2918584264737
 11
83.8287530133686
 21
88.2918584264737
  0
LINE
  8
画層0
  6
CONTINUOUS
 62
7
 10
142.628753013369
 20
89.0957054264737
 11
145.628753013369
 21
88.2918584264737
  0
LINE
  8
画層0
  6
CONTINUOUS
 62
7
 10
145.628753013369
 20
88.2918584264737
 11
142.628753013369
 21
87.4880114264737
  0
LINE
  8
画層0
  6
CONTINUOUS
 62
7
 10
145.628753013369
 20
88.2918584264737
 11
142.628753013369
 21
88.2918584264737
  0
LINE
  8
画層1
  6
CONTINUOUS
 62
7
 10
222.128753013368
 20
87.2918584264737
 11
222.128753013368
 21
101.591858426474
  0
LINE
  8
画層1
  6
CONTINUOUS
 62
7
 10
148.628753013369
 20
88.2918584264737
 11
219.128753013368
 21
88.2918584264737
  0
TEXT
  8
画層1
 62
7
  6
BYLAYER
 62
7
 10
180.678753013368
 20
88.8251584264737
 40
3.2
  1
76.5
  7
Font_0
 72
1
 11
183.878753013368
 21
90.4251584264737
 73
2
  0
LINE
  8
画層0
  6
CONTINUOUS
 62
7
 10
148.628753013369
 20
87.4880114264737
 11
145.628753013369
 21
88.2918584264737
  0
LINE
  8
画層0
  6
CONTINUOUS
 62
7
 10
145.628753013369
 20
88.2918584264737
 11
148.628753013369
 21
89.0957054264737
  0
LINE
  8
画層0
  6
CONTINUOUS
 62
7
 10
145.628753013369
 20
88.2918584264737
 11
148.628753013369
 21
88.2918584264737
  0
LINE
  8
画層0
  6
CONTINUOUS
 62
7
 10
219.128753013368
 20
89.0957054264737
 11
222.128753013368
 21
88.2918584264737
  0
LINE
  8
画層0
  6
CONTINUOUS
 62
7
 10
222.128753013368
 20
88.2918584264737
 11
219.128753013368
 21
87.4880114264737
  0
LINE
  8
画層0
  6
CONTINUOUS
 62
7
 10
222.128753013368
 20
88.2918584264737
 11
219.128753013368
 21
88.2918584264737
  0
LINE
  8
画層1
  6
CONTINUOUS
 62
7
 10
226.128753013368
 20
87.2918584264737
 11
226.128753013368
 21
104.691858426474
  0
LINE
  8
画層1
  6
CONTINUOUS
 62
7
 10
222.128753013368
 20
88.2918584264737
 11
226.128753013368
 21
88.2918584264737
  0
LINE
  8
画層1
  6
CONTINUOUS
 62
7
 10
220.128753013368
 20
88.2918584264737
 11
218.128753013368
 21
88.2918584264737
  0
LINE
  8
画層1
  6
CONTINUOUS
 62
7
 10
229.128753013368
 20
88.2918584264737
 11
232.795386346702
 21
88.2918584264737
  0
TEXT
  8
画層1
 62
7
  6
BYLAYER
 62
7
 10
230.928719680035
 20
88.8251584264737
 40
3.2
  1
4
  7
Font_0
 72
1
 11
231.728719680035
 21
90.4251584264737
 73
2
  0
LINE
  8
画層0
  6
CONTINUOUS
 62
7
 10
222.128753013368
 20
88.2918584264737
 11
220.128753013368
 21
88.2918584264737
  0
LINE
  8
画層0
  6
CONTINUOUS
 62
7
 10
229.128753013368
 20
87.4880114264737
 11
226.128753013368
 21
88.2918584264737
  0
LINE
  8
画層0
  6
CONTINUOUS
 62
7
 10
226.128753013368
 20
88.2918584264737
 11
229.128753013368
 21
89.0957054264737
  0
LINE
  8
画層0
  6
CONTINUOUS
 62
7
 10
226.128753013368
 20
88.2918584264737
 11
229.128753013368
 21
88.2918584264737
  0
LINE
  8
画層1
  6
CONTINUOUS
 62
7
 10
136.830243416869
 20
125.791858426474
 11
144.928753013368
 21
125.791858426474
  0
LINE
  8
画層1
  6
CONTINUOUS
 62
7
 10
136.830243416869
 20
109.791858426474
 11
144.928753013368
 21
109.791858426474
  0
LINE
  8
画層1
  6
CONTINUOUS
 62
7
 10
137.830243416869
 20
122.791858426474
 11
137.830243416869
 21
112.791858426474
  0
TEXT
  8
画層1
 62
7
  6
BYLAYER
 62
7
 10
137.296943416869
 20
114.591858426474
 40
3.2
  1
%%c16
  7
Font_0
 50
90
 72
1
 11
135.696943416869
 21
117.791858426474
 73
2
  0
LINE
  8
画層0
  6
CONTINUOUS
 62
7
 10
137.026396416869
 20
122.791858426474
 11
137.830243416869
 21
125.791858426474
  0
LINE
  8
画層0
  6
CONTINUOUS
 62
7
 10
137.830243416869
 20
125.791858426474
 11
138.634090416869
 21
122.791858426474
  0
LINE
  8
画層0
  6
CONTINUOUS
 62
7
 10
137.830243416869
 20
125.791858426474
 11
137.830243416869
 21
122.791858426474
  0
LINE
  8
画層0
  6
CONTINUOUS
 62
7
 10
138.634090416869
 20
112.791858426474
 11
137.830243416869
 21
109.791858426474
  0
LINE
  8
画層0
  6
CONTINUOUS
 62
7
 10
137.830243416869
 20
109.791858426474
 11
137.026396416869
 21
112.791858426474
  0
LINE
  8
画層0
  6
CONTINUOUS
 62
7
 10
137.830243416869
 20
109.791858426474
 11
137.830243416869
 21
112.791858426474
  0
TEXT
  8
画層0
 62
7
  6
CONTINUOUS
 62
7
 10
65.6287530133684
 20
147.191858426474
 40
3.2
  1
０．０６％
  7
Font_0
 72
1
 11
73.6287530133684
 21
148.791858426474
 73
2
  0
TEXT
  8
画層0
 62
7
  6
CONTINUOUS
 62
7
 10
67.2287530133684
 20
134.391858426474
 40
3.2
  1
２／３″
  7
Font_0
 72
1
 11
73.6287530133684
 21
135.991858426474
 73
2
  0
TEXT
  8
画層0
 62
7
  6
CONTINUOUS
 62
7
 10
70.4287530133684
 20
140.791858426474
 40
3.2
  1
４０
  7
Font_0
 72
1
 11
73.6287530133684
 21
142.391858426474
 73
2
  0
TEXT
  8
画層0
 62
7
  6
CONTINUOUS
 62
7
 10
65.6287530133684
 20
153.591858426474
 40
3.2
  1
０．０７３
  7
Font_0
 72
1
 11
73.6287530133684
 21
155.191858426474
 73
2
  0
TEXT
  8
画層0
 62
7
  6
CONTINUOUS
 62
7
 10
67.2287530133684
 20
159.991858426474
 40
3.2
  1
２６．８
  7
Font_0
 72
1
 11
73.6287530133684
 21
161.591858426474
 73
2
  0
TEXT
  8
画層0
 62
7
  6
CONTINUOUS
 62
7
 10
67.2287530133684
 20
166.391858426474
 40
3.2
  1
４．６μ
  7
Font_0
 72
1
 11
73.6287530133684
 21
167.991858426474
 73
2
  0
TEXT
  8
画層0
 62
7
  6
CONTINUOUS
 62
7
 10
67.2287530133684
 20
172.791858426474
 40
3.2
  1
１３０μ
  7
Font_0
 72
1
 11
73.6287530133684
 21
174.391858426474
 73
2
  0
TEXT
  8
画層0
 62
7
  6
CONTINUOUS
 62
7
 10
64.0287530133685
 20
179.191858426474
 40
3.2
  1
６４．８ｍｍ
  7
Font_0
 72
1
 11
73.6287530133684
 21
180.791858426474
 73
2
  0
TEXT
  8
画層0
 62
7
  6
CONTINUOUS
 62
7
 10
62.4287530133684
 20
185.591858426474
 40
3.2
  1
１５８．８ｍｍ
  7
Font_0
 72
1
 11
73.6287530133684
 21
187.191858426474
 73
2
  0
TEXT
  8
画層0
 62
7
  6
CONTINUOUS
 62
7
 10
68.8287530133685
 20
191.991858426474
 40
3.2
  1
４．０
  7
Font_0
 72
1
 11
73.6287530133684
 21
193.591858426474
 73
2
  0
LINE
  8
画層0
  6
CONTINUOUS
 62
7
 10
88.6287530133684
 20
132.791858426474
 11
16.6287530133685
 21
132.791858426474
  0
LINE
  8
画層0
  6
CONTINUOUS
 62
7
 10
88.6287530133684
 20
139.191858426474
 11
16.6287530133685
 21
139.191858426474
  0
LINE
  8
画層0
  6
CONTINUOUS
 62
7
 10
88.6287530133684
 20
145.591858426474
 11
16.6287530133685
 21
145.591858426474
  0
LINE
  8
画層0
  6
CONTINUOUS
 62
7
 10
16.6287530133685
 20
151.991858426474
 11
88.6287530133684
 21
151.991858426474
  0
LINE
  8
画層0
  6
CONTINUOUS
 62
7
 10
88.6287530133684
 20
158.391858426474
 11
16.6287530133685
 21
158.391858426474
  0
LINE
  8
画層0
  6
CONTINUOUS
 62
7
 10
16.6287530133685
 20
164.791858426474
 11
88.6287530133684
 21
164.791858426474
  0
LINE
  8
画層0
  6
CONTINUOUS
 62
7
 10
88.6287530133684
 20
171.191858426474
 11
16.6287530133685
 21
171.191858426474
  0
LINE
  8
画層0
  6
CONTINUOUS
 62
7
 10
16.6287530133685
 20
177.591858426474
 11
88.6287530133684
 21
177.591858426474
  0
LINE
  8
画層0
  6
CONTINUOUS
 62
7
 10
88.6287530133684
 20
183.991858426474
 11
16.6287530133685
 21
183.991858426474
  0
LINE
  8
画層0
  6
CONTINUOUS
 62
7
 10
16.6287530133685
 20
190.391858426474
 11
88.6287530133684
 21
190.391858426474
  0
LINE
  8
画層0
  6
CONTINUOUS
 62
7
 10
16.6287530133685
 20
196.791858426474
 11
16.6287530133685
 21
132.791858426474
  0
LINE
  8
画層0
  6
CONTINUOUS
 62
7
 10
88.6287530133684
 20
196.791858426474
 11
16.6287530133685
 21
196.791858426474
  0
LINE
  8
画層0
  6
CONTINUOUS
 62
7
 10
88.6287530133684
 20
132.791858426474
 11
88.6287530133684
 21
196.791858426474
  0
TEXT
  8
画層0
 62
7
  6
BYLAYER
 62
7
 10
18.6287530133685
 20
134.391858426474
 40
3.2
  1
対応素子サイズ
  7
Font_0
 11
18.6287530133685
 21
135.991858426474
 73
2
  0
TEXT
  8
画層0
 62
7
  6
BYLAYER
 62
7
 10
18.6287530133685
 20
140.791858426474
 40
3.2
  1
重量
  7
Font_0
 11
18.6287530133685
 21
142.391858426474
 73
2
  0
TEXT
  8
画層0
 62
7
  6
BYLAYER
 62
7
 10
18.6287530133685
 20
147.191858426474
 40
3.2
  1
ＴＶディストーション
  7
Font_0
 11
18.6287530133685
 21
148.791858426474
 73
2
  0
TEXT
  8
画層0
 62
7
  6
BYLAYER
 62
7
 10
18.6287530133685
 20
153.591858426474
 40
3.2
  1
Ｎ．Ａ．
  7
Font_0
 11
18.6287530133685
 21
155.191858426474
 73
2
  0
TEXT
  8
画層0
 62
7
  6
BYLAYER
 62
7
 10
18.6287530133685
 20
159.991858426474
 40
3.2
  1
有効Ｆナンバー
  7
Font_0
 11
18.6287530133685
 21
161.591858426474
 73
2
  0
TEXT
  8
画層0
 62
7
  6
BYLAYER
 62
7
 10
18.6287530133685
 20
166.391858426474
 40
3.2
  1
分解能
  7
Font_0
 11
18.6287530133685
 21
167.991858426474
 73
2
  0
TEXT
  8
画層0
 62
7
  6
BYLAYER
 62
7
 10
18.6287530133685
 20
172.791858426474
 40
3.2
  1
被写界深度
  7
Font_0
 11
18.6287530133685
 21
174.391858426474
 73
2
  0
TEXT
  8
画層0
 62
7
  6
BYLAYER
 62
7
 10
18.6287530133685
 20
179.191858426474
 40
3.2
  1
Ｗ．Ｄ．
  7
Font_0
 11
18.6287530133685
 21
180.791858426474
 73
2
  0
TEXT
  8
画層0
 62
7
  6
BYLAYER
 62
7
 10
18.6287530133685
 20
185.591858426474
 40
3.2
  1
Ｏ／Ｉ
  7
Font_0
 11
18.6287530133685
 21
187.191858426474
 73
2
  0
TEXT
  8
画層0
 62
7
  6
BYLAYER
 62
7
 10
18.6287530133685
 20
191.991858426474
 40
3.2
  1
倍率
  7
Font_0
 11
18.6287530133685
 21
193.591858426474
 73
2
  0
LINE
  8
画層0
  6
CONTINUOUS
 62
7
 10
58.6287530133684
 20
196.791858426474
 11
58.6287530133684
 21
132.791858426474
  0
LINE
  8
画層1
  6
CONTINUOUS
 62
7
 10
246.445382354588
 20
102.291858426474
 11
222.828753013368
 21
102.291858426474
  0
LINE
  8
画層1
  6
CONTINUOUS
 62
7
 10
246.445382354588
 20
133.291858426474
 11
222.828753013368
 21
133.291858426474
  0
LINE
  8
画層1
  6
CONTINUOUS
 62
7
 10
245.445382354588
 20
105.291858426474
 11
245.445382354588
 21
130.291858426474
  0
TEXT
  8
画層1
 62
7
  6
BYLAYER
 62
7
 10
244.912082354588
 20
114.591858426474
 40
3.2
  1
%%c31
  7
Font_0
 50
90
 72
1
 11
243.312082354588
 21
117.791858426474
 73
2
  0
LINE
  8
画層0
  6
CONTINUOUS
 62
7
 10
246.249229354588
 20
105.291858426474
 11
245.445382354588
 21
102.291858426474
  0
LINE
  8
画層0
  6
CONTINUOUS
 62
7
 10
245.445382354588
 20
102.291858426474
 11
244.641535354588
 21
105.291858426474
  0
LINE
  8
画層0
  6
CONTINUOUS
 62
7
 10
245.445382354588
 20
102.291858426474
 11
245.445382354588
 21
105.291858426474
  0
LINE
  8
画層0
  6
CONTINUOUS
 62
7
 10
244.641535354588
 20
130.291858426474
 11
245.445382354588
 21
133.291858426474
  0
LINE
  8
画層0
  6
CONTINUOUS
 62
7
 10
245.445382354588
 20
133.291858426474
 11
246.249229354588
 21
130.291858426474
  0
LINE
  8
画層0
  6
CONTINUOUS
 62
7
 10
245.445382354588
 20
133.291858426474
 11
245.445382354588
 21
130.291858426474
  0
LINE
  8
画層1
  6
CONTINUOUS
 62
7
 10
240.46054924085
 20
105.091858426474
 11
226.528753013368
 21
105.091858426474
  0
LINE
  8
画層1
  6
CONTINUOUS
 62
7
 10
240.46054924085
 20
130.491858426474
 11
226.528753013368
 21
130.491858426474
  0
LINE
  8
画層1
  6
CONTINUOUS
 62
7
 10
239.46054924085
 20
108.091858426474
 11
239.46054924085
 21
127.491858426474
  0
TEXT
  8
画層1
 62
7
  6
BYLAYER
 62
7
 10
238.927249240851
 20
109.791858426474
 40
3.2
  1
Ｃマウント
  7
Font_0
 50
90
 72
1
 11
237.327249240851
 21
117.791858426474
 73
2
  0
LINE
  8
画層0
  6
CONTINUOUS
 62
7
 10
240.26439624085
 20
108.091858426474
 11
239.46054924085
 21
105.091858426474
  0
LINE
  8
画層0
  6
CONTINUOUS
 62
7
 10
239.46054924085
 20
105.091858426474
 11
238.65670224085
 21
108.091858426474
  0
LINE
  8
画層0
  6
CONTINUOUS
 62
7
 10
239.46054924085
 20
105.091858426474
 11
239.46054924085
 21
108.091858426474
  0
LINE
  8
画層0
  6
CONTINUOUS
 62
7
 10
238.65670224085
 20
127.491858426474
 11
239.46054924085
 21
130.491858426474
  0
LINE
  8
画層0
  6
CONTINUOUS
 62
7
 10
239.46054924085
 20
130.491858426474
 11
240.26439624085
 21
127.491858426474
  0
LINE
  8
画層0
  6
CONTINUOUS
 62
7
 10
239.46054924085
 20
130.491858426474
 11
239.46054924085
 21
127.491858426474
  0
ENDSEC
  0
EOF
