999
Outputted By AR_CAD Ver.1.5.2a
  0
SECTION
  2
HEADER
  9
$ACADVER
  1
AC1009
  9
$DWGCODEPAGE
  3
DOS932
  9
$EXTMIN
 10
0
 20
0
  9
$EXTMAX
 10
297
 20
210
  9
$INSBASE
 10
0.0
 20
0.0
 30
0.0
  9
$HANDLING
 70
     1
  9
$LTSCALE
 40
1
  0
ENDSEC
  0
SECTION
  2
TABLES
  0
TABLE
  2
LTYPE
 70
     8
  0
LTYPE
  2
BYBLOCK
 70
    64
 3

 72
    65
 73
    0
 40
    0
  0
LTYPE
  2
BYLAYER
 70
    64
 3

 72
    65
 73
    0
 40
    0
  0
LTYPE
  2
CONTINUOUS
 70
    64
 3
CONTINUOUS
 72
    65
 73
    0
 40
    0
  0
LTYPE
  2
DASHED
 70
    64
 3

 72
    65
 73
    2
 40
    3.5
 49
    2.91666666666667
 49
    -0.583333333333333
  0
LTYPE
  2
DOT
 70
    64
 3

 72
    65
 73
    2
 40
    0.5
 49
    0.25
 49
    -0.25
  0
LTYPE
  2
DASHDOT
 70
    64
 3

 72
    65
 73
    4
 40
    3.5
 49
    1.84210526315789
 49
    -0.552631578947368
 49
    0.552631578947368
 49
    -0.552631578947368
  0
LTYPE
  2
DIVIDE
 70
    64
 3

 72
    65
 73
    6
 40
    3.5
 49
    1.4
 49
    -0.42
 49
    0.42
 49
    -0.42
 49
    0.42
 49
    -0.42
  0
LTYPE
  2
HIDDEN
 70
    64
 3

 72
    65
 73
    2
 40
    4
 49
    2
 49
    -2
  0
LTYPE
  2
CENTER
 70
    64
 3

 72
    65
 73
    4
 40
    50.8
 49
    31.75
 49
    -6.35
 49
    6.35
 49
    -6.35
  0
ENDTAB
  0
TABLE
  2
LAYER
 70
   257
  0
LAYER
  2
画層0
 70
    0
 62
7
  6
CONTINUOUS
  0
LAYER
  2
画層1
 70
    0
 62
3
  6
CONTINUOUS
  0
LAYER
  2
画層2
 70
    0
 62
9
  6
CONTINUOUS
  0
LAYER
  2
画層3
 70
    0
 62
7
  6
CONTINUOUS
  0
LAYER
  2
画層4
 70
    0
 62
6
  6
CONTINUOUS
  0
LAYER
  2
画層5
 70
    0
 62
1
  6
CONTINUOUS
  0
LAYER
  2
画層6
 70
    0
 62
7
  6
CONTINUOUS
  0
LAYER
  2
画層7
 70
    0
 62
51
  6
CONTINUOUS
  0
LAYER
  2
画層8
 70
    0
 62
61
  6
CONTINUOUS
  0
LAYER
  2
画層9
 70
    0
 62
111
  6
CONTINUOUS
  0
LAYER
  2
画層10
 70
    0
 62
91
  6
CONTINUOUS
  0
LAYER
  2
画層11
 70
    0
 62
131
  6
CONTINUOUS
  0
LAYER
  2
画層12
 70
    0
 62
161
  6
CONTINUOUS
  0
LAYER
  2
画層13
 70
    0
 62
5
  6
CONTINUOUS
  0
LAYER
  2
画層14
 70
    0
 62
7
  6
CONTINUOUS
  0
LAYER
  2
画層15
 70
    0
 62
11
  6
CONTINUOUS
  0
LAYER
  2
画層16
 70
    0
 62
7
  6
CONTINUOUS
  0
LAYER
  2
画層17
 70
    0
 62
70
  6
CONTINUOUS
  0
LAYER
  2
画層18
 70
    0
 62
211
  6
CONTINUOUS
  0
LAYER
  2
画層19
 70
    0
 62
137
  6
CONTINUOUS
  0
LAYER
  2
画層20
 70
    0
 62
4
  6
CONTINUOUS
  0
LAYER
  2
画層21
 70
    0
 62
131
  6
CONTINUOUS
  0
LAYER
  2
画層22
 70
    0
 62
4
  6
CONTINUOUS
  0
LAYER
  2
画層23
 70
    0
 62
4
  6
CONTINUOUS
  0
LAYER
  2
画層24
 70
    0
 62
7
  6
CONTINUOUS
  0
LAYER
  2
画層25
 70
    0
 62
7
  6
CONTINUOUS
  0
LAYER
  2
画層26
 70
    0
 62
7
  6
CONTINUOUS
  0
LAYER
  2
画層27
 70
    0
 62
7
  6
CONTINUOUS
  0
LAYER
  2
画層28
 70
    0
 62
7
  6
CONTINUOUS
  0
LAYER
  2
画層29
 70
    0
 62
7
  6
CONTINUOUS
  0
LAYER
  2
画層30
 70
    0
 62
7
  6
CONTINUOUS
  0
LAYER
  2
画層31
 70
    0
 62
7
  6
CONTINUOUS
  0
LAYER
  2
画層32
 70
    0
 62
7
  6
CONTINUOUS
  0
LAYER
  2
画層33
 70
    0
 62
7
  6
CONTINUOUS
  0
LAYER
  2
画層34
 70
    0
 62
7
  6
CONTINUOUS
  0
LAYER
  2
画層35
 70
    0
 62
7
  6
CONTINUOUS
  0
LAYER
  2
画層36
 70
    0
 62
7
  6
CONTINUOUS
  0
LAYER
  2
画層37
 70
    0
 62
7
  6
CONTINUOUS
  0
LAYER
  2
画層38
 70
    0
 62
7
  6
CONTINUOUS
  0
LAYER
  2
画層39
 70
    0
 62
7
  6
CONTINUOUS
  0
LAYER
  2
画層40
 70
    0
 62
7
  6
CONTINUOUS
  0
LAYER
  2
画層41
 70
    0
 62
7
  6
CONTINUOUS
  0
LAYER
  2
画層42
 70
    0
 62
7
  6
CONTINUOUS
  0
LAYER
  2
画層43
 70
    0
 62
7
  6
CONTINUOUS
  0
LAYER
  2
画層44
 70
    0
 62
7
  6
CONTINUOUS
  0
LAYER
  2
画層45
 70
    0
 62
7
  6
CONTINUOUS
  0
LAYER
  2
画層46
 70
    0
 62
7
  6
CONTINUOUS
  0
LAYER
  2
画層47
 70
    0
 62
7
  6
CONTINUOUS
  0
LAYER
  2
画層48
 70
    0
 62
7
  6
CONTINUOUS
  0
LAYER
  2
画層49
 70
    0
 62
7
  6
CONTINUOUS
  0
LAYER
  2
画層50
 70
    0
 62
7
  6
CONTINUOUS
  0
LAYER
  2
画層51
 70
    0
 62
7
  6
CONTINUOUS
  0
LAYER
  2
画層52
 70
    0
 62
7
  6
CONTINUOUS
  0
LAYER
  2
画層53
 70
    0
 62
7
  6
CONTINUOUS
  0
LAYER
  2
画層54
 70
    0
 62
7
  6
CONTINUOUS
  0
LAYER
  2
画層55
 70
    0
 62
7
  6
CONTINUOUS
  0
LAYER
  2
画層56
 70
    0
 62
7
  6
CONTINUOUS
  0
LAYER
  2
画層57
 70
    0
 62
7
  6
CONTINUOUS
  0
LAYER
  2
画層58
 70
    0
 62
7
  6
CONTINUOUS
  0
LAYER
  2
画層59
 70
    0
 62
7
  6
CONTINUOUS
  0
LAYER
  2
画層60
 70
    0
 62
7
  6
CONTINUOUS
  0
LAYER
  2
画層61
 70
    0
 62
7
  6
CONTINUOUS
  0
LAYER
  2
画層62
 70
    0
 62
7
  6
CONTINUOUS
  0
LAYER
  2
画層63
 70
    0
 62
7
  6
CONTINUOUS
  0
LAYER
  2
画層64
 70
    0
 62
7
  6
CONTINUOUS
  0
LAYER
  2
画層65
 70
    0
 62
7
  6
CONTINUOUS
  0
LAYER
  2
画層66
 70
    0
 62
7
  6
CONTINUOUS
  0
LAYER
  2
画層67
 70
    0
 62
7
  6
CONTINUOUS
  0
LAYER
  2
画層68
 70
    0
 62
7
  6
CONTINUOUS
  0
LAYER
  2
画層69
 70
    0
 62
7
  6
CONTINUOUS
  0
LAYER
  2
画層70
 70
    0
 62
7
  6
CONTINUOUS
  0
LAYER
  2
画層71
 70
    0
 62
7
  6
CONTINUOUS
  0
LAYER
  2
画層72
 70
    0
 62
7
  6
CONTINUOUS
  0
LAYER
  2
画層73
 70
    0
 62
7
  6
CONTINUOUS
  0
LAYER
  2
画層74
 70
    0
 62
7
  6
CONTINUOUS
  0
LAYER
  2
画層75
 70
    0
 62
7
  6
CONTINUOUS
  0
LAYER
  2
画層76
 70
    0
 62
7
  6
CONTINUOUS
  0
LAYER
  2
画層77
 70
    0
 62
7
  6
CONTINUOUS
  0
LAYER
  2
画層78
 70
    0
 62
7
  6
CONTINUOUS
  0
LAYER
  2
画層79
 70
    0
 62
7
  6
CONTINUOUS
  0
LAYER
  2
画層80
 70
    0
 62
7
  6
CONTINUOUS
  0
LAYER
  2
画層81
 70
    0
 62
7
  6
CONTINUOUS
  0
LAYER
  2
画層82
 70
    0
 62
7
  6
CONTINUOUS
  0
LAYER
  2
画層83
 70
    0
 62
7
  6
CONTINUOUS
  0
LAYER
  2
画層84
 70
    0
 62
7
  6
CONTINUOUS
  0
LAYER
  2
画層85
 70
    0
 62
7
  6
CONTINUOUS
  0
LAYER
  2
画層86
 70
    0
 62
7
  6
CONTINUOUS
  0
LAYER
  2
画層87
 70
    0
 62
7
  6
CONTINUOUS
  0
LAYER
  2
画層88
 70
    0
 62
7
  6
CONTINUOUS
  0
LAYER
  2
画層89
 70
    0
 62
7
  6
CONTINUOUS
  0
LAYER
  2
画層90
 70
    0
 62
7
  6
CONTINUOUS
  0
LAYER
  2
画層91
 70
    0
 62
7
  6
CONTINUOUS
  0
LAYER
  2
画層92
 70
    0
 62
7
  6
CONTINUOUS
  0
LAYER
  2
画層93
 70
    0
 62
7
  6
CONTINUOUS
  0
LAYER
  2
画層94
 70
    0
 62
7
  6
CONTINUOUS
  0
LAYER
  2
画層95
 70
    0
 62
7
  6
CONTINUOUS
  0
LAYER
  2
画層96
 70
    0
 62
7
  6
CONTINUOUS
  0
LAYER
  2
画層97
 70
    0
 62
7
  6
CONTINUOUS
  0
LAYER
  2
画層98
 70
    0
 62
7
  6
CONTINUOUS
  0
LAYER
  2
画層99
 70
    0
 62
7
  6
CONTINUOUS
  0
LAYER
  2
画層100
 70
    0
 62
7
  6
CONTINUOUS
  0
LAYER
  2
画層101
 70
    0
 62
7
  6
CONTINUOUS
  0
LAYER
  2
画層102
 70
    0
 62
7
  6
CONTINUOUS
  0
LAYER
  2
画層103
 70
    0
 62
7
  6
CONTINUOUS
  0
LAYER
  2
画層104
 70
    0
 62
7
  6
CONTINUOUS
  0
LAYER
  2
画層105
 70
    0
 62
7
  6
CONTINUOUS
  0
LAYER
  2
画層106
 70
    0
 62
7
  6
CONTINUOUS
  0
LAYER
  2
画層107
 70
    0
 62
7
  6
CONTINUOUS
  0
LAYER
  2
画層108
 70
    0
 62
7
  6
CONTINUOUS
  0
LAYER
  2
画層109
 70
    0
 62
7
  6
CONTINUOUS
  0
LAYER
  2
画層110
 70
    0
 62
7
  6
CONTINUOUS
  0
LAYER
  2
画層111
 70
    0
 62
7
  6
CONTINUOUS
  0
LAYER
  2
画層112
 70
    0
 62
7
  6
CONTINUOUS
  0
LAYER
  2
画層113
 70
    0
 62
7
  6
CONTINUOUS
  0
LAYER
  2
画層114
 70
    0
 62
7
  6
CONTINUOUS
  0
LAYER
  2
画層115
 70
    0
 62
7
  6
CONTINUOUS
  0
LAYER
  2
画層116
 70
    0
 62
7
  6
CONTINUOUS
  0
LAYER
  2
画層117
 70
    0
 62
7
  6
CONTINUOUS
  0
LAYER
  2
画層118
 70
    0
 62
7
  6
CONTINUOUS
  0
LAYER
  2
画層119
 70
    0
 62
7
  6
CONTINUOUS
  0
LAYER
  2
画層120
 70
    0
 62
7
  6
CONTINUOUS
  0
LAYER
  2
画層121
 70
    0
 62
7
  6
CONTINUOUS
  0
LAYER
  2
画層122
 70
    0
 62
7
  6
CONTINUOUS
  0
LAYER
  2
画層123
 70
    0
 62
7
  6
CONTINUOUS
  0
LAYER
  2
画層124
 70
    0
 62
7
  6
CONTINUOUS
  0
LAYER
  2
画層125
 70
    0
 62
7
  6
CONTINUOUS
  0
LAYER
  2
画層126
 70
    0
 62
7
  6
CONTINUOUS
  0
LAYER
  2
画層127
 70
    0
 62
7
  6
CONTINUOUS
  0
LAYER
  2
画層128
 70
    0
 62
7
  6
CONTINUOUS
  0
LAYER
  2
画層129
 70
    0
 62
7
  6
CONTINUOUS
  0
LAYER
  2
画層130
 70
    0
 62
7
  6
CONTINUOUS
  0
LAYER
  2
画層131
 70
    0
 62
7
  6
CONTINUOUS
  0
LAYER
  2
画層132
 70
    0
 62
7
  6
CONTINUOUS
  0
LAYER
  2
画層133
 70
    0
 62
7
  6
CONTINUOUS
  0
LAYER
  2
画層134
 70
    0
 62
7
  6
CONTINUOUS
  0
LAYER
  2
画層135
 70
    0
 62
7
  6
CONTINUOUS
  0
LAYER
  2
画層136
 70
    0
 62
7
  6
CONTINUOUS
  0
LAYER
  2
画層137
 70
    0
 62
7
  6
CONTINUOUS
  0
LAYER
  2
画層138
 70
    0
 62
7
  6
CONTINUOUS
  0
LAYER
  2
画層139
 70
    0
 62
7
  6
CONTINUOUS
  0
LAYER
  2
画層140
 70
    0
 62
7
  6
CONTINUOUS
  0
LAYER
  2
画層141
 70
    0
 62
7
  6
CONTINUOUS
  0
LAYER
  2
画層142
 70
    0
 62
7
  6
CONTINUOUS
  0
LAYER
  2
画層143
 70
    0
 62
7
  6
CONTINUOUS
  0
LAYER
  2
画層144
 70
    0
 62
7
  6
CONTINUOUS
  0
LAYER
  2
画層145
 70
    0
 62
7
  6
CONTINUOUS
  0
LAYER
  2
画層146
 70
    0
 62
7
  6
CONTINUOUS
  0
LAYER
  2
画層147
 70
    0
 62
7
  6
CONTINUOUS
  0
LAYER
  2
画層148
 70
    0
 62
7
  6
CONTINUOUS
  0
LAYER
  2
画層149
 70
    0
 62
7
  6
CONTINUOUS
  0
LAYER
  2
画層150
 70
    0
 62
7
  6
CONTINUOUS
  0
LAYER
  2
画層151
 70
    0
 62
7
  6
CONTINUOUS
  0
LAYER
  2
画層152
 70
    0
 62
7
  6
CONTINUOUS
  0
LAYER
  2
画層153
 70
    0
 62
7
  6
CONTINUOUS
  0
LAYER
  2
画層154
 70
    0
 62
7
  6
CONTINUOUS
  0
LAYER
  2
画層155
 70
    0
 62
7
  6
CONTINUOUS
  0
LAYER
  2
画層156
 70
    0
 62
7
  6
CONTINUOUS
  0
LAYER
  2
画層157
 70
    0
 62
7
  6
CONTINUOUS
  0
LAYER
  2
画層158
 70
    0
 62
7
  6
CONTINUOUS
  0
LAYER
  2
画層159
 70
    0
 62
7
  6
CONTINUOUS
  0
LAYER
  2
画層160
 70
    0
 62
7
  6
CONTINUOUS
  0
LAYER
  2
画層161
 70
    0
 62
7
  6
CONTINUOUS
  0
LAYER
  2
画層162
 70
    0
 62
7
  6
CONTINUOUS
  0
LAYER
  2
画層163
 70
    0
 62
7
  6
CONTINUOUS
  0
LAYER
  2
画層164
 70
    0
 62
7
  6
CONTINUOUS
  0
LAYER
  2
画層165
 70
    0
 62
7
  6
CONTINUOUS
  0
LAYER
  2
画層166
 70
    0
 62
7
  6
CONTINUOUS
  0
LAYER
  2
画層167
 70
    0
 62
7
  6
CONTINUOUS
  0
LAYER
  2
画層168
 70
    0
 62
7
  6
CONTINUOUS
  0
LAYER
  2
画層169
 70
    0
 62
7
  6
CONTINUOUS
  0
LAYER
  2
画層170
 70
    0
 62
7
  6
CONTINUOUS
  0
LAYER
  2
画層171
 70
    0
 62
7
  6
CONTINUOUS
  0
LAYER
  2
画層172
 70
    0
 62
7
  6
CONTINUOUS
  0
LAYER
  2
画層173
 70
    0
 62
7
  6
CONTINUOUS
  0
LAYER
  2
画層174
 70
    0
 62
7
  6
CONTINUOUS
  0
LAYER
  2
画層175
 70
    0
 62
7
  6
CONTINUOUS
  0
LAYER
  2
画層176
 70
    0
 62
7
  6
CONTINUOUS
  0
LAYER
  2
画層177
 70
    0
 62
7
  6
CONTINUOUS
  0
LAYER
  2
画層178
 70
    0
 62
7
  6
CONTINUOUS
  0
LAYER
  2
画層179
 70
    0
 62
7
  6
CONTINUOUS
  0
LAYER
  2
画層180
 70
    0
 62
7
  6
CONTINUOUS
  0
LAYER
  2
画層181
 70
    0
 62
7
  6
CONTINUOUS
  0
LAYER
  2
画層182
 70
    0
 62
7
  6
CONTINUOUS
  0
LAYER
  2
画層183
 70
    0
 62
7
  6
CONTINUOUS
  0
LAYER
  2
画層184
 70
    0
 62
7
  6
CONTINUOUS
  0
LAYER
  2
画層185
 70
    0
 62
7
  6
CONTINUOUS
  0
LAYER
  2
画層186
 70
    0
 62
7
  6
CONTINUOUS
  0
LAYER
  2
画層187
 70
    0
 62
7
  6
CONTINUOUS
  0
LAYER
  2
画層188
 70
    0
 62
7
  6
CONTINUOUS
  0
LAYER
  2
画層189
 70
    0
 62
7
  6
CONTINUOUS
  0
LAYER
  2
画層190
 70
    0
 62
7
  6
CONTINUOUS
  0
LAYER
  2
画層191
 70
    0
 62
7
  6
CONTINUOUS
  0
LAYER
  2
画層192
 70
    0
 62
7
  6
CONTINUOUS
  0
LAYER
  2
画層193
 70
    0
 62
7
  6
CONTINUOUS
  0
LAYER
  2
画層194
 70
    0
 62
7
  6
CONTINUOUS
  0
LAYER
  2
画層195
 70
    0
 62
7
  6
CONTINUOUS
  0
LAYER
  2
画層196
 70
    0
 62
7
  6
CONTINUOUS
  0
LAYER
  2
画層197
 70
    0
 62
7
  6
CONTINUOUS
  0
LAYER
  2
画層198
 70
    0
 62
7
  6
CONTINUOUS
  0
LAYER
  2
画層199
 70
    0
 62
7
  6
CONTINUOUS
  0
LAYER
  2
画層200
 70
    0
 62
7
  6
CONTINUOUS
  0
LAYER
  2
画層201
 70
    0
 62
7
  6
CONTINUOUS
  0
LAYER
  2
画層202
 70
    0
 62
7
  6
CONTINUOUS
  0
LAYER
  2
画層203
 70
    0
 62
7
  6
CONTINUOUS
  0
LAYER
  2
画層204
 70
    0
 62
7
  6
CONTINUOUS
  0
LAYER
  2
画層205
 70
    0
 62
7
  6
CONTINUOUS
  0
LAYER
  2
画層206
 70
    0
 62
7
  6
CONTINUOUS
  0
LAYER
  2
画層207
 70
    0
 62
7
  6
CONTINUOUS
  0
LAYER
  2
画層208
 70
    0
 62
7
  6
CONTINUOUS
  0
LAYER
  2
画層209
 70
    0
 62
7
  6
CONTINUOUS
  0
LAYER
  2
画層210
 70
    0
 62
7
  6
CONTINUOUS
  0
LAYER
  2
画層211
 70
    0
 62
7
  6
CONTINUOUS
  0
LAYER
  2
画層212
 70
    0
 62
7
  6
CONTINUOUS
  0
LAYER
  2
画層213
 70
    0
 62
7
  6
CONTINUOUS
  0
LAYER
  2
画層214
 70
    0
 62
7
  6
CONTINUOUS
  0
LAYER
  2
画層215
 70
    0
 62
7
  6
CONTINUOUS
  0
LAYER
  2
画層216
 70
    0
 62
7
  6
CONTINUOUS
  0
LAYER
  2
画層217
 70
    0
 62
7
  6
CONTINUOUS
  0
LAYER
  2
画層218
 70
    0
 62
7
  6
CONTINUOUS
  0
LAYER
  2
画層219
 70
    0
 62
7
  6
CONTINUOUS
  0
LAYER
  2
画層220
 70
    0
 62
7
  6
CONTINUOUS
  0
LAYER
  2
画層221
 70
    0
 62
7
  6
CONTINUOUS
  0
LAYER
  2
画層222
 70
    0
 62
7
  6
CONTINUOUS
  0
LAYER
  2
画層223
 70
    0
 62
7
  6
CONTINUOUS
  0
LAYER
  2
画層224
 70
    0
 62
7
  6
CONTINUOUS
  0
LAYER
  2
画層225
 70
    0
 62
7
  6
CONTINUOUS
  0
LAYER
  2
画層226
 70
    0
 62
7
  6
CONTINUOUS
  0
LAYER
  2
画層227
 70
    0
 62
7
  6
CONTINUOUS
  0
LAYER
  2
画層228
 70
    0
 62
7
  6
CONTINUOUS
  0
LAYER
  2
画層229
 70
    0
 62
7
  6
CONTINUOUS
  0
LAYER
  2
画層230
 70
    0
 62
7
  6
CONTINUOUS
  0
LAYER
  2
画層231
 70
    0
 62
7
  6
CONTINUOUS
  0
LAYER
  2
画層232
 70
    0
 62
7
  6
CONTINUOUS
  0
LAYER
  2
画層233
 70
    0
 62
7
  6
CONTINUOUS
  0
LAYER
  2
画層234
 70
    0
 62
7
  6
CONTINUOUS
  0
LAYER
  2
画層235
 70
    0
 62
7
  6
CONTINUOUS
  0
LAYER
  2
画層236
 70
    0
 62
7
  6
CONTINUOUS
  0
LAYER
  2
画層237
 70
    0
 62
7
  6
CONTINUOUS
  0
LAYER
  2
画層238
 70
    0
 62
7
  6
CONTINUOUS
  0
LAYER
  2
画層239
 70
    0
 62
7
  6
CONTINUOUS
  0
LAYER
  2
画層240
 70
    0
 62
7
  6
CONTINUOUS
  0
LAYER
  2
画層241
 70
    0
 62
7
  6
CONTINUOUS
  0
LAYER
  2
画層242
 70
    0
 62
7
  6
CONTINUOUS
  0
LAYER
  2
画層243
 70
    0
 62
7
  6
CONTINUOUS
  0
LAYER
  2
画層244
 70
    0
 62
7
  6
CONTINUOUS
  0
LAYER
  2
画層245
 70
    0
 62
7
  6
CONTINUOUS
  0
LAYER
  2
画層246
 70
    0
 62
7
  6
CONTINUOUS
  0
LAYER
  2
画層247
 70
    0
 62
7
  6
CONTINUOUS
  0
LAYER
  2
画層248
 70
    0
 62
7
  6
CONTINUOUS
  0
LAYER
  2
画層249
 70
    0
 62
7
  6
CONTINUOUS
  0
LAYER
  2
画層250
 70
    0
 62
7
  6
CONTINUOUS
  0
LAYER
  2
画層251
 70
    0
 62
7
  6
CONTINUOUS
  0
LAYER
  2
画層252
 70
    0
 62
7
  6
CONTINUOUS
  0
LAYER
  2
画層253
 70
    0
 62
7
  6
CONTINUOUS
  0
LAYER
  2
画層254
 70
    0
 62
7
  6
CONTINUOUS
  0
LAYER
  2
画層255
 70
    0
 62
7
  6
CONTINUOUS
  0
LAYER
  2
0
 70
   64
 62
    7
  6
CONTINUOUS
  0
ENDTAB
  0
TABLE
  2
STYLE
 70
     1
  0
STYLE
  2
Standard
 70
     0
 40
0.0
 41
1.0
 50
0.0
 71
     0
 42
3.2
  3
TXT
  4
BIGFONT
  0
STYLE
  2
Font_0
 70
     0
 40
0.0
 41
1.0
 50
0.0
 71
     0
 42
3.2
  3
txt
  4
BIGFONT
  0
ENDTAB
  0
ENDSEC
  0
SECTION
  2
BLOCKS
  0
BLOCK
  8
画層0
  2
13462_KCAD_FINI
 70
    0
 10
0
 20
0
 30
0.0
  3
13462_KCAD_FINI
  1

  0
LINE
  8
画層0
  6
CONTINUOUS
 62
134
 10
0
 20
0
 11
1.8475208614068
 21
3.2
  0
LINE
  8
画層0
  6
CONTINUOUS
 62
134
 10
1.8475208614068
 20
3.2
 11
-1.8475208614068
 21
3.2
  0
LINE
  8
画層0
  6
CONTINUOUS
 62
134
 10
-1.8475208614068
 20
3.2
 11
0
 21
0
  0
LINE
  8
画層0
  6
CONTINUOUS
 62
134
 10
3.69504172281361
 20
0
 11
5.54256258422041
 21
3.2
  0
LINE
  8
画層0
  6
CONTINUOUS
 62
134
 10
5.54256258422041
 20
3.2
 11
1.8475208614068
 21
3.2
  0
LINE
  8
画層0
  6
CONTINUOUS
 62
134
 10
1.8475208614068
 20
3.2
 11
3.69504172281361
 21
0
  0
LINE
  8
画層0
  6
CONTINUOUS
 62
134
 10
7.39008344562721
 20
0
 11
9.23760430703401
 21
3.2
  0
LINE
  8
画層0
  6
CONTINUOUS
 62
134
 10
9.23760430703401
 20
3.2
 11
5.54256258422041
 21
3.2
  0
LINE
  8
画層0
  6
CONTINUOUS
 62
134
 10
5.54256258422041
 20
3.2
 11
7.39008344562721
 21
0
  0
ENDBLK
  0
ENDSEC
  0
SECTION
  2
ENTITIES
  0
TEXT
  8
画層0
 62
7
  6
CONTINUOUS
 62
7
 10
169.508399999999
 20
19.4859714283775
 40
2.03
 41
0.86
  1
09/08/06
  7
Font_0
 72
1
 11
172.999999999999
 21
20.5009714283775
 73
2
  0
TEXT
  8
画層0
 62
7
  6
CONTINUOUS
 62
7
 10
153.508399999999
 20
19.4859714283775
 40
2.03
 41
0.86
  1
09/08/06
  7
Font_0
 72
1
 11
156.999999999999
 21
20.5009714283775
 73
2
  0
TEXT
  8
画層0
 62
7
  6
CONTINUOUS
 62
7
 10
137.508399999999
 20
19.4859714283775
 40
2.03
 41
0.86
  1
09/08/06
  7
Font_0
 72
1
 11
140.999999999999
 21
20.5009714283775
 73
2
  0
INSERT
  8
画層0
  6
CONTINUOUS
 62
7
  2
13462_KCAD_FINI
 10
202.304958277186
 20
28.8254904571793
 30
0.0
  0
TEXT
  8
画層0
 62
7
  6
CONTINUOUS
 62
7
 10
121.508399999999
 20
19.4859714283775
 40
2.03
 41
0.86
  1
09/08/06
  7
Font_0
 72
1
 11
124.999999999999
 21
20.5009714283775
 73
2
  0
TEXT
  8
画層0
 62
7
  6
CONTINUOUS
 62
7
 10
119.741749998088
 20
23.5729570769705
 40
3.6
 41
0.973750000353902
  1
宇賀田
  7
Font_0
 72
1
 11
124.999999999999
 21
25.3729570769705
 73
2
  0
TEXT
  8
画層0
 62
7
  6
CONTINUOUS
 62
7
 10
152.618124998406
 20
23.5729570769705
 40
3.6
 41
0.973750000353902
  1
藤 田
  7
Font_0
 72
1
 11
156.999999999999
 21
25.3729570769705
 73
2
  0
TEXT
  8
画層0
 62
7
  6
CONTINUOUS
 62
7
 10
201.199999999999
 20
18.7918584264738
 40
4
 41
1.2
  1
C0.1
  7
Font_0
 72
1
 11
205.999999999999
 21
20.7918584264738
 73
2
  0
TEXT
  8
画層0
 62
7
  6
CONTINUOUS
 62
7
 10
168.618124998406
 20
23.5729570769705
 40
3.6
 41
0.973750000353902
  1
藤 田
  7
Font_0
 72
1
 11
172.999999999999
 21
25.3729570769705
 73
2
  0
TEXT
  8
画層0
 62
7
  6
CONTINUOUS
 62
7
 10
135.741749998088
 20
23.5729570769705
 40
3.6
 41
0.973750000353902
  1
宇賀田
  7
Font_0
 72
1
 11
140.999999999999
 21
25.3729570769705
 73
2
  0
TEXT
  8
画層0
 62
7
  6
CENTER
 62
7
 10
101.099999999999
 20
42.7418584264738
 40
3.6
  1
０００
  7
Font_0
 72
1
 11
106.499999999999
 21
44.5418584264738
 73
2
  0
TEXT
  8
画層0
 62
7
  6
CENTER
 62
7
 10
133.799999999999
 20
42.874155053612
 40
3.6
  1
組 立 図
  7
Font_0
 72
1
 11
140.999999999999
 21
44.674155053612
 73
2
  0
TEXT
  8
画層0
 62
7
  6
CENTER
 62
7
 10
172.099999999999
 20
42.7418584264738
 40
3.6
  1
1
  7
Font_0
 72
1
 11
172.999999999999
 21
44.5418584264738
 73
2
  0
TEXT
  8
画層0
 62
7
  6
CENTER
 62
7
 10
191.249999999999
 20
42.7918584264738
 40
3.5
  1
Ａ５０５２ＴＤ
  7
Font_0
 72
1
 11
203.499999999999
 21
44.5418584264738
 73
2
  0
TEXT
  8
画層0
 62
7
  6
CENTER
 62
7
 10
240.25
 20
42.7918584264738
 40
3.5
  1
サテン黒アルマイト
  7
Font_0
 72
1
 11
256
 21
44.5418584264738
 73
2
  0
TEXT
  8
画層0
 62
7
  6
CONTINUOUS
 62
7
 10
241.873608821421
 20
18.7749685877145
 40
4
  1
ＫＶＴ－１００９
  7
Font_0
 72
1
 11
257.873608821421
 21
20.7749685877145
 73
2
  0
TEXT
  8
画層0
 62
7
  6
CONTINUOUS
 62
7
 10
236.975107152584
 20
29.2452769409451
 40
3.3
  1
ＫＣＭ－４Ｄ－６５Ｃ（８）
  7
Font_0
  0
LINE
  8
画層12
  6
CONTINUOUS
 62
7
 10
162.500010891983
 20
8.79185842647382
 11
162.500010891983
 21
11.0953460741072
  0
LINE
  8
画層12
  6
CONTINUOUS
 62
7
 10
161.438186678611
 20
9.57091422716553
 11
161.438186678611
 21
10.1006566408737
  0
LINE
  8
画層12
  6
CONTINUOUS
 62
7
 10
161.438186678611
 20
11.300452915116
 11
161.438186678611
 21
10.895270450651
  0
POLYLINE
  8
画層12
 62
7
  6
CONTINUOUS
 10
0.0
 20
0.0
 30
0.0
 66
1
  0
VERTEX
  8
画層12
 10
162.500010891983
  20
11.0953460741072
  0
VERTEX
  8
画層12
 10
162.484938501777
  20
11.3252173991904
  0
VERTEX
  8
画層12
 10
162.450333172798
  20
11.5460560112755
  0
VERTEX
  8
画層12
 10
162.378226988617
  20
11.7525237868334
  0
VERTEX
  8
画層12
 10
162.257731962061
  20
11.9276446926939
  0
VERTEX
  8
画層12
 10
162.094462522454
  20
12.0695713477623
  0
VERTEX
  8
画層12
 10
161.892233364727
  20
12.1682401853722
  0
VERTEX
  8
画層12
 10
161.683773948902
  20
12.2255946103646
  0
VERTEX
  8
画層12
 10
161.49291474742
  20
12.2561940547973
  0
VERTEX
  8
画層12
 10
161.330898769245
  20
12.2693126247808
  0
SEQEND
100
AcDbEntity
  8
画層12
  0
ARC
  8
画層12
  6
CONTINUOUS
 62
7
 10
161.257197536753
 20
11.300452915116
 40
0.180989141858163
 50
0
 51
90
  0
LINE
  8
画層12
  6
CONTINUOUS
 62
7
 10
158.338839990242
 20
8.79185842647382
 11
162.500010891983
 21
8.79185842647382
  0
LINE
  8
画層12
  6
CONTINUOUS
 62
7
 10
158.33883998944
 20
8.79185842647382
 11
158.338839990242
 21
8.79185842647382
  0
LINE
  8
画層12
  6
CONTINUOUS
 62
7
 10
158.338839990242
 20
9.57091422716553
 11
161.438186678611
 21
9.57091422716553
  0
LINE
  8
画層12
  6
CONTINUOUS
 62
7
 10
161.438186678611
 20
10.1006566408737
 11
158.338839990242
 21
10.1006566408737
  0
LINE
  8
画層12
  6
CONTINUOUS
 62
7
 10
158.338839990242
 20
10.1006566408737
 11
158.338839990242
 21
9.57091422716553
  0
LINE
  8
画層12
  6
CONTINUOUS
 62
7
 10
161.438186678611
 20
10.895270450651
 11
158.338839990242
 21
10.895270450651
  0
POLYLINE
  8
画層12
 62
7
  6
CONTINUOUS
 10
0.0
 20
0.0
 30
0.0
 66
1
  0
VERTEX
  8
画層12
 10
158.338839990242
  20
8.79185842647382
  0
VERTEX
  8
画層12
 10
158.109659210607
  20
8.79905687210743
  0
VERTEX
  8
画層12
 10
157.881197105052
  20
8.8233282578899
  0
VERTEX
  8
画層12
 10
157.683984848079
  20
8.86604334543813
  0
VERTEX
  8
画層12
 10
157.528042640801
  20
8.92312138155319
  0
VERTEX
  8
画層12
 10
157.41041903581
  20
8.98909036323084
  0
VERTEX
  8
画層12
 10
157.31643680841
  20
9.06465827111882
  0
VERTEX
  8
画層12
 10
157.245841675971
  20
9.14945685176335
  0
VERTEX
  8
画層12
 10
157.193425660588
  20
9.23907058204173
  0
VERTEX
  8
画層12
 10
157.157872619601
  20
9.3441528033718
  0
VERTEX
  8
画層12
 10
157.138146102694
  20
9.46201113879022
  0
VERTEX
  8
画層12
 10
157.134430669999
  20
9.5864722362511
  0
SEQEND
100
AcDbEntity
  8
画層12
  0
LINE
  8
画層12
  6
CONTINUOUS
 62
7
 10
157.134430669999
 20
10.1006566408737
 11
157.134430669999
 21
9.57091422716553
  0
POLYLINE
  8
画層12
 62
7
  6
CONTINUOUS
 10
0.0
 20
0.0
 30
0.0
 66
1
  0
VERTEX
  8
画層12
 10
158.338839990242
  20
10.895270450651
  0
VERTEX
  8
画層12
 10
158.109659210607
  20
10.8880720050174
  0
VERTEX
  8
画層12
 10
157.881197105052
  20
10.863800619235
  0
VERTEX
  8
画層12
 10
157.683984848079
  20
10.8210855316867
  0
VERTEX
  8
画層12
 10
157.528042640801
  20
10.7640074955716
  0
VERTEX
  8
画層12
 10
157.41041903581
  20
10.698038513894
  0
VERTEX
  8
画層12
 10
157.31643680841
  20
10.6224706060059
  0
VERTEX
  8
画層12
 10
157.245841675971
  20
10.5376720253614
  0
VERTEX
  8
画層12
 10
157.193425660589
  20
10.4480582950831
  0
VERTEX
  8
画層12
 10
157.157872619601
  20
10.3429760737531
  0
VERTEX
  8
画層12
 10
157.138146102694
  20
10.2251177383345
  0
VERTEX
  8
画層12
 10
157.134430669999
  20
10.1006566408737
  0
SEQEND
100
AcDbEntity
  8
画層12
  0
LINE
  8
画層12
  6
CONTINUOUS
 62
7
 10
157.214724530654
 20
11.4814420569741
 11
161.257197536753
 21
11.4814420569741
  0
LINE
  8
画層12
  6
CONTINUOUS
 62
7
 10
157.214724530654
 20
12.2693126247808
 11
157.214724530654
 21
11.4814420569741
  0
LINE
  8
画層12
  6
CONTINUOUS
 62
7
 10
161.330898769245
 20
12.2693126247808
 11
157.214724530654
 21
12.2693126247808
  0
LINE
  8
画層12
  6
CONTINUOUS
 62
7
 10
156.575509540345
 20
11.2195756020039
 11
156.575509540345
 21
8.79185842647382
  0
LINE
  8
画層12
  6
CONTINUOUS
 62
7
 10
156.575509540345
 20
8.79185842647382
 11
155.515629239802
 21
8.79185842647382
  0
LINE
  8
画層12
  6
CONTINUOUS
 62
7
 10
155.515629239802
 20
8.79185842647382
 11
155.515629239802
 21
11.1611951340219
  0
ARC
  8
画層12
  6
CONTINUOUS
 62
7
 10
155.525772517568
 20
11.2195756020039
 40
1.04973702277704
 50
-1.55128757162564E-12
 51
89.9999999999985
  0
ARC
  8
画層12
  6
CONTINUOUS
 62
7
 10
155.298442269572
 20
11.1611951340219
 40
0.217186970229818
 50
0
 51
90
  0
LINE
  8
画層12
  6
CONTINUOUS
 62
7
 10
155.298442269572
 20
11.3783821042516
 11
152.456429658063
 21
11.3783821042516
  0
LINE
  8
画層12
  6
CONTINUOUS
 62
7
 10
152.456429658063
 20
11.3783821042516
 11
152.456429658063
 21
8.79185842647382
  0
LINE
  8
画層12
  6
CONTINUOUS
 62
7
 10
152.456429658063
 20
8.79185842647382
 11
151.39654935752
 21
8.79185842647382
  0
LINE
  8
画層12
  6
CONTINUOUS
 62
7
 10
151.39654935752
 20
8.79185842647382
 11
151.39654935752
 21
12.2693126247808
  0
LINE
  8
画層12
  6
CONTINUOUS
 62
7
 10
151.39654935752
 20
12.2693126247808
 11
155.525772517568
 21
12.2693126247808
  0
LINE
  8
画層12
  6
CONTINUOUS
 62
7
 10
150.779907098497
 20
8.79185842647382
 11
150.779907098497
 21
12.2693126247808
  0
LINE
  8
画層12
  6
CONTINUOUS
 62
7
 10
150.779907098497
 20
12.5169512072738
 11
150.779907098497
 21
13.312744835263
  0
LINE
  8
画層12
  6
CONTINUOUS
 62
7
 10
149.724827694948
 20
8.79185842647382
 11
150.779907098497
 21
8.79185842647382
  0
LINE
  8
画層12
  6
CONTINUOUS
 62
7
 10
149.724827694948
 20
12.2693126247808
 11
149.724827694948
 21
8.79185842647382
  0
LINE
  8
画層12
  6
CONTINUOUS
 62
7
 10
150.779907098497
 20
12.2693126247808
 11
149.724827694948
 21
12.2693126247808
  0
LINE
  8
画層12
  6
CONTINUOUS
 62
7
 10
149.724827694948
 20
12.5169512072738
 11
150.779907098497
 21
12.5169512072738
  0
LINE
  8
画層12
  6
CONTINUOUS
 62
7
 10
150.779907098497
 20
13.312744835263
 11
149.724827694948
 21
13.312744835263
  0
LINE
  8
画層12
  6
CONTINUOUS
 62
7
 10
149.724827694948
 20
13.312744835263
 11
149.724827694948
 21
12.5169512072738
  0
LINE
  8
画層12
  6
CONTINUOUS
 62
7
 10
147.241467978317
 20
8.79185842647382
 11
149.053586978788
 21
8.79185842647382
  0
LINE
  8
画層12
  6
CONTINUOUS
 62
7
 10
148.997381170548
 20
12.2693126247808
 11
147.335296386186
 21
12.2693126247808
  0
LINE
  8
画層12
  6
CONTINUOUS
 62
7
 10
146.398007592443
 20
10.5327684352986
 11
149.053586978788
 21
8.79185842647382
  0
LINE
  8
画層12
  6
CONTINUOUS
 62
7
 10
148.997381170548
 20
12.2693126247808
 11
146.398007592443
 21
10.5327684352986
  0
LINE
  8
画層12
  6
CONTINUOUS
 62
7
 10
147.241467978317
 20
8.79185842647382
 11
145.073189251067
 21
10.4286120822942
  0
LINE
  8
画層12
  6
CONTINUOUS
 62
7
 10
147.335296386186
 20
12.2693126247808
 11
145.071211405138
 21
10.639327367925
  0
LINE
  8
画層12
  6
CONTINUOUS
 62
7
 10
144.899170230909
 20
8.79185842647382
 11
144.899170230909
 21
10.3419400315873
  0
ARC
  8
画層12
  6
CONTINUOUS
 62
7
 10
145.007763716024
 20
10.3419400315873
 40
0.108593485114852
 50
52.9521908436926
 51
179.999999999985
  0
ARC
  8
画層12
  6
CONTINUOUS
 62
7
 10
145.007763716024
 20
10.7274575883685
 40
0.108593485114852
 50
180.00000000003
 51
305.751288374752
  0
LINE
  8
画層12
  6
CONTINUOUS
 62
7
 10
143.843504444803
 20
8.79185842647382
 11
144.899170230909
 21
8.79185842647382
  0
LINE
  8
画層12
  6
CONTINUOUS
 62
7
 10
144.899170230909
 20
10.7274575883685
 11
144.899170230909
 21
13.312744835263
  0
LINE
  8
画層12
  6
CONTINUOUS
 62
7
 10
144.899170230909
 20
13.312744835263
 11
143.843504444803
 21
13.312744835263
  0
LINE
  8
画層12
  6
CONTINUOUS
 62
7
 10
143.843504444803
 20
13.312744835263
 11
143.843504444803
 21
8.79185842647382
  0
LINE
  8
画層12
  6
CONTINUOUS
 62
7
 10
143.298056186043
 20
9.9863867627372
 11
143.298056186043
 21
11.0824714607435
  0
ARC
  8
画層12
  6
CONTINUOUS
 62
7
 10
142.10352784978
 20
9.9863867627372
 40
1.19452833626326
 50
270
 51
0
  0
ARC
  8
画層12
  6
CONTINUOUS
 62
7
 10
142.021120062164
 20
9.84989172991791
 40
0.162890227672278
 50
270.00000000001
 51
9.99718657269984E-12
  0
LINE
  8
画層12
  6
CONTINUOUS
 62
7
 10
142.184010289837
 20
9.84989172991791
 11
142.184010289837
 21
11.2257084741005
  0
ARC
  8
画層12
  6
CONTINUOUS
 62
7
 10
142.021120062164
 20
11.2257084741005
 40
0.162890227672278
 50
0
 51
90
  0
ARC
  8
画層12
  6
CONTINUOUS
 62
7
 10
142.10352784978
 20
11.0824714607435
 40
1.19452833626326
 50
-2.7265054289184E-12
 51
89.9999999999973
  0
LINE
  8
画層12
  6
CONTINUOUS
 62
7
 10
139.145006914762
 20
8.79185842647382
 11
142.10352784978
 21
8.79185842647382
  0
LINE
  8
画層12
  6
CONTINUOUS
 62
7
 10
139.084925718952
 20
9.68700150224564
 11
142.021120062164
 21
9.68700150224564
  0
LINE
  8
画層12
  6
CONTINUOUS
 62
7
 10
134.725692566903
 20
8.79185842647382
 11
135.914043185536
 21
8.79185842647382
  0
ARC
  8
画層12
  6
CONTINUOUS
 62
7
 10
139.084925718952
 20
9.84989172991791
 40
0.162890227672278
 50
180.00000000001
 51
270.00000000001
  0
LINE
  8
画層12
  6
CONTINUOUS
 62
7
 10
132.5
 20
13.312744835263
 11
132.5
 21
12.3174711063
  0
ARC
  8
画層12
  6
CONTINUOUS
 62
7
 10
139.145006914762
 20
9.9863867627372
 40
1.19452833626326
 50
180
 51
270
  0
LINE
  8
画層12
  6
CONTINUOUS
 62
7
 10
142.021120062164
 20
11.3885987017727
 11
139.084925718952
 21
11.3885987017727
  0
LINE
  8
画層12
  6
CONTINUOUS
 62
7
 10
138.922035491279
 20
11.2257084741005
 11
138.922035491279
 21
9.84989172991791
  0
ARC
  8
画層12
  6
CONTINUOUS
 62
7
 10
139.084925718952
 20
11.2257084741005
 40
0.162890227672278
 50
90
 51
180
  0
LINE
  8
画層12
  6
CONTINUOUS
 62
7
 10
142.10352784978
 20
12.2769997970069
 11
139.145006914762
 21
12.2769997970069
  0
LINE
  8
画層12
  6
CONTINUOUS
 62
7
 10
137.950478578499
 20
11.0824714607435
 11
137.950478578499
 21
9.9863867627372
  0
ARC
  8
画層12
  6
CONTINUOUS
 62
7
 10
139.145006914762
 20
11.0824714607435
 40
1.19452833626326
 50
89.9999999999973
 51
179.999999999997
  0
LINE
  8
画層12
  6
CONTINUOUS
 62
7
 10
138.175301811458
 20
12.3174711063
 11
138.175301811458
 21
13.312744835263
  0
LINE
  8
画層12
  6
CONTINUOUS
 62
7
 10
132.5
 20
12.3174711063
 11
134.725692566903
 21
12.3174711063
  0
LINE
  8
画層12
  6
CONTINUOUS
 62
7
 10
134.725692566903
 20
12.3174711063
 11
134.725692566903
 21
8.79185842647382
  0
LINE
  8
画層12
  6
CONTINUOUS
 62
7
 10
135.914043185536
 20
8.79185842647382
 11
135.914043185536
 21
12.3174711063
  0
LINE
  8
画層12
  6
CONTINUOUS
 62
7
 10
135.914043185536
 20
12.3174711063
 11
138.175301811458
 21
12.3174711063
  0
LINE
  8
画層12
  6
CONTINUOUS
 62
7
 10
138.175301811458
 20
13.312744835263
 11
132.5
 21
13.312744835263
  0
LINE
  8
画層12
  6
CONTINUOUS
 62
7
 10
11.0000000000001
 20
106.791858426474
 11
8.50000000000006
 21
106.791858426474
  0
LINE
  8
画層12
  6
CONTINUOUS
 62
7
 10
286
 20
106.791858426474
 11
288.5
 21
106.791858426474
  0
LINE
  8
画層12
  6
CONTINUOUS
 62
7
 10
95.999999999999
 20
15.7918584264738
 11
95.999999999999
 21
48.2918584264738
  0
LINE
  8
画層12
  6
CONTINUOUS
 62
7
 10
116.999999999999
 20
15.7918584264738
 11
116.999999999999
 21
48.2918584264738
  0
LINE
  8
画層12
  6
CONTINUOUS
 62
7
 10
132.999999999999
 20
15.7918584264738
 11
132.999999999999
 21
35.7918584264738
  0
LINE
  8
画層12
  6
CONTINUOUS
 62
7
 10
148.999999999999
 20
15.7918584264738
 11
148.999999999999
 21
35.7918584264738
  0
LINE
  8
画層12
  6
CONTINUOUS
 62
7
 10
164.999999999999
 20
15.7918584264738
 11
164.999999999999
 21
48.2918584264738
  0
TEXT
  8
画層12
 62
7
  6
CENTER
 62
7
 10
169.062499999999
 20
31.7168584264738
 40
3.15
  1
承 認
  7
Font_0
 72
1
 11
172.999999999999
 21
33.2918584264738
 73
2
  0
TEXT
  8
画層12
 62
7
  6
CENTER
 62
7
 10
153.062499999999
 20
31.7168584264738
 40
3.15
  1
検 図
  7
Font_0
 72
1
 11
156.999999999999
 21
33.2918584264738
 73
2
  0
TEXT
  8
画層12
 62
7
  6
CENTER
 62
7
 10
121.062499999999
 20
31.7168584264738
 40
3.15
  1
製 図
  7
Font_0
 72
1
 11
124.999999999999
 21
33.2918584264738
 73
2
  0
TEXT
  8
画層12
 62
7
  6
CENTER
 62
7
 10
131.549999999999
 20
36.7168584264738
 40
3.15
  1
部   品   名
  7
Font_0
 72
1
 11
140.999999999999
 21
38.2918584264738
 73
2
  0
TEXT
  8
画層12
 62
7
  6
CENTER
 62
7
 10
244.975
 20
36.7168584264738
 40
3.15
  1
表  面  処  理
  7
Font_0
 72
1
 11
256
 21
38.2918584264738
 73
2
  0
LINE
  8
画層12
  6
CONTINUOUS
 62
7
 10
95.999999999999
 20
20.7918584264738
 11
116.999999999999
 21
20.7918584264738
  0
TEXT
  8
画層12
 62
7
  6
CENTER
 62
7
 10
15.9191204139
 20
19.4661528760739
 40
3.15
  1
日付
  7
Font_0
  0
TEXT
  8
画層12
 62
7
  6
CENTER
 62
7
 10
100.829999999999
 20
16.9418584264738
 40
2.7
 41
1.2
  1
 三角法
  7
Font_0
 72
1
 11
106.499999999999
 21
18.2918584264738
 73
2
  0
LINE
  8
画層12
  6
CONTINUOUS
 62
7
 10
95.999999999999
 20
30.7918584264738
 11
180.999999999999
 21
30.7918584264738
  0
LINE
  8
画層12
  6
CONTINUOUS
 62
7
 10
37.0000000000001
 20
25.7918584264738
 11
37.0000000000001
 21
35.7918584264738
  0
LINE
  8
画層12
  6
CONTINUOUS
 62
7
 10
11.0000000000001
 20
32.4585250931738
 11
95.999999999999
 21
32.4585250931738
  0
LINE
  8
画層12
  6
CONTINUOUS
 62
7
 10
11.0000000000001
 20
29.1251917597738
 11
95.999999999999
 21
29.1251917597738
  0
LINE
  8
画層12
  6
CONTINUOUS
 62
7
 10
11.0000000000001
 20
25.7918584264738
 11
95.999999999999
 21
25.7918584264738
  0
LINE
  8
画層12
  6
CONTINUOUS
 62
7
 10
29.0000000000001
 20
15.7918584264738
 11
29.0000000000001
 21
35.7918584264738
  0
LINE
  8
画層12
  6
CONTINUOUS
 62
7
 10
16.4
 20
25.7918584264738
 11
16.4
 21
35.7918584264738
  0
TEXT
  8
画層12
 62
7
  6
CENTER
 62
7
 10
54.0534365004489
 20
26.3026870795227
 40
2.4
  1
訂  正  記  事
  7
Font_0
  0
TEXT
  8
画層12
 62
7
  6
CENTER
 62
7
 10
11.8994858768
 20
26.6413071067278
 40
1.8
  1
符号
  7
Font_0
  0
LINE
  8
画層12
  6
CONTINUOUS
 62
7
 10
13.8775258043
 20
35.3220551397738
 11
15.2108591376
 21
33.0126540629738
  0
LINE
  8
画層12
  6
CONTINUOUS
 62
7
 10
15.2108591376
 20
33.0126540629738
 11
12.5441924708999
 21
33.0126540629738
  0
LINE
  8
画層12
  6
CONTINUOUS
 62
7
 10
12.5441924708999
 20
33.0126540629738
 11
13.8775258043
 21
35.3220551397738
  0
LINE
  8
画層12
  6
CONTINUOUS
 62
7
 10
12.5465360781896
 20
29.7005519365426
 11
13.8798694114898
 21
32.0099530132426
  0
LINE
  8
画層12
  6
CONTINUOUS
 62
7
 10
15.2132027448898
 20
29.7005519365426
 11
12.5465360781896
 21
29.7005519365426
  0
LINE
  8
画層12
  6
CONTINUOUS
 62
7
 10
13.8798694114898
 20
32.0099530132426
 11
15.2132027448898
 21
29.7005519365426
  0
TEXT
  8
画層12
 62
7
  6
CENTER
 62
7
 10
30.6123853524139
 20
26.3413069636767
 40
2.4
  1
担当
  7
Font_0
  0
TEXT
  8
画層12
 62
7
  6
CENTER
 62
7
 10
18.9280507624824
 20
26.2744760962407
 40
2.4
  1
年月日
  7
Font_0
  0
TEXT
  8
画層12
 62
7
  6
CENTER
 62
7
 10
13.7402442393475
 20
29.9384521377622
 40
1.35600025863647
 41
0.577433297908475
  1
1
  7
Font_0
  0
TEXT
  8
画層12
 62
7
  6
CENTER
 62
7
 10
13.6076941802876
 20
33.2646926678473
 40
1.35600025863647
 41
0.577433297908475
  1
2
  7
Font_0
  0
TEXT
  8
画層0
 62
7
  6
CENTER
 62
7
 10
43.6349999999995
 20
19.0768584264738
 40
3.43
  1
２００９年　８月　６日
  7
Font_0
 72
1
 11
62.4999999999995
 21
20.7918584264738
 73
2
  0
TEXT
  8
画層0
 62
7
  6
CENTER
 62
7
 10
102.768749999999
 20
23.7578584264738
 40
4.068
 41
1.22295968534907
  1
1/1
  7
Font_0
 72
1
 11
106.499999999999
 21
25.7918584264738
 73
2
  0
TEXT
  8
画層12
 62
7
  6
CENTER
 62
7
 10
197.199999999999
 20
36.7168584264738
 40
3.15
  1
材    質
  7
Font_0
 72
1
 11
203.499999999999
 21
38.2918584264738
 73
2
  0
TEXT
  8
画層12
 62
7
  6
CENTER
 62
7
 10
169.849999999999
 20
36.7168584264738
 40
3.15
  1
個数
  7
Font_0
 72
1
 11
172.999999999999
 21
38.2918584264738
 73
2
  0
TEXT
  8
画層12
 62
7
  6
CENTER
 62
7
 10
100.199999999999
 20
36.7168584264738
 40
3.15
  1
部品番号
  7
Font_0
 72
1
 11
106.499999999999
 21
38.2918584264738
 73
2
  0
TEXT
  8
画層12
 62
7
  6
CENTER
 62
7
 10
102.652499999999
 20
31.7168584264738
 40
3.15
 41
1.22142857142857
  1
尺度
  7
Font_0
 72
1
 11
106.499999999999
 21
33.2918584264738
 73
2
  0
LINE
  8
画層12
  6
CONTINUOUS
 62
7
 10
185.999999999999
 20
15.7918584264738
 11
185.999999999999
 21
35.7918584264738
  0
LINE
  8
画層12
  6
CONTINUOUS
 62
7
 10
95.999999999999
 20
40.7918584264738
 11
286
 21
40.7918584264738
  0
TEXT
  8
画層12
 62
7
  6
CENTER
 62
7
 10
226.65
 20
17.4418584264738
 40
2.7
 41
1.26666666666667
  1
番
  7
Font_0
  0
TEXT
  8
画層12
 62
7
  6
CENTER
 62
7
 10
226.65
 20
21.9418584264739
 40
2.7
 41
1.26666666666667
  1
図
  7
Font_0
  0
TEXT
  8
画層12
 62
7
  6
CENTER
 62
7
 10
181.668525536581
 20
31.1590910717739
 40
2.7
 41
1.26666666666667
  1
仕
  7
Font_0
  0
TEXT
  8
画層12
 62
7
  6
CENTER
 62
7
 10
181.668525536581
 20
27.6590910717738
 40
2.7
 41
1.27
  1
上
  7
Font_0
  0
TEXT
  8
画層12
 62
7
  6
CENTER
 62
7
 10
182.015468175663
 20
17.8872190115738
 40
2.7
 41
1.20333331823349
  1
取
  7
Font_0
  0
TEXT
  8
画層12
 62
7
  6
CENTER
 62
7
 10
182.015468175663
 20
21.3872190115738
 40
2.7
 41
1.20333331823349
  1
面
  7
Font_0
  0
TEXT
  8
画層12
 62
7
  6
CENTER
 62
7
 10
137.062499999999
 20
31.7168584264738
 40
3.15
  1
設 計
  7
Font_0
 72
1
 11
140.999999999999
 21
33.2918584264738
 73
2
  0
TEXT
  8
画層12
 62
7
  6
CENTER
 62
7
 10
226.72991426151
 20
26.4774102640739
 40
2.7
 41
1.26666666666667
  1
名
  7
Font_0
  0
TEXT
  8
画層12
 62
7
  6
CENTER
 62
7
 10
226.72991426151
 20
29.5774102640738
 40
2.7
 41
1.26666666666667
  1
品
  7
Font_0
  0
TEXT
  8
画層12
 62
7
  6
CENTER
 62
7
 10
226.72991426151
 20
32.6774102640739
 40
2.7
 41
1.26666666666667
  1
製
  7
Font_0
  0
LINE
  8
画層12
  6
CONTINUOUS
 62
7
 10
286
 20
25.7918584264738
 11
180.999999999999
 21
25.7918584264738
  0
LINE
  8
画層12
  6
CONTINUOUS
 62
7
 10
231
 20
15.7918584264738
 11
231
 21
35.7918584264738
  0
LINE
  8
画層12
  6
CONTINUOUS
 62
7
 10
180.999999999999
 20
15.7918584264738
 11
180.999999999999
 21
48.2918584264738
  0
LINE
  8
画層12
  6
CONTINUOUS
 62
7
 10
286
 20
35.7918584264738
 11
10.9999999999999
 21
35.7918584264738
  0
LINE
  8
画層12
  6
CONTINUOUS
 62
7
 10
226
 20
48.2918584264738
 11
226
 21
15.7918584264738
  0
LINE
  8
画層12
  6
CONTINUOUS
 62
7
 10
95.999999999999
 20
48.2918584264738
 11
286
 21
48.2918584264738
  0
LINE
  8
画層12
  6
CONTINUOUS
 62
7
 10
286
 20
15.7918584264738
 11
11.0000000000001
 21
15.7918584264738
  0
LINE
  8
画層12
  6
CONTINUOUS
 62
7
 10
147.5
 20
202.791858426474
 11
147.5
 21
205.291858426474
  0
LINE
  8
画層12
  6
CONTINUOUS
 62
7
 10
286
 20
202.791858426474
 11
286
 21
15.7918584264738
  0
LINE
  8
画層12
  6
CONTINUOUS
 62
7
 10
11.0000000000001
 20
202.791858426474
 11
11.0000000000001
 21
15.7918584264738
  0
LINE
  8
画層12
  6
CONTINUOUS
 62
7
 10
286
 20
202.791858426474
 11
11.0000000000001
 21
202.791858426474
  0
LINE
  8
画層0
  6
CENTER
 62
7
 10
91.5086676341798
 20
110.791858426474
 11
187.214998378853
 21
110.791858426474
  0
LINE
  8
画層0
  6
CENTER
 62
7
 10
30.130653332153
 20
110.791858426474
 11
85.0583661852265
 21
110.791858426474
  0
LINE
  8
画層0
  6
CONTINUOUS
 62
7
 10
33.3078980931026
 20
108.023031426474
 11
33.3078980931026
 21
113.560685426474
  0
LINE
  8
画層0
  6
CONTINUOUS
 62
7
 10
116.107898093102
 20
102.091858426474
 11
116.407898093103
 21
101.791858426474
  0
LINE
  8
画層0
  6
CONTINUOUS
 62
7
 10
132.107898093102
 20
102.091858426474
 11
131.807898093102
 21
101.791858426474
  0
LINE
  8
画層0
  6
CONTINUOUS
 62
7
 10
98.1078980931027
 20
103.091858426474
 11
98.4078980931026
 21
102.791858426474
  0
LINE
  8
画層0
  6
CONTINUOUS
 62
7
 10
116.107898093102
 20
102.85460449328
 11
132.107898093102
 21
102.85460449328
  0
LINE
  8
画層0
  6
CONTINUOUS
 62
7
 10
131.807898093102
 20
101.791858426474
 11
116.407898093103
 21
101.791858426474
  0
LINE
  8
画層0
  6
CONTINUOUS
 62
7
 10
132.107898093102
 20
102.791858426474
 11
156.907898093103
 21
102.791858426474
  0
LINE
  8
画層0
  6
CONTINUOUS
 62
7
 10
116.107898093102
 20
102.791858426474
 11
98.4078980931026
 21
102.791858426474
  0
LINE
  8
画層0
  6
CONTINUOUS
 62
7
 10
139.507898093103
 20
102.791858426474
 11
168.107898093102
 21
102.791858426474
  0
LINE
  8
画層0
  6
CONTINUOUS
 62
7
 10
178.607898093102
 20
98.6918584264737
 11
178.607898093102
 21
122.891858426474
  0
LINE
  8
画層0
  6
CONTINUOUS
 62
7
 10
168.607898093102
 20
95.2918584264737
 11
168.107898093102
 21
95.7918584264737
  0
LINE
  8
画層0
  6
CONTINUOUS
 62
7
 10
174.607898093102
 20
95.5918584264737
 11
174.307898093103
 21
95.2918584264737
  0
LINE
  8
画層0
  6
CONTINUOUS
 62
7
 10
174.307898093103
 20
95.2918584264737
 11
168.607898093102
 21
95.2918584264737
  0
LINE
  8
画層0
  6
CONTINUOUS
 62
7
 10
178.007898093102
 20
98.0918584264737
 11
178.607898093102
 21
98.6918584264737
  0
LINE
  8
画層0
  6
CONTINUOUS
 62
7
 10
178.007898093102
 20
98.0918584264737
 11
175.607898093102
 21
98.0918584264737
  0
LINE
  8
画層0
  6
CONTINUOUS
 62
7
 10
174.607898093102
 20
98.5418584264737
 11
178.457898093102
 21
98.5418584264737
  0
LINE
  8
画層0
  6
CONTINUOUS
 62
7
 10
98.1078980931027
 20
118.491858426474
 11
98.1078980931027
 21
103.091858426474
  0
LINE
  8
画層0
  6
CONTINUOUS
 62
7
 10
175.607898093102
 20
123.491858426474
 11
175.607898093102
 21
98.0918584264737
  0
LINE
  8
画層0
  6
CONTINUOUS
 62
7
 10
98.4078980931026
 20
118.791858426474
 11
98.4078980931026
 21
102.791858426474
  0
LINE
  8
画層0
  6
CONTINUOUS
 62
7
 10
174.607898093102
 20
125.991858426474
 11
174.607898093102
 21
95.5918584264737
  0
LINE
  8
画層0
  6
CONTINUOUS
 62
7
 10
168.107898093102
 20
125.791858426474
 11
168.107898093102
 21
95.7918584264737
  0
LINE
  8
画層0
  6
CONTINUOUS
 62
7
 10
174.607898093102
 20
123.041858426474
 11
178.457898093102
 21
123.041858426474
  0
LINE
  8
画層0
  6
CONTINUOUS
 62
7
 10
178.007898093102
 20
123.491858426474
 11
175.607898093102
 21
123.491858426474
  0
LINE
  8
画層0
  6
CONTINUOUS
 62
7
 10
178.007898093102
 20
123.491858426474
 11
178.607898093102
 21
122.891858426474
  0
LINE
  8
画層0
  6
CONTINUOUS
 62
7
 10
178.007898093102
 20
123.491858426474
 11
178.007898093102
 21
98.0918584264737
  0
LINE
  8
画層0
  6
CONTINUOUS
 62
7
 10
174.307898093103
 20
126.291858426474
 11
168.607898093102
 21
126.291858426474
  0
LINE
  8
画層0
  6
CONTINUOUS
 62
7
 10
174.607898093102
 20
125.991858426474
 11
174.307898093103
 21
126.291858426474
  0
LINE
  8
画層0
  6
CONTINUOUS
 62
7
 10
168.607898093102
 20
126.291858426474
 11
168.107898093102
 21
125.791858426474
  0
LINE
  8
画層0
  6
CONTINUOUS
 62
7
 10
168.607898093102
 20
126.291858426474
 11
168.607898093102
 21
95.2918584264737
  0
LINE
  8
画層0
  6
CONTINUOUS
 62
7
 10
174.307898093103
 20
126.291858426474
 11
174.307898093103
 21
95.2918584264737
  0
LINE
  8
画層0
  6
CONTINUOUS
 62
7
 10
139.507898093103
 20
118.791858426474
 11
168.107898093102
 21
118.791858426474
  0
LINE
  8
画層0
  6
CONTINUOUS
 62
7
 10
98.4078980931026
 20
118.791858426474
 11
156.907898093103
 21
118.791858426474
  0
LINE
  8
画層0
  6
CONTINUOUS
 62
7
 10
98.1078980931027
 20
118.491858426474
 11
98.4078980931026
 21
118.791858426474
  0
LINE
  8
画層0
  6
CONTINUOUS
 62
7
 10
116.107898093102
 20
102.091858426474
 11
116.107898093103
 21
120.491858426474
  0
LINE
  8
画層0
  6
CONTINUOUS
 62
7
 10
132.107898093102
 20
102.091858426474
 11
132.107898093103
 21
120.491858426474
  0
LINE
  8
画層0
  6
CONTINUOUS
 62
7
 10
117.107898093103
 20
132.791858426474
 11
131.107898093103
 21
132.791858426474
  0
LINE
  8
画層0
  6
CONTINUOUS
 62
7
 10
131.807898093102
 20
120.791858426474
 11
116.407898093103
 21
120.791858426474
  0
LINE
  8
画層0
  6
CONTINUOUS
 62
7
 10
117.107898093103
 20
132.791858426474
 11
117.107898093103
 21
120.791858426474
  0
LINE
  8
画層0
  6
CONTINUOUS
 62
7
 10
116.107898093103
 20
120.491858426474
 11
116.407898093103
 21
120.791858426474
  0
LINE
  8
画層0
  6
CENTER
 62
7
 10
127.107898093102
 20
130.291858426474
 11
121.107898093102
 21
130.291858426474
  0
CIRCLE
  8
画層0
  6
CONTINUOUS
 62
7
 10
124.107898093102
 20
130.291858426474
 40
1.49999999999989
  0
CIRCLE
  8
画層0
  6
CONTINUOUS
 62
7
 10
124.107898093102
 20
130.291858426474
 40
1.25000000000011
  0
LINE
  8
画層0
  6
CONTINUOUS
 62
7
 10
117.107898093103
 20
132.791858426474
 11
117.607898093103
 21
133.291858426474
  0
LINE
  8
画層0
  6
CONTINUOUS
 62
7
 10
117.607898093103
 20
133.291858426474
 11
130.607898093102
 21
133.291858426474
  0
LINE
  8
画層0
  6
CONTINUOUS
 62
7
 10
131.107898093103
 20
132.791858426474
 11
131.107898093103
 21
120.791858426474
  0
LINE
  8
画層0
  6
CONTINUOUS
 62
7
 10
132.107898093103
 20
120.491858426474
 11
131.807898093102
 21
120.791858426474
  0
LINE
  8
画層0
  6
CONTINUOUS
 62
7
 10
130.607898093102
 20
133.291858426474
 11
131.107898093103
 21
132.791858426474
  0
LINE
  8
画層0
  6
CENTER
 62
7
 10
124.107898093102
 20
136.824720516155
 11
124.107898093102
 21
98.1572512758967
  0
CIRCLE
  8
画層0
  6
CONTINUOUS
 62
7
 10
171.407898093102
 20
110.791858426474
 40
1.25000000000011
  0
CIRCLE
  8
画層0
  6
CONTINUOUS
 62
7
 10
171.407898093102
 20
110.791858426474
 40
1.50000000000011
  0
LINE
  8
画層0
  6
CENTER
 62
7
 10
171.407898093102
 20
113.791858426474
 11
171.407898093102
 21
107.791858426474
  0
LINE
  8
画層1
  6
CONTINUOUS
 62
7
 10
33.3078980931026
 20
77.4558565038335
 11
33.3078980931026
 21
107.023031426474
  0
LINE
  8
画層1
  6
CONTINUOUS
 62
7
 10
98.1078980931027
 20
77.4558565038335
 11
98.1078980931027
 21
102.091858426474
  0
LINE
  8
画層1
  6
CONTINUOUS
 62
7
 10
36.3078980931026
 20
78.4558565038335
 11
95.1078980931027
 21
78.4558565038335
  0
TEXT
  8
画層1
 62
7
  6
BYLAYER
 62
7
 10
56.1078980931025
 20
78.9891565038335
 40
3.2
  1
W.D.=64.8%%p2
  7
Font_0
 72
1
 11
65.7078980931025
 21
80.5891565038335
 73
2
  0
LINE
  8
画層0
  6
CONTINUOUS
 62
7
 10
36.3078980931026
 20
77.6520095038335
 11
33.3078980931026
 21
78.4558565038335
  0
LINE
  8
画層0
  6
CONTINUOUS
 62
7
 10
33.3078980931026
 20
78.4558565038335
 11
36.3078980931026
 21
79.2597035038335
  0
LINE
  8
画層0
  6
CONTINUOUS
 62
7
 10
33.3078980931026
 20
78.4558565038335
 11
36.3078980931026
 21
78.4558565038335
  0
LINE
  8
画層0
  6
CONTINUOUS
 62
7
 10
95.1078980931027
 20
79.2597035038335
 11
98.1078980931027
 21
78.4558565038335
  0
LINE
  8
画層0
  6
CONTINUOUS
 62
7
 10
98.1078980931027
 20
78.4558565038335
 11
95.1078980931027
 21
77.6520095038335
  0
LINE
  8
画層0
  6
CONTINUOUS
 62
7
 10
98.1078980931027
 20
78.4558565038335
 11
95.1078980931027
 21
78.4558565038335
  0
LINE
  8
画層1
  6
CONTINUOUS
 62
7
 10
174.607898093102
 20
77.4558565038335
 11
174.607898093102
 21
94.5918584264737
  0
LINE
  8
画層1
  6
CONTINUOUS
 62
7
 10
101.107898093103
 20
78.4558565038335
 11
171.607898093102
 21
78.4558565038335
  0
TEXT
  8
画層1
 62
7
  6
BYLAYER
 62
7
 10
133.157898093103
 20
78.9891565038335
 40
3.2
  1
76.5
  7
Font_0
 72
1
 11
136.357898093103
 21
80.5891565038335
 73
2
  0
LINE
  8
画層0
  6
CONTINUOUS
 62
7
 10
101.107898093103
 20
77.6520095038335
 11
98.1078980931027
 21
78.4558565038335
  0
LINE
  8
画層0
  6
CONTINUOUS
 62
7
 10
98.1078980931027
 20
78.4558565038335
 11
101.107898093103
 21
79.2597035038335
  0
LINE
  8
画層0
  6
CONTINUOUS
 62
7
 10
98.1078980931027
 20
78.4558565038335
 11
101.107898093103
 21
78.4558565038335
  0
LINE
  8
画層0
  6
CONTINUOUS
 62
7
 10
171.607898093102
 20
79.2597035038335
 11
174.607898093102
 21
78.4558565038335
  0
LINE
  8
画層0
  6
CONTINUOUS
 62
7
 10
174.607898093102
 20
78.4558565038335
 11
171.607898093102
 21
77.6520095038335
  0
LINE
  8
画層0
  6
CONTINUOUS
 62
7
 10
174.607898093102
 20
78.4558565038335
 11
171.607898093102
 21
78.4558565038335
  0
LINE
  8
画層1
  6
CONTINUOUS
 62
7
 10
178.607898093102
 20
77.4558565038335
 11
178.607898093102
 21
97.6918584264737
  0
LINE
  8
画層1
  6
CONTINUOUS
 62
7
 10
174.607898093102
 20
78.4558565038335
 11
178.607898093102
 21
78.4558565038335
  0
LINE
  8
画層1
  6
CONTINUOUS
 62
7
 10
172.607898093102
 20
78.4558565038335
 11
170.607898093102
 21
78.4558565038335
  0
LINE
  8
画層1
  6
CONTINUOUS
 62
7
 10
181.607898093102
 20
78.4558565038335
 11
185.274531426436
 21
78.4558565038335
  0
TEXT
  8
画層1
 62
7
  6
BYLAYER
 62
7
 10
183.407864759769
 20
78.9891565038335
 40
3.2
  1
4
  7
Font_0
 72
1
 11
184.207864759769
 21
80.5891565038335
 73
2
  0
LINE
  8
画層0
  6
CONTINUOUS
 62
7
 10
174.607898093102
 20
78.4558565038335
 11
172.607898093102
 21
78.4558565038335
  0
LINE
  8
画層0
  6
CONTINUOUS
 62
7
 10
181.607898093102
 20
77.6520095038335
 11
178.607898093102
 21
78.4558565038335
  0
LINE
  8
画層0
  6
CONTINUOUS
 62
7
 10
178.607898093102
 20
78.4558565038335
 11
181.607898093102
 21
79.2597035038335
  0
LINE
  8
画層0
  6
CONTINUOUS
 62
7
 10
178.607898093102
 20
78.4558565038335
 11
181.607898093102
 21
78.4558565038335
  0
LINE
  8
画層1
  6
CONTINUOUS
 62
7
 10
124.107898093102
 20
83.1521675742779
 11
124.107898093102
 21
97.1572512758967
  0
LINE
  8
画層1
  6
CONTINUOUS
 62
7
 10
98.1078980931027
 20
83.1521675742779
 11
98.1078980931027
 21
102.091858426474
  0
LINE
  8
画層1
  6
CONTINUOUS
 62
7
 10
121.107898093102
 20
84.1521675742779
 11
101.107898093103
 21
84.1521675742779
  0
TEXT
  8
画層1
 62
7
  6
BYLAYER
 62
7
 10
109.507898093102
 20
84.6854675742779
 40
3.2
  1
26
  7
Font_0
 72
1
 11
111.107898093102
 21
86.2854675742779
 73
2
  0
LINE
  8
画層0
  6
CONTINUOUS
 62
7
 10
121.107898093102
 20
84.9560145742779
 11
124.107898093102
 21
84.1521675742779
  0
LINE
  8
画層0
  6
CONTINUOUS
 62
7
 10
124.107898093102
 20
84.1521675742779
 11
121.107898093102
 21
83.3483205742779
  0
LINE
  8
画層0
  6
CONTINUOUS
 62
7
 10
124.107898093102
 20
84.1521675742779
 11
121.107898093102
 21
84.1521675742779
  0
LINE
  8
画層0
  6
CONTINUOUS
 62
7
 10
101.107898093103
 20
83.3483205742779
 11
98.1078980931027
 21
84.1521675742779
  0
LINE
  8
画層0
  6
CONTINUOUS
 62
7
 10
98.1078980931027
 20
84.1521675742779
 11
101.107898093103
 21
84.9560145742779
  0
LINE
  8
画層0
  6
CONTINUOUS
 62
7
 10
98.1078980931027
 20
84.1521675742779
 11
101.107898093103
 21
84.1521675742779
  0
LINE
  8
画層1
  6
CONTINUOUS
 62
7
 10
89.309388496603
 20
118.791858426474
 11
97.4078980931027
 21
118.791858426474
  0
LINE
  8
画層1
  6
CONTINUOUS
 62
7
 10
89.309388496603
 20
102.791858426474
 11
97.4078980931027
 21
102.791858426474
  0
LINE
  8
画層1
  6
CONTINUOUS
 62
7
 10
90.309388496603
 20
115.791858426474
 11
90.309388496603
 21
105.791858426474
  0
TEXT
  8
画層1
 62
7
  6
BYLAYER
 62
7
 10
89.776088496603
 20
107.591858426474
 40
3.2
  1
%%c16
  7
Font_0
 50
90
 72
1
 11
88.176088496603
 21
110.791858426474
 73
2
  0
LINE
  8
画層0
  6
CONTINUOUS
 62
7
 10
89.505541496603
 20
115.791858426474
 11
90.309388496603
 21
118.791858426474
  0
LINE
  8
画層0
  6
CONTINUOUS
 62
7
 10
90.309388496603
 20
118.791858426474
 11
91.1132354966031
 21
115.791858426474
  0
LINE
  8
画層0
  6
CONTINUOUS
 62
7
 10
90.309388496603
 20
118.791858426474
 11
90.309388496603
 21
115.791858426474
  0
LINE
  8
画層0
  6
CONTINUOUS
 62
7
 10
91.1132354966031
 20
105.791858426474
 11
90.309388496603
 21
102.791858426474
  0
LINE
  8
画層0
  6
CONTINUOUS
 62
7
 10
90.309388496603
 20
102.791858426474
 11
89.505541496603
 21
105.791858426474
  0
LINE
  8
画層0
  6
CONTINUOUS
 62
7
 10
90.309388496603
 20
102.791858426474
 11
90.309388496603
 21
105.791858426474
  0
LINE
  8
画層0
  6
CONTINUOUS
 62
7
 10
59.0000000000001
 20
196.791858426474
 11
59.0000000000001
 21
132.791858426474
  0
TEXT
  8
画層0
 62
7
  6
BYLAYER
 62
7
 10
19.0000000000001
 20
191.991858426474
 40
3.2
  1
倍率
  7
Font_0
 11
19.0000000000001
 21
193.591858426474
 73
2
  0
TEXT
  8
画層0
 62
7
  6
BYLAYER
 62
7
 10
19.0000000000001
 20
185.591858426474
 40
3.2
  1
Ｏ／Ｉ
  7
Font_0
 11
19.0000000000001
 21
187.191858426474
 73
2
  0
TEXT
  8
画層0
 62
7
  6
BYLAYER
 62
7
 10
19.0000000000001
 20
179.191858426474
 40
3.2
  1
Ｗ．Ｄ．
  7
Font_0
 11
19.0000000000001
 21
180.791858426474
 73
2
  0
TEXT
  8
画層0
 62
7
  6
BYLAYER
 62
7
 10
19.0000000000001
 20
172.791858426474
 40
3.2
  1
被写界深度
  7
Font_0
 11
19.0000000000001
 21
174.391858426474
 73
2
  0
TEXT
  8
画層0
 62
7
  6
BYLAYER
 62
7
 10
19.0000000000001
 20
166.391858426474
 40
3.2
  1
分解能
  7
Font_0
 11
19.0000000000001
 21
167.991858426474
 73
2
  0
TEXT
  8
画層0
 62
7
  6
BYLAYER
 62
7
 10
19.0000000000001
 20
159.991858426474
 40
3.2
  1
有効Ｆナンバー
  7
Font_0
 11
19.0000000000001
 21
161.591858426474
 73
2
  0
TEXT
  8
画層0
 62
7
  6
BYLAYER
 62
7
 10
19.0000000000001
 20
153.591858426474
 40
3.2
  1
Ｎ．Ａ．
  7
Font_0
 11
19.0000000000001
 21
155.191858426474
 73
2
  0
TEXT
  8
画層0
 62
7
  6
BYLAYER
 62
7
 10
19.0000000000001
 20
147.191858426474
 40
3.2
  1
ＴＶディストーション
  7
Font_0
 11
19.0000000000001
 21
148.791858426474
 73
2
  0
TEXT
  8
画層0
 62
7
  6
BYLAYER
 62
7
 10
19.0000000000001
 20
140.791858426474
 40
3.2
  1
重量
  7
Font_0
 11
19.0000000000001
 21
142.391858426474
 73
2
  0
TEXT
  8
画層0
 62
7
  6
BYLAYER
 62
7
 10
19.0000000000001
 20
134.391858426474
 40
3.2
  1
対応素子サイズ
  7
Font_0
 11
19.0000000000001
 21
135.991858426474
 73
2
  0
LINE
  8
画層0
  6
CONTINUOUS
 62
7
 10
89.0000000000001
 20
132.791858426474
 11
89.0000000000001
 21
196.791858426474
  0
LINE
  8
画層0
  6
CONTINUOUS
 62
7
 10
89.0000000000001
 20
196.791858426474
 11
17.0000000000001
 21
196.791858426474
  0
LINE
  8
画層0
  6
CONTINUOUS
 62
7
 10
17.0000000000001
 20
196.791858426474
 11
17.0000000000001
 21
132.791858426474
  0
LINE
  8
画層0
  6
CONTINUOUS
 62
7
 10
17.0000000000001
 20
190.391858426474
 11
89.0000000000001
 21
190.391858426474
  0
LINE
  8
画層0
  6
CONTINUOUS
 62
7
 10
89.0000000000001
 20
183.991858426474
 11
17.0000000000001
 21
183.991858426474
  0
LINE
  8
画層0
  6
CONTINUOUS
 62
7
 10
17.0000000000001
 20
177.591858426474
 11
89.0000000000001
 21
177.591858426474
  0
LINE
  8
画層0
  6
CONTINUOUS
 62
7
 10
89.0000000000001
 20
171.191858426474
 11
17.0000000000001
 21
171.191858426474
  0
LINE
  8
画層0
  6
CONTINUOUS
 62
7
 10
17.0000000000001
 20
164.791858426474
 11
89.0000000000001
 21
164.791858426474
  0
LINE
  8
画層0
  6
CONTINUOUS
 62
7
 10
89.0000000000001
 20
158.391858426474
 11
17.0000000000001
 21
158.391858426474
  0
LINE
  8
画層0
  6
CONTINUOUS
 62
7
 10
17.0000000000001
 20
151.991858426474
 11
89.0000000000001
 21
151.991858426474
  0
LINE
  8
画層0
  6
CONTINUOUS
 62
7
 10
89.0000000000001
 20
145.591858426474
 11
17.0000000000001
 21
145.591858426474
  0
LINE
  8
画層0
  6
CONTINUOUS
 62
7
 10
89.0000000000001
 20
139.191858426474
 11
17.0000000000001
 21
139.191858426474
  0
LINE
  8
画層0
  6
CONTINUOUS
 62
7
 10
89.0000000000001
 20
132.791858426474
 11
17.0000000000001
 21
132.791858426474
  0
TEXT
  8
画層0
 62
7
  6
CONTINUOUS
 62
7
 10
69.2000000000001
 20
191.991858426474
 40
3.2
  1
４．０
  7
Font_0
 72
1
 11
74.0000000000001
 21
193.591858426474
 73
2
  0
TEXT
  8
画層0
 62
7
  6
CONTINUOUS
 62
7
 10
62.8000000000001
 20
185.591858426474
 40
3.2
  1
１５８．８ｍｍ
  7
Font_0
 72
1
 11
74.0000000000001
 21
187.191858426474
 73
2
  0
TEXT
  8
画層0
 62
7
  6
CONTINUOUS
 62
7
 10
64.4000000000001
 20
179.191858426474
 40
3.2
  1
６４．８ｍｍ
  7
Font_0
 72
1
 11
74.0000000000001
 21
180.791858426474
 73
2
  0
TEXT
  8
画層0
 62
7
  6
CONTINUOUS
 62
7
 10
67.6000000000001
 20
172.791858426474
 40
3.2
  1
１３０μ
  7
Font_0
 72
1
 11
74.0000000000001
 21
174.391858426474
 73
2
  0
TEXT
  8
画層0
 62
7
  6
CONTINUOUS
 62
7
 10
67.6000000000001
 20
166.391858426474
 40
3.2
  1
４．６μ
  7
Font_0
 72
1
 11
74.0000000000001
 21
167.991858426474
 73
2
  0
TEXT
  8
画層0
 62
7
  6
CONTINUOUS
 62
7
 10
67.6000000000001
 20
159.991858426474
 40
3.2
  1
２６．８
  7
Font_0
 72
1
 11
74.0000000000001
 21
161.591858426474
 73
2
  0
TEXT
  8
画層0
 62
7
  6
CONTINUOUS
 62
7
 10
66.0000000000001
 20
153.591858426474
 40
3.2
  1
０．０７３
  7
Font_0
 72
1
 11
74.0000000000001
 21
155.191858426474
 73
2
  0
TEXT
  8
画層0
 62
7
  6
CONTINUOUS
 62
7
 10
70.8000000000001
 20
140.791858426474
 40
3.2
  1
４９
  7
Font_0
 72
1
 11
74.0000000000001
 21
142.391858426474
 73
2
  0
TEXT
  8
画層0
 62
7
  6
CONTINUOUS
 62
7
 10
67.6000000000001
 20
134.391858426474
 40
3.2
  1
２／３″
  7
Font_0
 72
1
 11
74.0000000000001
 21
135.991858426474
 73
2
  0
TEXT
  8
画層0
 62
7
  6
CONTINUOUS
 62
7
 10
66.0000000000001
 20
147.191858426474
 40
3.2
  1
０．０６％
  7
Font_0
 72
1
 11
74.0000000000001
 21
148.791858426474
 73
2
  0
LINE
  8
画層1
  6
CONTINUOUS
 62
7
 10
198.924527434322
 20
95.2918584264737
 11
175.307898093102
 21
95.2918584264737
  0
LINE
  8
画層1
  6
CONTINUOUS
 62
7
 10
198.924527434322
 20
126.291858426474
 11
175.307898093102
 21
126.291858426474
  0
LINE
  8
画層1
  6
CONTINUOUS
 62
7
 10
197.924527434322
 20
98.2918584264737
 11
197.924527434322
 21
123.291858426474
  0
TEXT
  8
画層1
 62
7
  6
BYLAYER
 62
7
 10
197.391227434322
 20
107.591858426474
 40
3.2
  1
%%c31
  7
Font_0
 50
90
 72
1
 11
195.791227434322
 21
110.791858426474
 73
2
  0
LINE
  8
画層0
  6
CONTINUOUS
 62
7
 10
198.728374434322
 20
98.2918584264737
 11
197.924527434322
 21
95.2918584264737
  0
LINE
  8
画層0
  6
CONTINUOUS
 62
7
 10
197.924527434322
 20
95.2918584264737
 11
197.120680434322
 21
98.2918584264737
  0
LINE
  8
画層0
  6
CONTINUOUS
 62
7
 10
197.924527434322
 20
95.2918584264737
 11
197.924527434322
 21
98.2918584264737
  0
LINE
  8
画層0
  6
CONTINUOUS
 62
7
 10
197.120680434322
 20
123.291858426474
 11
197.924527434322
 21
126.291858426474
  0
LINE
  8
画層0
  6
CONTINUOUS
 62
7
 10
197.924527434322
 20
126.291858426474
 11
198.728374434322
 21
123.291858426474
  0
LINE
  8
画層0
  6
CONTINUOUS
 62
7
 10
197.924527434322
 20
126.291858426474
 11
197.924527434322
 21
123.291858426474
  0
LINE
  8
画層1
  6
CONTINUOUS
 62
7
 10
192.939694320585
 20
98.0918584264737
 11
179.007898093102
 21
98.0918584264737
  0
LINE
  8
画層1
  6
CONTINUOUS
 62
7
 10
192.939694320585
 20
123.491858426474
 11
179.007898093102
 21
123.491858426474
  0
LINE
  8
画層1
  6
CONTINUOUS
 62
7
 10
191.939694320585
 20
101.091858426474
 11
191.939694320585
 21
120.491858426474
  0
TEXT
  8
画層1
 62
7
  6
BYLAYER
 62
7
 10
191.406394320585
 20
102.791858426474
 40
3.2
  1
Ｃマウント
  7
Font_0
 50
90
 72
1
 11
189.806394320585
 21
110.791858426474
 73
2
  0
LINE
  8
画層0
  6
CONTINUOUS
 62
7
 10
192.743541320585
 20
101.091858426474
 11
191.939694320585
 21
98.0918584264737
  0
LINE
  8
画層0
  6
CONTINUOUS
 62
7
 10
191.939694320585
 20
98.0918584264737
 11
191.135847320585
 21
101.091858426474
  0
LINE
  8
画層0
  6
CONTINUOUS
 62
7
 10
191.939694320585
 20
98.0918584264737
 11
191.939694320585
 21
101.091858426474
  0
LINE
  8
画層0
  6
CONTINUOUS
 62
7
 10
191.135847320585
 20
120.491858426474
 11
191.939694320585
 21
123.491858426474
  0
LINE
  8
画層0
  6
CONTINUOUS
 62
7
 10
191.939694320585
 20
123.491858426474
 11
192.743541320585
 21
120.491858426474
  0
LINE
  8
画層0
  6
CONTINUOUS
 62
7
 10
191.939694320585
 20
123.491858426474
 11
191.939694320585
 21
120.491858426474
  0
ARC
  8
画層0
  6
CONTINUOUS
 62
7
 10
134.124949142252
 20
164.900544281543
 40
6.94952579518701
 50
324.859821158984
 51
35.1401788410167
  0
ARC
  8
画層0
  6
CONTINUOUS
 62
7
 10
134.124949142252
 20
172.900544281544
 40
6.94952579518696
 50
324.859821158984
 51
35.1401788410161
  0
ARC
  8
画層0
  6
CONTINUOUS
 62
7
 10
145.490847043952
 20
172.900544281544
 40
6.94952579518696
 50
144.859821158984
 51
215.140178841016
  0
ARC
  8
画層0
  6
CONTINUOUS
 62
7
 10
102.724949142252
 20
164.900544281544
 40
6.94952579518701
 50
324.859821158984
 51
35.1401788410165
  0
ARC
  8
画層0
  6
CONTINUOUS
 62
7
 10
114.090847043953
 20
164.900544281544
 40
6.94952579518713
 50
144.859821158983
 51
215.140178841016
  0
ARC
  8
画層0
  6
CONTINUOUS
 62
7
 10
114.090847043953
 20
172.900544281544
 40
6.94952579518713
 50
144.859821158984
 51
215.140178841017
  0
LINE
  8
画層0
  6
CONTINUOUS
 62
7
 10
132.107898093102
 20
160.900544281544
 11
139.807898093102
 21
160.900544281544
  0
LINE
  8
画層0
  6
CONTINUOUS
 62
7
 10
132.107898093102
 20
176.900544281544
 11
139.807898093102
 21
176.900544281544
  0
LINE
  8
画層0
  6
CONTINUOUS
 62
7
 10
116.107898093102
 20
160.900544281544
 11
108.407898093103
 21
160.900544281544
  0
LINE
  8
画層0
  6
CONTINUOUS
 62
7
 10
116.107898093102
 20
176.900544281544
 11
108.407898093103
 21
176.900544281544
  0
LINE
  8
画層0
  6
CENTER
 62
7
 10
115.157898093102
 20
161.800544281544
 11
133.057898093102
 21
161.800544281544
  0
LINE
  8
画層0
  6
CENTER
 62
7
 10
130.507898093102
 20
159.250544281544
 11
130.507898093102
 21
178.550544281544
  0
LINE
  8
画層0
  6
CENTER
 62
7
 10
133.057898093102
 20
176.000544281544
 11
115.157898093102
 21
176.000544281544
  0
LINE
  8
画層0
  6
CENTER
 62
7
 10
117.707898093102
 20
178.550544281544
 11
117.707898093102
 21
159.250544281544
  0
CIRCLE
  8
画層0
  6
CONTINUOUS
 62
7
 10
124.107898093102
 20
168.900544281544
 40
7.00000000000011
  0
LINE
  8
画層0
  6
CENTER
 62
7
 10
103.47685082826
 20
168.900544281544
 11
144.812694247459
 21
168.900544281544
  0
LINE
  8
画層0
  6
CENTER
 62
7
 10
124.107898093102
 20
180.400544281544
 11
124.107898093102
 21
157.400544281544
  0
LINE
  8
画層0
  6
CONTINUOUS
 62
7
 10
116.107898093102
 20
159.956272371544
 11
132.107898093102
 21
159.956272371544
  0
LINE
  8
画層0
  6
CONTINUOUS
 62
7
 10
132.107898093102
 20
158.900544281544
 11
132.107898093102
 21
178.900544281544
  0
LINE
  8
画層0
  6
CONTINUOUS
 62
7
 10
132.107898093102
 20
177.844816191543
 11
116.107898093102
 21
177.844816191543
  0
LINE
  8
画層0
  6
CONTINUOUS
 62
7
 10
116.107898093102
 20
178.900544281544
 11
116.107898093102
 21
158.900544281544
  0
LINE
  8
画層0
  6
CONTINUOUS
 62
7
 10
116.107898093102
 20
178.900544281544
 11
132.107898093102
 21
178.900544281544
  0
LINE
  8
画層0
  6
CONTINUOUS
 62
7
 10
116.107898093102
 20
158.900544281544
 11
132.107898093102
 21
158.900544281544
  0
CIRCLE
  8
画層0
  6
CONTINUOUS
 62
7
 10
124.107898093102
 20
168.900544281544
 40
3.99999999999989
  0
CIRCLE
  8
画層0
  6
CONTINUOUS
 62
7
 10
124.107898093102
 20
168.900544281544
 40
2.00000000000011
  0
LINE
  8
画層7
  6
BYLAYER
 62
7
 10
117.982898093102
 20
175.725544281544
 11
118.807898093102
 21
175.725544281544
  0
LINE
  8
画層7
  6
BYLAYER
 62
7
 10
118.807898093102
 20
175.725544281544
 11
118.807898093102
 21
176.275544281544
  0
LINE
  8
画層7
  6
BYLAYER
 62
7
 10
118.807898093102
 20
176.275544281544
 11
117.982898093102
 21
176.275544281544
  0
LINE
  8
画層7
  6
BYLAYER
 62
7
 10
117.982898093102
 20
176.275544281544
 11
117.982898093102
 21
177.100544281544
  0
LINE
  8
画層7
  6
BYLAYER
 62
7
 10
117.982898093102
 20
177.100544281544
 11
117.432898093102
 21
177.100544281544
  0
LINE
  8
画層7
  6
BYLAYER
 62
7
 10
117.432898093102
 20
177.100544281544
 11
117.432898093102
 21
176.275544281544
  0
LINE
  8
画層7
  6
BYLAYER
 62
7
 10
116.607898093102
 20
175.725544281544
 11
117.432898093102
 21
175.725544281544
  0
LINE
  8
画層7
  6
BYLAYER
 62
7
 10
117.432898093102
 20
176.275544281544
 11
116.607898093102
 21
176.275544281544
  0
LINE
  8
画層7
  6
BYLAYER
 62
7
 10
116.607898093102
 20
176.275544281544
 11
116.607898093102
 21
175.725544281544
  0
LINE
  8
画層7
  6
BYLAYER
 62
7
 10
117.432898093102
 20
174.900544281544
 11
117.982898093102
 21
174.900544281544
  0
LINE
  8
画層7
  6
BYLAYER
 62
7
 10
117.982898093102
 20
174.900544281544
 11
117.982898093102
 21
175.725544281544
  0
LINE
  8
画層7
  6
BYLAYER
 62
7
 10
117.432898093102
 20
175.725544281544
 11
117.432898093102
 21
174.900544281544
  0
LINE
  8
画層5
  6
BYLAYER
 62
7
 10
113.457898093103
 20
161.800544281544
 11
121.957898093102
 21
161.800544281544
  0
LINE
  8
画層5
  6
BYLAYER
 62
7
 10
117.707898093102
 20
157.550544281544
 11
117.707898093102
 21
166.050544281544
  0
CIRCLE
  8
画層0
  6
CONTINUOUS
 62
7
 10
117.707898093102
 20
176.000544281544
 40
1.60000000000014
  0
CIRCLE
  8
画層0
  6
CONTINUOUS
 62
7
 10
130.507898093102
 20
176.000544281544
 40
1.60000000000002
  0
LINE
  8
画層7
  6
BYLAYER
 62
7
 10
130.232898093102
 20
175.725544281544
 11
130.232898093102
 21
174.900544281544
  0
LINE
  8
画層7
  6
BYLAYER
 62
7
 10
130.782898093102
 20
174.900544281544
 11
130.782898093102
 21
175.725544281544
  0
LINE
  8
画層7
  6
BYLAYER
 62
7
 10
130.232898093102
 20
174.900544281544
 11
130.782898093102
 21
174.900544281544
  0
LINE
  8
画層7
  6
BYLAYER
 62
7
 10
129.407898093102
 20
176.275544281544
 11
129.407898093102
 21
175.725544281544
  0
LINE
  8
画層7
  6
BYLAYER
 62
7
 10
130.232898093102
 20
176.275544281544
 11
129.407898093102
 21
176.275544281544
  0
LINE
  8
画層7
  6
BYLAYER
 62
7
 10
129.407898093102
 20
175.725544281544
 11
130.232898093102
 21
175.725544281544
  0
LINE
  8
画層7
  6
BYLAYER
 62
7
 10
130.232898093102
 20
177.100544281544
 11
130.232898093102
 21
176.275544281544
  0
LINE
  8
画層7
  6
BYLAYER
 62
7
 10
130.782898093102
 20
177.100544281544
 11
130.232898093102
 21
177.100544281544
  0
LINE
  8
画層7
  6
BYLAYER
 62
7
 10
130.782898093102
 20
176.275544281544
 11
130.782898093102
 21
177.100544281544
  0
LINE
  8
画層7
  6
BYLAYER
 62
7
 10
131.607898093102
 20
176.275544281544
 11
130.782898093102
 21
176.275544281544
  0
LINE
  8
画層7
  6
BYLAYER
 62
7
 10
131.607898093102
 20
175.725544281544
 11
131.607898093102
 21
176.275544281544
  0
LINE
  8
画層7
  6
BYLAYER
 62
7
 10
130.782898093102
 20
175.725544281544
 11
131.607898093102
 21
175.725544281544
  0
CIRCLE
  8
画層0
  6
CONTINUOUS
 62
7
 10
117.707898093102
 20
161.800544281544
 40
1.60000000000014
  0
LINE
  8
画層7
  6
BYLAYER
 62
7
 10
117.432898093102
 20
161.525544281544
 11
117.432898093102
 21
160.700544281544
  0
LINE
  8
画層7
  6
BYLAYER
 62
7
 10
117.982898093102
 20
160.700544281544
 11
117.982898093102
 21
161.525544281544
  0
LINE
  8
画層7
  6
BYLAYER
 62
7
 10
117.432898093102
 20
160.700544281544
 11
117.982898093102
 21
160.700544281544
  0
LINE
  8
画層7
  6
BYLAYER
 62
7
 10
116.607898093102
 20
162.075544281544
 11
116.607898093102
 21
161.525544281544
  0
LINE
  8
画層7
  6
BYLAYER
 62
7
 10
117.432898093102
 20
162.075544281544
 11
116.607898093102
 21
162.075544281544
  0
LINE
  8
画層7
  6
BYLAYER
 62
7
 10
116.607898093102
 20
161.525544281544
 11
117.432898093102
 21
161.525544281544
  0
LINE
  8
画層7
  6
BYLAYER
 62
7
 10
117.432898093102
 20
162.900544281544
 11
117.432898093102
 21
162.075544281544
  0
LINE
  8
画層7
  6
BYLAYER
 62
7
 10
117.982898093102
 20
162.900544281544
 11
117.432898093102
 21
162.900544281544
  0
LINE
  8
画層7
  6
BYLAYER
 62
7
 10
117.982898093102
 20
162.075544281544
 11
117.982898093102
 21
162.900544281544
  0
LINE
  8
画層7
  6
BYLAYER
 62
7
 10
118.807898093102
 20
162.075544281544
 11
117.982898093102
 21
162.075544281544
  0
LINE
  8
画層7
  6
BYLAYER
 62
7
 10
118.807898093102
 20
161.525544281544
 11
118.807898093102
 21
162.075544281544
  0
LINE
  8
画層7
  6
BYLAYER
 62
7
 10
117.982898093102
 20
161.525544281544
 11
118.807898093102
 21
161.525544281544
  0
CIRCLE
  8
画層0
  6
CONTINUOUS
 62
7
 10
130.507898093102
 20
161.800544281544
 40
1.60000000000002
  0
LINE
  8
画層7
  6
BYLAYER
 62
7
 10
130.232898093102
 20
161.525544281544
 11
130.232898093102
 21
160.700544281544
  0
LINE
  8
画層7
  6
BYLAYER
 62
7
 10
130.782898093102
 20
160.700544281544
 11
130.782898093102
 21
161.525544281544
  0
LINE
  8
画層7
  6
BYLAYER
 62
7
 10
130.232898093102
 20
160.700544281544
 11
130.782898093102
 21
160.700544281544
  0
LINE
  8
画層7
  6
BYLAYER
 62
7
 10
129.407898093102
 20
162.075544281544
 11
129.407898093102
 21
161.525544281544
  0
LINE
  8
画層7
  6
BYLAYER
 62
7
 10
130.232898093102
 20
162.075544281544
 11
129.407898093102
 21
162.075544281544
  0
LINE
  8
画層7
  6
BYLAYER
 62
7
 10
129.407898093102
 20
161.525544281544
 11
130.232898093102
 21
161.525544281544
  0
LINE
  8
画層7
  6
BYLAYER
 62
7
 10
130.232898093102
 20
162.900544281544
 11
130.232898093102
 21
162.075544281544
  0
LINE
  8
画層7
  6
BYLAYER
 62
7
 10
130.782898093102
 20
162.900544281544
 11
130.232898093102
 21
162.900544281544
  0
LINE
  8
画層7
  6
BYLAYER
 62
7
 10
130.782898093102
 20
162.075544281544
 11
130.782898093102
 21
162.900544281544
  0
LINE
  8
画層7
  6
BYLAYER
 62
7
 10
131.607898093102
 20
162.075544281544
 11
130.782898093102
 21
162.075544281544
  0
LINE
  8
画層7
  6
BYLAYER
 62
7
 10
131.607898093102
 20
161.525544281544
 11
131.607898093102
 21
162.075544281544
  0
LINE
  8
画層7
  6
BYLAYER
 62
7
 10
130.782898093102
 20
161.525544281544
 11
131.607898093102
 21
161.525544281544
  0
LINE
  8
画層1
  6
CONTINUOUS
 62
7
 10
124.107898093102
 20
83.1521675742779
 11
124.107898093102
 21
97.1572512758967
  0
LINE
  8
画層1
  6
CONTINUOUS
 62
7
 10
132.107898093102
 20
83.1521675742779
 11
132.107898093102
 21
101.091858426474
  0
LINE
  8
画層1
  6
CONTINUOUS
 62
7
 10
124.107898093102
 20
84.1521675742779
 11
132.107898093102
 21
84.1521675742779
  0
LINE
  8
画層1
  6
CONTINUOUS
 62
7
 10
121.107898093102
 20
84.1521675742779
 11
118.107898093102
 21
84.1521675742779
  0
LINE
  8
画層1
  6
CONTINUOUS
 62
7
 10
135.107898093102
 20
84.1521675742779
 11
138.107898093102
 21
84.1521675742779
  0
TEXT
  8
画層1
 62
7
  6
BYLAYER
 62
7
 10
127.579432318409
 20
84.6854675742779
 40
3.2
  1
8
  7
Font_0
 72
1
 11
128.379432318409
 21
86.2854675742779
 73
2
  0
LINE
  8
画層0
  6
CONTINUOUS
 62
7
 10
121.107898093102
 20
84.9560145742779
 11
124.107898093102
 21
84.1521675742779
  0
LINE
  8
画層0
  6
CONTINUOUS
 62
7
 10
124.107898093102
 20
84.1521675742779
 11
121.107898093102
 21
83.3483205742779
  0
LINE
  8
画層0
  6
CONTINUOUS
 62
7
 10
124.107898093102
 20
84.1521675742779
 11
121.107898093102
 21
84.1521675742779
  0
LINE
  8
画層0
  6
CONTINUOUS
 62
7
 10
132.107898093102
 20
84.1521675742779
 11
135.107898093102
 21
84.1521675742779
  0
LINE
  8
画層1
  6
CONTINUOUS
 62
7
 10
168.107898093102
 20
94.7918584264737
 11
168.107898093102
 21
83.1521675742779
  0
LINE
  8
画層1
  6
CONTINUOUS
 62
7
 10
135.107898093102
 20
84.1521675742779
 11
165.107898093102
 21
84.1521675742779
  0
TEXT
  8
画層1
 62
7
  6
BYLAYER
 62
7
 10
148.507898093102
 20
84.6854675742779
 40
3.2
  1
36
  7
Font_0
 72
1
 11
150.107898093102
 21
86.2854675742779
 73
2
  0
LINE
  8
画層0
  6
CONTINUOUS
 62
7
 10
135.107898093102
 20
83.3483205742779
 11
132.107898093102
 21
84.1521675742779
  0
LINE
  8
画層0
  6
CONTINUOUS
 62
7
 10
132.107898093102
 20
84.1521675742779
 11
135.107898093102
 21
84.9560145742779
  0
LINE
  8
画層0
  6
CONTINUOUS
 62
7
 10
132.107898093102
 20
84.1521675742779
 11
135.107898093102
 21
84.1521675742779
  0
LINE
  8
画層0
  6
CONTINUOUS
 62
7
 10
165.107898093102
 20
84.9560145742779
 11
168.107898093102
 21
84.1521675742779
  0
LINE
  8
画層0
  6
CONTINUOUS
 62
7
 10
168.107898093102
 20
84.1521675742779
 11
165.107898093102
 21
83.3483205742779
  0
LINE
  8
画層0
  6
CONTINUOUS
 62
7
 10
168.107898093102
 20
84.1521675742779
 11
165.107898093102
 21
84.1521675742779
  0
LINE
  8
画層0
  6
HIDDEN
 62
7
 10
120.107898093102
 20
133.291858426474
 11
120.107898093102
 21
121.591858426474
  0
LINE
  8
画層0
  6
HIDDEN
 62
7
 10
120.107898093102
 20
121.591858426474
 11
128.107898093103
 21
121.591858426474
  0
LINE
  8
画層0
  6
HIDDEN
 62
7
 10
128.107898093102
 20
133.291858426474
 11
128.107898093102
 21
121.591858426474
  0
POLYLINE
  8
画層0
 62
7
  6
CONTINUOUS
 10
0.0
 20
0.0
 30
0.0
 66
1
  0
VERTEX
  8
画層0
 10
138.678037986654
  20
139.369982253407
  0
VERTEX
  8
画層0
 10
140.330589966842
  20
139.369982253407
  0
SEQEND
100
AcDbEntity
  8
画層0
  0
LINE
  8
画層0
  6
CONTINUOUS
 62
7
 10
140.330589966842
 20
139.369982253407
 11
172.543923300175
 21
139.369982253407
  0
TEXT
  8
画層0
 62
7
  6
BYLAYER
 62
7
 10
140.330589966842
 20
139.769982253407
 40
3.2
  1
%%c8ライトガイド用
  7
Font_0
  0
LINE
  8
画層1
  6
CONTINUOUS
 62
7
 10
120.107898093102
 20
134.291858426474
 11
120.107898093102
 21
140.316619765066
  0
LINE
  8
画層1
  6
CONTINUOUS
 62
7
 10
128.107898093102
 20
134.291858426474
 11
128.107898093102
 21
140.316619765066
  0
LINE
  8
画層1
  6
CONTINUOUS
 62
7
 10
123.107898093102
 20
139.316619765066
 11
125.107898093102
 21
139.316619765066
  0
TEXT
  8
画層1
 62
7
  6
BYLAYER
 62
7
 10
121.707898093102
 20
139.849919765066
 40
3.2
  1
%%c8
  7
Font_0
 72
1
 11
124.107898093102
 21
141.449919765066
 73
2
  0
LINE
  8
画層0
  6
CONTINUOUS
 62
7
 10
123.107898093102
 20
138.512772765066
 11
120.107898093102
 21
139.316619765066
  0
LINE
  8
画層0
  6
CONTINUOUS
 62
7
 10
120.107898093102
 20
139.316619765066
 11
123.107898093102
 21
140.120466765066
  0
LINE
  8
画層0
  6
CONTINUOUS
 62
7
 10
120.107898093102
 20
139.316619765066
 11
123.107898093102
 21
139.316619765066
  0
LINE
  8
画層0
  6
CONTINUOUS
 62
7
 10
125.107898093102
 20
140.120466765066
 11
128.107898093102
 21
139.316619765066
  0
LINE
  8
画層0
  6
CONTINUOUS
 62
7
 10
128.107898093102
 20
139.316619765066
 11
125.107898093102
 21
138.512772765066
  0
LINE
  8
画層0
  6
CONTINUOUS
 62
7
 10
128.107898093102
 20
139.316619765066
 11
125.107898093102
 21
139.316619765066
  0
LINE
  8
画層1
  6
CONTINUOUS
 62
7
 10
117.107898093103
 20
133.791858426474
 11
117.107898093103
 21
146.250143789437
  0
LINE
  8
画層1
  6
CONTINUOUS
 62
7
 10
131.107898093103
 20
133.791858426474
 11
131.107898093103
 21
146.250143789437
  0
LINE
  8
画層1
  6
CONTINUOUS
 62
7
 10
120.107898093103
 20
145.250143789437
 11
128.107898093102
 21
145.250143789437
  0
TEXT
  8
画層1
 62
7
  6
BYLAYER
 62
7
 10
120.907898093102
 20
145.783443789437
 40
3.2
  1
%%c14
  7
Font_0
 72
1
 11
124.107898093102
 21
147.383443789437
 73
2
  0
LINE
  8
画層0
  6
CONTINUOUS
 62
7
 10
120.107898093103
 20
144.446296789437
 11
117.107898093103
 21
145.250143789437
  0
LINE
  8
画層0
  6
CONTINUOUS
 62
7
 10
117.107898093103
 20
145.250143789437
 11
120.107898093103
 21
146.053990789437
  0
LINE
  8
画層0
  6
CONTINUOUS
 62
7
 10
117.107898093103
 20
145.250143789437
 11
120.107898093103
 21
145.250143789437
  0
LINE
  8
画層0
  6
CONTINUOUS
 62
7
 10
128.107898093103
 20
146.053990789437
 11
131.107898093103
 21
145.250143789437
  0
LINE
  8
画層0
  6
CONTINUOUS
 62
7
 10
131.107898093103
 20
145.250143789437
 11
128.107898093103
 21
144.446296789437
  0
LINE
  8
画層0
  6
CONTINUOUS
 62
7
 10
131.107898093103
 20
145.250143789437
 11
128.107898093103
 21
145.250143789437
  0
LINE
  8
画層1
  6
CONTINUOUS
 62
7
 10
116.607898093103
 20
133.291858426474
 11
109.686523887982
 21
133.291858426474
  0
LINE
  8
画層1
  6
CONTINUOUS
 62
7
 10
115.007898093102
 20
118.791858426474
 11
109.686523887982
 21
118.791858426474
  0
LINE
  8
画層1
  6
CONTINUOUS
 62
7
 10
110.686523887982
 20
130.291858426474
 11
110.686523887982
 21
121.791858426474
  0
TEXT
  8
画層1
 62
7
  6
BYLAYER
 62
7
 10
110.153223887982
 20
122.841858426474
 40
3.2
  1
14.5
  7
Font_0
 50
90
 72
1
 11
108.553223887982
 21
126.041858426474
 73
2
  0
LINE
  8
画層0
  6
CONTINUOUS
 62
7
 10
109.882676887982
 20
130.291858426474
 11
110.686523887982
 21
133.291858426474
  0
LINE
  8
画層0
  6
CONTINUOUS
 62
7
 10
110.686523887982
 20
133.291858426474
 11
111.490370887982
 21
130.291858426474
  0
LINE
  8
画層0
  6
CONTINUOUS
 62
7
 10
110.686523887982
 20
133.291858426474
 11
110.686523887982
 21
130.291858426474
  0
LINE
  8
画層0
  6
CONTINUOUS
 62
7
 10
111.490370887982
 20
121.791858426474
 11
110.686523887982
 21
118.791858426474
  0
LINE
  8
画層0
  6
CONTINUOUS
 62
7
 10
110.686523887982
 20
118.791858426474
 11
109.882676887982
 21
121.791858426474
  0
LINE
  8
画層0
  6
CONTINUOUS
 62
7
 10
110.686523887982
 20
118.791858426474
 11
110.686523887982
 21
121.791858426474
  0
LINE
  8
画層1
  6
CONTINUOUS
 62
7
 10
235.141911771682
 20
141.291858426474
 11
230.911112402759
 21
141.291858426474
  0
LINE
  8
画層1
  6
CONTINUOUS
 62
7
 10
235.641911771682
 20
118.791858426474
 11
230.911112402759
 21
118.791858426474
  0
LINE
  8
画層1
  6
CONTINUOUS
 62
7
 10
231.911112402759
 20
138.291858426474
 11
231.911112402759
 21
121.791858426474
  0
TEXT
  8
画層1
 62
7
  6
BYLAYER
 62
7
 10
231.377812402759
 20
126.841858426474
 40
3.2
  1
22.5
  7
Font_0
 50
90
 72
1
 11
229.777812402759
 21
130.041858426474
 73
2
  0
LINE
  8
画層0
  6
CONTINUOUS
 62
7
 10
231.107265402759
 20
138.291858426474
 11
231.911112402759
 21
141.291858426474
  0
LINE
  8
画層0
  6
CONTINUOUS
 62
7
 10
231.911112402759
 20
141.291858426474
 11
232.714959402759
 21
138.291858426474
  0
LINE
  8
画層0
  6
CONTINUOUS
 62
7
 10
231.911112402759
 20
141.291858426474
 11
231.911112402759
 21
138.291858426474
  0
LINE
  8
画層0
  6
CONTINUOUS
 62
7
 10
232.714959402759
 20
121.791858426474
 11
231.911112402759
 21
118.791858426474
  0
LINE
  8
画層0
  6
CONTINUOUS
 62
7
 10
231.911112402759
 20
118.791858426474
 11
231.107265402759
 21
121.791858426474
  0
LINE
  8
画層0
  6
CONTINUOUS
 62
7
 10
231.911112402759
 20
118.791858426474
 11
231.911112402759
 21
121.791858426474
  0
LINE
  8
画層0
  6
CONTINUOUS
 62
7
 10
229.822793280553
 20
161.482606684441
 11
264.169459947219
 21
161.482606684441
  0
TEXT
  8
画層0
 62
7
  6
BYLAYER
 62
7
 10
229.822793280553
 20
161.882606684441
 40
3.2
  1
%%c12ライトガイド用
  7
Font_0
  0
POLYLINE
  8
画層0
 62
7
  6
CONTINUOUS
 10
0.0
 20
0.0
 30
0.0
 66
1
  0
VERTEX
  8
画層0
 10
228.451595462359
  20
161.482606684441
  0
VERTEX
  8
画層0
 10
229.822793280553
  20
161.482606684441
  0
SEQEND
100
AcDbEntity
  8
画層0
  0
LINE
  8
画層1
  6
CONTINUOUS
 62
7
 10
235.641911771682
 20
141.791858426474
 11
235.641911771682
 21
153.755565530173
  0
LINE
  8
画層1
  6
CONTINUOUS
 62
7
 10
253.641911771682
 20
141.791858426474
 11
253.641911771682
 21
153.755565530173
  0
LINE
  8
画層1
  6
CONTINUOUS
 62
7
 10
238.641911771682
 20
152.755565530173
 11
250.641911771682
 21
152.755565530173
  0
TEXT
  8
画層1
 62
7
  6
BYLAYER
 62
7
 10
241.441911771682
 20
153.288865530173
 40
3.2
  1
%%c18
  7
Font_0
 72
1
 11
244.641911771682
 21
154.888865530173
 73
2
  0
LINE
  8
画層0
  6
CONTINUOUS
 62
7
 10
238.641911771682
 20
151.951718530173
 11
235.641911771682
 21
152.755565530173
  0
LINE
  8
画層0
  6
CONTINUOUS
 62
7
 10
235.641911771682
 20
152.755565530173
 11
238.641911771682
 21
153.559412530173
  0
LINE
  8
画層0
  6
CONTINUOUS
 62
7
 10
235.641911771682
 20
152.755565530173
 11
238.641911771682
 21
152.755565530173
  0
LINE
  8
画層0
  6
CONTINUOUS
 62
7
 10
250.641911771682
 20
153.559412530173
 11
253.641911771682
 21
152.755565530173
  0
LINE
  8
画層0
  6
CONTINUOUS
 62
7
 10
253.641911771682
 20
152.755565530173
 11
250.641911771682
 21
151.951718530173
  0
LINE
  8
画層0
  6
CONTINUOUS
 62
7
 10
253.641911771682
 20
152.755565530173
 11
250.641911771682
 21
152.755565530173
  0
LINE
  8
画層1
  6
CONTINUOUS
 62
7
 10
238.641911771682
 20
142.291858426474
 11
238.641911771682
 21
148.514642195501
  0
LINE
  8
画層1
  6
CONTINUOUS
 62
7
 10
250.641911771682
 20
142.291858426474
 11
250.641911771682
 21
148.514642195501
  0
LINE
  8
画層1
  6
CONTINUOUS
 62
7
 10
241.641911771682
 20
147.514642195501
 11
247.641911771682
 21
147.514642195501
  0
TEXT
  8
画層1
 62
7
  6
BYLAYER
 62
7
 10
241.441911771682
 20
148.047942195501
 40
3.2
  1
%%c12
  7
Font_0
 72
1
 11
244.641911771682
 21
149.647942195501
 73
2
  0
LINE
  8
画層0
  6
CONTINUOUS
 62
7
 10
241.641911771682
 20
146.710795195501
 11
238.641911771682
 21
147.514642195501
  0
LINE
  8
画層0
  6
CONTINUOUS
 62
7
 10
238.641911771682
 20
147.514642195501
 11
241.641911771682
 21
148.318489195501
  0
LINE
  8
画層0
  6
CONTINUOUS
 62
7
 10
238.641911771682
 20
147.514642195501
 11
241.641911771682
 21
147.514642195501
  0
LINE
  8
画層0
  6
CONTINUOUS
 62
7
 10
247.641911771682
 20
148.318489195501
 11
250.641911771682
 21
147.514642195501
  0
LINE
  8
画層0
  6
CONTINUOUS
 62
7
 10
250.641911771682
 20
147.514642195501
 11
247.641911771682
 21
146.710795195501
  0
LINE
  8
画層0
  6
CONTINUOUS
 62
7
 10
250.641911771682
 20
147.514642195501
 11
247.641911771682
 21
147.514642195501
  0
LINE
  8
画層0
  6
CONTINUOUS
 62
7
 10
236.641911771682
 20
102.791858426474
 11
228.941911771682
 21
102.791858426474
  0
LINE
  8
画層0
  6
CONTINUOUS
 62
7
 10
228.941911771682
 20
118.791858426474
 11
260.341911771682
 21
118.791858426474
  0
LINE
  8
画層0
  6
CENTER
 62
7
 10
224.010864506839
 20
110.791858426474
 11
265.346707926038
 21
110.791858426474
  0
LINE
  8
画層0
  6
CONTINUOUS
 62
7
 10
252.641911771682
 20
102.791858426474
 11
260.341911771682
 21
102.791858426474
  0
ARC
  8
画層0
  6
CONTINUOUS
 62
7
 10
254.658962820832
 20
106.791858426474
 40
6.94952579518713
 50
324.859821158983
 51
35.1401788410197
  0
ARC
  8
画層0
  6
CONTINUOUS
 62
7
 10
254.658962820831
 20
114.791858426474
 40
6.94952579518701
 50
324.859821158983
 51
35.1401788410174
  0
ARC
  8
画層0
  6
CONTINUOUS
 62
7
 10
266.024860722532
 20
114.791858426474
 40
6.9495257951869
 50
144.859821158983
 51
215.140178841018
  0
ARC
  8
画層0
  6
CONTINUOUS
 62
7
 10
223.258962820832
 20
106.791858426474
 40
6.94952579518701
 50
324.859821158983
 51
35.1401788410175
  0
ARC
  8
画層0
  6
CONTINUOUS
 62
7
 10
234.624860722532
 20
106.791858426474
 40
6.94952579518701
 50
144.85982115898
 51
215.140178841017
  0
ARC
  8
画層0
  6
CONTINUOUS
 62
7
 10
234.624860722532
 20
114.791858426474
 40
6.94952579518701
 50
144.859821158982
 51
215.140178841019
  0
LINE
  8
画層0
  6
CONTINUOUS
 62
7
 10
252.641911771682
 20
102.091858426474
 11
252.641911771682
 21
120.491858426474
  0
LINE
  8
画層0
  6
CONTINUOUS
 62
7
 10
236.641911771682
 20
102.091858426474
 11
236.641911771682
 21
120.491858426474
  0
LINE
  8
画層0
  6
CONTINUOUS
 62
7
 10
236.641911771682
 20
102.091858426474
 11
236.941911771682
 21
101.791858426474
  0
LINE
  8
画層0
  6
CONTINUOUS
 62
7
 10
252.341911771682
 20
101.791858426474
 11
252.641911771682
 21
102.091858426474
  0
LINE
  8
画層0
  6
CONTINUOUS
 62
7
 10
236.641911771682
 20
102.85460449328
 11
252.641911771682
 21
102.85460449328
  0
LINE
  8
画層0
  6
CONTINUOUS
 62
7
 10
252.341911771682
 20
101.791858426474
 11
236.941911771682
 21
101.791858426474
  0
LINE
  8
画層0
  6
CONTINUOUS
 62
7
 10
235.641911771682
 20
140.791858426474
 11
236.141911771682
 21
141.291858426474
  0
LINE
  8
画層0
  6
CONTINUOUS
 62
7
 10
235.641911771682
 20
135.791858426474
 11
235.641911771682
 21
140.791858426474
  0
LINE
  8
画層0
  6
CONTINUOUS
 62
7
 10
236.141911771682
 20
135.291858426474
 11
235.641911771682
 21
135.791858426474
  0
LINE
  8
画層0
  6
CONTINUOUS
 62
7
 10
236.141911771682
 20
135.291858426474
 11
253.141911771682
 21
135.291858426474
  0
LINE
  8
画層0
  6
CONTINUOUS
 62
7
 10
237.641911771682
 20
135.291858426474
 11
237.641911771682
 21
120.791858426474
  0
LINE
  8
画層0
  6
HIDDEN
 62
7
 10
238.641911771682
 20
121.591858426474
 11
250.641911771682
 21
121.591858426474
  0
LINE
  8
画層0
  6
HIDDEN
 62
7
 10
238.641911771682
 20
121.591858426474
 11
238.641911771682
 21
141.291858426474
  0
LINE
  8
画層0
  6
CONTINUOUS
 62
7
 10
236.141911771682
 20
141.291858426474
 11
253.141911771682
 21
141.291858426474
  0
LINE
  8
画層0
  6
CONTINUOUS
 62
7
 10
253.141911771682
 20
141.291858426474
 11
253.641911771682
 21
140.791858426474
  0
CIRCLE
  8
画層0
  6
CONTINUOUS
 62
7
 10
244.641911771682
 20
138.291858426474
 40
1.25
  0
CIRCLE
  8
画層0
  6
CONTINUOUS
 62
7
 10
244.641911771682
 20
138.291858426474
 40
1.5
  0
LINE
  8
画層0
  6
CENTER
 62
7
 10
247.641911771682
 20
138.291858426474
 11
241.641911771682
 21
138.291858426474
  0
LINE
  8
画層0
  6
CENTER
 62
7
 10
244.641911771682
 20
144.791858426474
 11
244.641911771682
 21
98.1572512758967
  0
LINE
  8
画層0
  6
CONTINUOUS
 62
7
 10
253.641911771682
 20
140.791858426474
 11
253.641911771682
 21
135.791858426474
  0
LINE
  8
画層0
  6
CONTINUOUS
 62
7
 10
253.141911771682
 20
135.291858426474
 11
253.641911771682
 21
135.791858426474
  0
LINE
  8
画層0
  6
CONTINUOUS
 62
7
 10
251.641911771682
 20
135.291858426474
 11
251.641911771682
 21
120.791858426474
  0
LINE
  8
画層0
  6
HIDDEN
 62
7
 10
250.641911771682
 20
121.591858426474
 11
250.641911771682
 21
141.291858426474
  0
LINE
  8
画層0
  6
CONTINUOUS
 62
7
 10
252.341911771682
 20
120.791858426474
 11
236.941911771682
 21
120.791858426474
  0
LINE
  8
画層0
  6
CONTINUOUS
 62
7
 10
252.641911771682
 20
120.491858426474
 11
252.341911771682
 21
120.791858426474
  0
LINE
  8
画層0
  6
CONTINUOUS
 62
7
 10
236.641911771682
 20
120.491858426474
 11
236.941911771682
 21
120.791858426474
  0
TEXT
  8
画層0
 62
7
  6
BYLAYER
 62
7
 10
222.870589508375
 20
92.0565616350581
 40
3.2
  1
製品名：ＫＣＭ－４Ｄ－６５Ｃ
  7
Font_0
  0
TEXT
  8
画層0
 62
7
  6
BYLAYER
 62
7
 10
228.984556298294
 20
86.3984620048149
 40
3.2
  1
（カスタム対応可能）
  7
Font_0
  0
POLYLINE
  8
画層0
  6
CONTINUOUS
 10
0.0
 20
0.0
 30
0.0
 66
1
 70
     1
  0
VERTEX
  8
画層0
 10
274.641911771682
  20
171.591858426474
  0
VERTEX
  8
画層0
 10
214.641911771682
  20
171.591858426474
  0
VERTEX
  8
画層0
 10
214.641911771682
  20
71.5918584264737
  0
VERTEX
  8
画層0
 10
274.641911771682
  20
71.5918584264737
  0
SEQEND
100
AcDbEntity
  8
画層0
  0
ENDSEC
  0
EOF
