999
Outputted By AR_CAD Ver.1.5.2a
  0
SECTION
  2
HEADER
  9
$ACADVER
  1
AC1009
  9
$DWGCODEPAGE
  3
DOS932
  9
$EXTMIN
 10
0
 20
0
  9
$EXTMAX
 10
297
 20
210
  9
$INSBASE
 10
0.0
 20
0.0
 30
0.0
  9
$HANDLING
 70
     1
  9
$LTSCALE
 40
1
  0
ENDSEC
  0
SECTION
  2
TABLES
  0
TABLE
  2
LTYPE
 70
     8
  0
LTYPE
  2
BYBLOCK
 70
    64
 3

 72
    65
 73
    0
 40
    0
  0
LTYPE
  2
BYLAYER
 70
    64
 3

 72
    65
 73
    0
 40
    0
  0
LTYPE
  2
CONTINUOUS
 70
    64
 3
CONTINUOUS
 72
    65
 73
    0
 40
    0
  0
LTYPE
  2
DASHED
 70
    64
 3

 72
    65
 73
    2
 40
    3.5
 49
    2.91666666666667
 49
    -0.583333333333333
  0
LTYPE
  2
DOT
 70
    64
 3

 72
    65
 73
    2
 40
    0.5
 49
    0.25
 49
    -0.25
  0
LTYPE
  2
DASHDOT
 70
    64
 3

 72
    65
 73
    4
 40
    3.5
 49
    1.84210526315789
 49
    -0.552631578947368
 49
    0.552631578947368
 49
    -0.552631578947368
  0
LTYPE
  2
DIVIDE
 70
    64
 3

 72
    65
 73
    6
 40
    3.5
 49
    1.4
 49
    -0.42
 49
    0.42
 49
    -0.42
 49
    0.42
 49
    -0.42
  0
LTYPE
  2
HIDDEN
 70
    64
 3

 72
    65
 73
    2
 40
    4
 49
    2
 49
    -2
  0
LTYPE
  2
CENTER
 70
    64
 3

 72
    65
 73
    4
 40
    50.8
 49
    31.75
 49
    -6.35
 49
    6.35
 49
    -6.35
  0
ENDTAB
  0
TABLE
  2
LAYER
 70
   257
  0
LAYER
  2
画層0
 70
    0
 62
7
  6
CONTINUOUS
  0
LAYER
  2
画層1
 70
    0
 62
3
  6
CONTINUOUS
  0
LAYER
  2
画層2
 70
    0
 62
9
  6
CONTINUOUS
  0
LAYER
  2
画層3
 70
    0
 62
7
  6
CONTINUOUS
  0
LAYER
  2
画層4
 70
    0
 62
6
  6
CONTINUOUS
  0
LAYER
  2
画層5
 70
    0
 62
1
  6
CONTINUOUS
  0
LAYER
  2
画層6
 70
    0
 62
7
  6
CONTINUOUS
  0
LAYER
  2
画層7
 70
    0
 62
51
  6
CONTINUOUS
  0
LAYER
  2
画層8
 70
    0
 62
61
  6
CONTINUOUS
  0
LAYER
  2
画層9
 70
    0
 62
111
  6
CONTINUOUS
  0
LAYER
  2
画層10
 70
    0
 62
91
  6
CONTINUOUS
  0
LAYER
  2
画層11
 70
    0
 62
131
  6
CONTINUOUS
  0
LAYER
  2
画層12
 70
    0
 62
161
  6
CONTINUOUS
  0
LAYER
  2
画層13
 70
    0
 62
5
  6
CONTINUOUS
  0
LAYER
  2
画層14
 70
    0
 62
7
  6
CONTINUOUS
  0
LAYER
  2
画層15
 70
    0
 62
11
  6
CONTINUOUS
  0
LAYER
  2
画層16
 70
    0
 62
7
  6
CONTINUOUS
  0
LAYER
  2
画層17
 70
    0
 62
70
  6
CONTINUOUS
  0
LAYER
  2
画層18
 70
    0
 62
211
  6
CONTINUOUS
  0
LAYER
  2
画層19
 70
    0
 62
137
  6
CONTINUOUS
  0
LAYER
  2
画層20
 70
    0
 62
4
  6
CONTINUOUS
  0
LAYER
  2
画層21
 70
    0
 62
131
  6
CONTINUOUS
  0
LAYER
  2
画層22
 70
    0
 62
4
  6
CONTINUOUS
  0
LAYER
  2
画層23
 70
    0
 62
4
  6
CONTINUOUS
  0
LAYER
  2
画層24
 70
    0
 62
7
  6
CONTINUOUS
  0
LAYER
  2
画層25
 70
    0
 62
7
  6
CONTINUOUS
  0
LAYER
  2
画層26
 70
    0
 62
7
  6
CONTINUOUS
  0
LAYER
  2
画層27
 70
    0
 62
7
  6
CONTINUOUS
  0
LAYER
  2
画層28
 70
    0
 62
7
  6
CONTINUOUS
  0
LAYER
  2
画層29
 70
    0
 62
7
  6
CONTINUOUS
  0
LAYER
  2
画層30
 70
    0
 62
7
  6
CONTINUOUS
  0
LAYER
  2
画層31
 70
    0
 62
7
  6
CONTINUOUS
  0
LAYER
  2
画層32
 70
    0
 62
7
  6
CONTINUOUS
  0
LAYER
  2
画層33
 70
    0
 62
7
  6
CONTINUOUS
  0
LAYER
  2
画層34
 70
    0
 62
7
  6
CONTINUOUS
  0
LAYER
  2
画層35
 70
    0
 62
7
  6
CONTINUOUS
  0
LAYER
  2
画層36
 70
    0
 62
7
  6
CONTINUOUS
  0
LAYER
  2
画層37
 70
    0
 62
7
  6
CONTINUOUS
  0
LAYER
  2
画層38
 70
    0
 62
7
  6
CONTINUOUS
  0
LAYER
  2
画層39
 70
    0
 62
7
  6
CONTINUOUS
  0
LAYER
  2
画層40
 70
    0
 62
7
  6
CONTINUOUS
  0
LAYER
  2
画層41
 70
    0
 62
7
  6
CONTINUOUS
  0
LAYER
  2
画層42
 70
    0
 62
7
  6
CONTINUOUS
  0
LAYER
  2
画層43
 70
    0
 62
7
  6
CONTINUOUS
  0
LAYER
  2
画層44
 70
    0
 62
7
  6
CONTINUOUS
  0
LAYER
  2
画層45
 70
    0
 62
7
  6
CONTINUOUS
  0
LAYER
  2
画層46
 70
    0
 62
7
  6
CONTINUOUS
  0
LAYER
  2
画層47
 70
    0
 62
7
  6
CONTINUOUS
  0
LAYER
  2
画層48
 70
    0
 62
7
  6
CONTINUOUS
  0
LAYER
  2
画層49
 70
    0
 62
7
  6
CONTINUOUS
  0
LAYER
  2
画層50
 70
    0
 62
7
  6
CONTINUOUS
  0
LAYER
  2
画層51
 70
    0
 62
7
  6
CONTINUOUS
  0
LAYER
  2
画層52
 70
    0
 62
7
  6
CONTINUOUS
  0
LAYER
  2
画層53
 70
    0
 62
7
  6
CONTINUOUS
  0
LAYER
  2
画層54
 70
    0
 62
7
  6
CONTINUOUS
  0
LAYER
  2
画層55
 70
    0
 62
7
  6
CONTINUOUS
  0
LAYER
  2
画層56
 70
    0
 62
7
  6
CONTINUOUS
  0
LAYER
  2
画層57
 70
    0
 62
7
  6
CONTINUOUS
  0
LAYER
  2
画層58
 70
    0
 62
7
  6
CONTINUOUS
  0
LAYER
  2
画層59
 70
    0
 62
7
  6
CONTINUOUS
  0
LAYER
  2
画層60
 70
    0
 62
7
  6
CONTINUOUS
  0
LAYER
  2
画層61
 70
    0
 62
7
  6
CONTINUOUS
  0
LAYER
  2
画層62
 70
    0
 62
7
  6
CONTINUOUS
  0
LAYER
  2
画層63
 70
    0
 62
7
  6
CONTINUOUS
  0
LAYER
  2
画層64
 70
    0
 62
7
  6
CONTINUOUS
  0
LAYER
  2
画層65
 70
    0
 62
7
  6
CONTINUOUS
  0
LAYER
  2
画層66
 70
    0
 62
7
  6
CONTINUOUS
  0
LAYER
  2
画層67
 70
    0
 62
7
  6
CONTINUOUS
  0
LAYER
  2
画層68
 70
    0
 62
7
  6
CONTINUOUS
  0
LAYER
  2
画層69
 70
    0
 62
7
  6
CONTINUOUS
  0
LAYER
  2
画層70
 70
    0
 62
7
  6
CONTINUOUS
  0
LAYER
  2
画層71
 70
    0
 62
7
  6
CONTINUOUS
  0
LAYER
  2
画層72
 70
    0
 62
7
  6
CONTINUOUS
  0
LAYER
  2
画層73
 70
    0
 62
7
  6
CONTINUOUS
  0
LAYER
  2
画層74
 70
    0
 62
7
  6
CONTINUOUS
  0
LAYER
  2
画層75
 70
    0
 62
7
  6
CONTINUOUS
  0
LAYER
  2
画層76
 70
    0
 62
7
  6
CONTINUOUS
  0
LAYER
  2
画層77
 70
    0
 62
7
  6
CONTINUOUS
  0
LAYER
  2
画層78
 70
    0
 62
7
  6
CONTINUOUS
  0
LAYER
  2
画層79
 70
    0
 62
7
  6
CONTINUOUS
  0
LAYER
  2
画層80
 70
    0
 62
7
  6
CONTINUOUS
  0
LAYER
  2
画層81
 70
    0
 62
7
  6
CONTINUOUS
  0
LAYER
  2
画層82
 70
    0
 62
7
  6
CONTINUOUS
  0
LAYER
  2
画層83
 70
    0
 62
7
  6
CONTINUOUS
  0
LAYER
  2
画層84
 70
    0
 62
7
  6
CONTINUOUS
  0
LAYER
  2
画層85
 70
    0
 62
7
  6
CONTINUOUS
  0
LAYER
  2
画層86
 70
    0
 62
7
  6
CONTINUOUS
  0
LAYER
  2
画層87
 70
    0
 62
7
  6
CONTINUOUS
  0
LAYER
  2
画層88
 70
    0
 62
7
  6
CONTINUOUS
  0
LAYER
  2
画層89
 70
    0
 62
7
  6
CONTINUOUS
  0
LAYER
  2
画層90
 70
    0
 62
7
  6
CONTINUOUS
  0
LAYER
  2
画層91
 70
    0
 62
7
  6
CONTINUOUS
  0
LAYER
  2
画層92
 70
    0
 62
7
  6
CONTINUOUS
  0
LAYER
  2
画層93
 70
    0
 62
7
  6
CONTINUOUS
  0
LAYER
  2
画層94
 70
    0
 62
7
  6
CONTINUOUS
  0
LAYER
  2
画層95
 70
    0
 62
7
  6
CONTINUOUS
  0
LAYER
  2
画層96
 70
    0
 62
7
  6
CONTINUOUS
  0
LAYER
  2
画層97
 70
    0
 62
7
  6
CONTINUOUS
  0
LAYER
  2
画層98
 70
    0
 62
7
  6
CONTINUOUS
  0
LAYER
  2
画層99
 70
    0
 62
7
  6
CONTINUOUS
  0
LAYER
  2
画層100
 70
    0
 62
7
  6
CONTINUOUS
  0
LAYER
  2
画層101
 70
    0
 62
7
  6
CONTINUOUS
  0
LAYER
  2
画層102
 70
    0
 62
7
  6
CONTINUOUS
  0
LAYER
  2
画層103
 70
    0
 62
7
  6
CONTINUOUS
  0
LAYER
  2
画層104
 70
    0
 62
7
  6
CONTINUOUS
  0
LAYER
  2
画層105
 70
    0
 62
7
  6
CONTINUOUS
  0
LAYER
  2
画層106
 70
    0
 62
7
  6
CONTINUOUS
  0
LAYER
  2
画層107
 70
    0
 62
7
  6
CONTINUOUS
  0
LAYER
  2
画層108
 70
    0
 62
7
  6
CONTINUOUS
  0
LAYER
  2
画層109
 70
    0
 62
7
  6
CONTINUOUS
  0
LAYER
  2
画層110
 70
    0
 62
7
  6
CONTINUOUS
  0
LAYER
  2
画層111
 70
    0
 62
7
  6
CONTINUOUS
  0
LAYER
  2
画層112
 70
    0
 62
7
  6
CONTINUOUS
  0
LAYER
  2
画層113
 70
    0
 62
7
  6
CONTINUOUS
  0
LAYER
  2
画層114
 70
    0
 62
7
  6
CONTINUOUS
  0
LAYER
  2
画層115
 70
    0
 62
7
  6
CONTINUOUS
  0
LAYER
  2
画層116
 70
    0
 62
7
  6
CONTINUOUS
  0
LAYER
  2
画層117
 70
    0
 62
7
  6
CONTINUOUS
  0
LAYER
  2
画層118
 70
    0
 62
7
  6
CONTINUOUS
  0
LAYER
  2
画層119
 70
    0
 62
7
  6
CONTINUOUS
  0
LAYER
  2
画層120
 70
    0
 62
7
  6
CONTINUOUS
  0
LAYER
  2
画層121
 70
    0
 62
7
  6
CONTINUOUS
  0
LAYER
  2
画層122
 70
    0
 62
7
  6
CONTINUOUS
  0
LAYER
  2
画層123
 70
    0
 62
7
  6
CONTINUOUS
  0
LAYER
  2
画層124
 70
    0
 62
7
  6
CONTINUOUS
  0
LAYER
  2
画層125
 70
    0
 62
7
  6
CONTINUOUS
  0
LAYER
  2
画層126
 70
    0
 62
7
  6
CONTINUOUS
  0
LAYER
  2
画層127
 70
    0
 62
7
  6
CONTINUOUS
  0
LAYER
  2
画層128
 70
    0
 62
7
  6
CONTINUOUS
  0
LAYER
  2
画層129
 70
    0
 62
7
  6
CONTINUOUS
  0
LAYER
  2
画層130
 70
    0
 62
7
  6
CONTINUOUS
  0
LAYER
  2
画層131
 70
    0
 62
7
  6
CONTINUOUS
  0
LAYER
  2
画層132
 70
    0
 62
7
  6
CONTINUOUS
  0
LAYER
  2
画層133
 70
    0
 62
7
  6
CONTINUOUS
  0
LAYER
  2
画層134
 70
    0
 62
7
  6
CONTINUOUS
  0
LAYER
  2
画層135
 70
    0
 62
7
  6
CONTINUOUS
  0
LAYER
  2
画層136
 70
    0
 62
7
  6
CONTINUOUS
  0
LAYER
  2
画層137
 70
    0
 62
7
  6
CONTINUOUS
  0
LAYER
  2
画層138
 70
    0
 62
7
  6
CONTINUOUS
  0
LAYER
  2
画層139
 70
    0
 62
7
  6
CONTINUOUS
  0
LAYER
  2
画層140
 70
    0
 62
7
  6
CONTINUOUS
  0
LAYER
  2
画層141
 70
    0
 62
7
  6
CONTINUOUS
  0
LAYER
  2
画層142
 70
    0
 62
7
  6
CONTINUOUS
  0
LAYER
  2
画層143
 70
    0
 62
7
  6
CONTINUOUS
  0
LAYER
  2
画層144
 70
    0
 62
7
  6
CONTINUOUS
  0
LAYER
  2
画層145
 70
    0
 62
7
  6
CONTINUOUS
  0
LAYER
  2
画層146
 70
    0
 62
7
  6
CONTINUOUS
  0
LAYER
  2
画層147
 70
    0
 62
7
  6
CONTINUOUS
  0
LAYER
  2
画層148
 70
    0
 62
7
  6
CONTINUOUS
  0
LAYER
  2
画層149
 70
    0
 62
7
  6
CONTINUOUS
  0
LAYER
  2
画層150
 70
    0
 62
7
  6
CONTINUOUS
  0
LAYER
  2
画層151
 70
    0
 62
7
  6
CONTINUOUS
  0
LAYER
  2
画層152
 70
    0
 62
7
  6
CONTINUOUS
  0
LAYER
  2
画層153
 70
    0
 62
7
  6
CONTINUOUS
  0
LAYER
  2
画層154
 70
    0
 62
7
  6
CONTINUOUS
  0
LAYER
  2
画層155
 70
    0
 62
7
  6
CONTINUOUS
  0
LAYER
  2
画層156
 70
    0
 62
7
  6
CONTINUOUS
  0
LAYER
  2
画層157
 70
    0
 62
7
  6
CONTINUOUS
  0
LAYER
  2
画層158
 70
    0
 62
7
  6
CONTINUOUS
  0
LAYER
  2
画層159
 70
    0
 62
7
  6
CONTINUOUS
  0
LAYER
  2
画層160
 70
    0
 62
7
  6
CONTINUOUS
  0
LAYER
  2
画層161
 70
    0
 62
7
  6
CONTINUOUS
  0
LAYER
  2
画層162
 70
    0
 62
7
  6
CONTINUOUS
  0
LAYER
  2
画層163
 70
    0
 62
7
  6
CONTINUOUS
  0
LAYER
  2
画層164
 70
    0
 62
7
  6
CONTINUOUS
  0
LAYER
  2
画層165
 70
    0
 62
7
  6
CONTINUOUS
  0
LAYER
  2
画層166
 70
    0
 62
7
  6
CONTINUOUS
  0
LAYER
  2
画層167
 70
    0
 62
7
  6
CONTINUOUS
  0
LAYER
  2
画層168
 70
    0
 62
7
  6
CONTINUOUS
  0
LAYER
  2
画層169
 70
    0
 62
7
  6
CONTINUOUS
  0
LAYER
  2
画層170
 70
    0
 62
7
  6
CONTINUOUS
  0
LAYER
  2
画層171
 70
    0
 62
7
  6
CONTINUOUS
  0
LAYER
  2
画層172
 70
    0
 62
7
  6
CONTINUOUS
  0
LAYER
  2
画層173
 70
    0
 62
7
  6
CONTINUOUS
  0
LAYER
  2
画層174
 70
    0
 62
7
  6
CONTINUOUS
  0
LAYER
  2
画層175
 70
    0
 62
7
  6
CONTINUOUS
  0
LAYER
  2
画層176
 70
    0
 62
7
  6
CONTINUOUS
  0
LAYER
  2
画層177
 70
    0
 62
7
  6
CONTINUOUS
  0
LAYER
  2
画層178
 70
    0
 62
7
  6
CONTINUOUS
  0
LAYER
  2
画層179
 70
    0
 62
7
  6
CONTINUOUS
  0
LAYER
  2
画層180
 70
    0
 62
7
  6
CONTINUOUS
  0
LAYER
  2
画層181
 70
    0
 62
7
  6
CONTINUOUS
  0
LAYER
  2
画層182
 70
    0
 62
7
  6
CONTINUOUS
  0
LAYER
  2
画層183
 70
    0
 62
7
  6
CONTINUOUS
  0
LAYER
  2
画層184
 70
    0
 62
7
  6
CONTINUOUS
  0
LAYER
  2
画層185
 70
    0
 62
7
  6
CONTINUOUS
  0
LAYER
  2
画層186
 70
    0
 62
7
  6
CONTINUOUS
  0
LAYER
  2
画層187
 70
    0
 62
7
  6
CONTINUOUS
  0
LAYER
  2
画層188
 70
    0
 62
7
  6
CONTINUOUS
  0
LAYER
  2
画層189
 70
    0
 62
7
  6
CONTINUOUS
  0
LAYER
  2
画層190
 70
    0
 62
7
  6
CONTINUOUS
  0
LAYER
  2
画層191
 70
    0
 62
7
  6
CONTINUOUS
  0
LAYER
  2
画層192
 70
    0
 62
7
  6
CONTINUOUS
  0
LAYER
  2
画層193
 70
    0
 62
7
  6
CONTINUOUS
  0
LAYER
  2
画層194
 70
    0
 62
7
  6
CONTINUOUS
  0
LAYER
  2
画層195
 70
    0
 62
7
  6
CONTINUOUS
  0
LAYER
  2
画層196
 70
    0
 62
7
  6
CONTINUOUS
  0
LAYER
  2
画層197
 70
    0
 62
7
  6
CONTINUOUS
  0
LAYER
  2
画層198
 70
    0
 62
7
  6
CONTINUOUS
  0
LAYER
  2
画層199
 70
    0
 62
7
  6
CONTINUOUS
  0
LAYER
  2
画層200
 70
    0
 62
7
  6
CONTINUOUS
  0
LAYER
  2
画層201
 70
    0
 62
7
  6
CONTINUOUS
  0
LAYER
  2
画層202
 70
    0
 62
7
  6
CONTINUOUS
  0
LAYER
  2
画層203
 70
    0
 62
7
  6
CONTINUOUS
  0
LAYER
  2
画層204
 70
    0
 62
7
  6
CONTINUOUS
  0
LAYER
  2
画層205
 70
    0
 62
7
  6
CONTINUOUS
  0
LAYER
  2
画層206
 70
    0
 62
7
  6
CONTINUOUS
  0
LAYER
  2
画層207
 70
    0
 62
7
  6
CONTINUOUS
  0
LAYER
  2
画層208
 70
    0
 62
7
  6
CONTINUOUS
  0
LAYER
  2
画層209
 70
    0
 62
7
  6
CONTINUOUS
  0
LAYER
  2
画層210
 70
    0
 62
7
  6
CONTINUOUS
  0
LAYER
  2
画層211
 70
    0
 62
7
  6
CONTINUOUS
  0
LAYER
  2
画層212
 70
    0
 62
7
  6
CONTINUOUS
  0
LAYER
  2
画層213
 70
    0
 62
7
  6
CONTINUOUS
  0
LAYER
  2
画層214
 70
    0
 62
7
  6
CONTINUOUS
  0
LAYER
  2
画層215
 70
    0
 62
7
  6
CONTINUOUS
  0
LAYER
  2
画層216
 70
    0
 62
7
  6
CONTINUOUS
  0
LAYER
  2
画層217
 70
    0
 62
7
  6
CONTINUOUS
  0
LAYER
  2
画層218
 70
    0
 62
7
  6
CONTINUOUS
  0
LAYER
  2
画層219
 70
    0
 62
7
  6
CONTINUOUS
  0
LAYER
  2
画層220
 70
    0
 62
7
  6
CONTINUOUS
  0
LAYER
  2
画層221
 70
    0
 62
7
  6
CONTINUOUS
  0
LAYER
  2
画層222
 70
    0
 62
7
  6
CONTINUOUS
  0
LAYER
  2
画層223
 70
    0
 62
7
  6
CONTINUOUS
  0
LAYER
  2
画層224
 70
    0
 62
7
  6
CONTINUOUS
  0
LAYER
  2
画層225
 70
    0
 62
7
  6
CONTINUOUS
  0
LAYER
  2
画層226
 70
    0
 62
7
  6
CONTINUOUS
  0
LAYER
  2
画層227
 70
    0
 62
7
  6
CONTINUOUS
  0
LAYER
  2
画層228
 70
    0
 62
7
  6
CONTINUOUS
  0
LAYER
  2
画層229
 70
    0
 62
7
  6
CONTINUOUS
  0
LAYER
  2
画層230
 70
    0
 62
7
  6
CONTINUOUS
  0
LAYER
  2
画層231
 70
    0
 62
7
  6
CONTINUOUS
  0
LAYER
  2
画層232
 70
    0
 62
7
  6
CONTINUOUS
  0
LAYER
  2
画層233
 70
    0
 62
7
  6
CONTINUOUS
  0
LAYER
  2
画層234
 70
    0
 62
7
  6
CONTINUOUS
  0
LAYER
  2
画層235
 70
    0
 62
7
  6
CONTINUOUS
  0
LAYER
  2
画層236
 70
    0
 62
7
  6
CONTINUOUS
  0
LAYER
  2
画層237
 70
    0
 62
7
  6
CONTINUOUS
  0
LAYER
  2
画層238
 70
    0
 62
7
  6
CONTINUOUS
  0
LAYER
  2
画層239
 70
    0
 62
7
  6
CONTINUOUS
  0
LAYER
  2
画層240
 70
    0
 62
7
  6
CONTINUOUS
  0
LAYER
  2
画層241
 70
    0
 62
7
  6
CONTINUOUS
  0
LAYER
  2
画層242
 70
    0
 62
7
  6
CONTINUOUS
  0
LAYER
  2
画層243
 70
    0
 62
7
  6
CONTINUOUS
  0
LAYER
  2
画層244
 70
    0
 62
7
  6
CONTINUOUS
  0
LAYER
  2
画層245
 70
    0
 62
7
  6
CONTINUOUS
  0
LAYER
  2
画層246
 70
    0
 62
7
  6
CONTINUOUS
  0
LAYER
  2
画層247
 70
    0
 62
7
  6
CONTINUOUS
  0
LAYER
  2
画層248
 70
    0
 62
7
  6
CONTINUOUS
  0
LAYER
  2
画層249
 70
    0
 62
7
  6
CONTINUOUS
  0
LAYER
  2
画層250
 70
    0
 62
7
  6
CONTINUOUS
  0
LAYER
  2
画層251
 70
    0
 62
7
  6
CONTINUOUS
  0
LAYER
  2
画層252
 70
    0
 62
7
  6
CONTINUOUS
  0
LAYER
  2
画層253
 70
    0
 62
7
  6
CONTINUOUS
  0
LAYER
  2
画層254
 70
    0
 62
7
  6
CONTINUOUS
  0
LAYER
  2
画層255
 70
    0
 62
7
  6
CONTINUOUS
  0
LAYER
  2
0
 70
   64
 62
    7
  6
CONTINUOUS
  0
ENDTAB
  0
TABLE
  2
STYLE
 70
     1
  0
STYLE
  2
Standard
 70
     0
 40
0.0
 41
1.0
 50
0.0
 71
     0
 42
3.2
  3
TXT
  4
BIGFONT
  0
STYLE
  2
Font_0
 70
     0
 40
0.0
 41
1.0
 50
0.0
 71
     0
 42
3.2
  3
txt
  4
BIGFONT
  0
ENDTAB
  0
ENDSEC
  0
SECTION
  2
BLOCKS
  0
BLOCK
  8
画層0
  2
13462_KCAD_FINI
 70
    0
 10
0
 20
0
 30
0.0
  3
13462_KCAD_FINI
  1

  0
LINE
  8
画層0
  6
CONTINUOUS
 62
134
 10
0
 20
0
 11
1.8475208614068
 21
3.2
  0
LINE
  8
画層0
  6
CONTINUOUS
 62
134
 10
1.8475208614068
 20
3.2
 11
-1.8475208614068
 21
3.2
  0
LINE
  8
画層0
  6
CONTINUOUS
 62
134
 10
-1.8475208614068
 20
3.2
 11
0
 21
0
  0
LINE
  8
画層0
  6
CONTINUOUS
 62
134
 10
3.69504172281361
 20
0
 11
5.54256258422041
 21
3.2
  0
LINE
  8
画層0
  6
CONTINUOUS
 62
134
 10
5.54256258422041
 20
3.2
 11
1.8475208614068
 21
3.2
  0
LINE
  8
画層0
  6
CONTINUOUS
 62
134
 10
1.8475208614068
 20
3.2
 11
3.69504172281361
 21
0
  0
LINE
  8
画層0
  6
CONTINUOUS
 62
134
 10
7.39008344562721
 20
0
 11
9.23760430703401
 21
3.2
  0
LINE
  8
画層0
  6
CONTINUOUS
 62
134
 10
9.23760430703401
 20
3.2
 11
5.54256258422041
 21
3.2
  0
LINE
  8
画層0
  6
CONTINUOUS
 62
134
 10
5.54256258422041
 20
3.2
 11
7.39008344562721
 21
0
  0
ENDBLK
  0
ENDSEC
  0
SECTION
  2
ENTITIES
  0
LINE
  8
画層12
  6
CONTINUOUS
 62
7
 10
161.757516918719
 20
7.67811746657904
 11
161.757516918719
 21
9.98160511421247
  0
LINE
  8
画層12
  6
CONTINUOUS
 62
7
 10
160.695692705347
 20
8.45717326727069
 11
160.695692705347
 21
8.98691568097891
  0
LINE
  8
画層12
  6
CONTINUOUS
 62
7
 10
160.695692705347
 20
10.1867119552212
 11
160.695692705347
 21
9.78152949075618
  0
POLYLINE
  8
画層12
 62
7
  6
CONTINUOUS
 10
0.0
 20
0.0
 30
0.0
 66
1
  0
VERTEX
  8
画層12
 10
161.757516918719
  20
9.98160511421247
  0
VERTEX
  8
画層12
 10
161.742444528514
  20
10.2114764392956
  0
VERTEX
  8
画層12
 10
161.707839199535
  20
10.4323150513807
  0
VERTEX
  8
画層12
 10
161.635733015353
  20
10.6387828269386
  0
VERTEX
  8
画層12
 10
161.515237988798
  20
10.8139037327991
  0
VERTEX
  8
画層12
 10
161.351968549191
  20
10.9558303878675
  0
VERTEX
  8
画層12
 10
161.149739391464
  20
11.0544992254773
  0
VERTEX
  8
画層12
 10
160.941279975639
  20
11.1118536504698
  0
VERTEX
  8
画層12
 10
160.750420774157
  20
11.1424530949025
  0
VERTEX
  8
画層12
 10
160.588404795981
  20
11.155571664886
  0
SEQEND
100
AcDbEntity
  8
画層12
  0
ARC
  8
画層12
  6
CONTINUOUS
 62
7
 10
160.514703563489
 20
10.1867119552212
 40
0.180989141858163
 50
0
 51
90
  0
LINE
  8
画層12
  6
CONTINUOUS
 62
7
 10
157.596346016978
 20
7.67811746657904
 11
161.757516918719
 21
7.67811746657904
  0
LINE
  8
画層12
  6
CONTINUOUS
 62
7
 10
157.596346016177
 20
7.67811746657904
 11
157.596346016978
 21
7.67811746657904
  0
LINE
  8
画層12
  6
CONTINUOUS
 62
7
 10
157.596346016978
 20
8.45717326727069
 11
160.695692705347
 21
8.45717326727069
  0
LINE
  8
画層12
  6
CONTINUOUS
 62
7
 10
160.695692705347
 20
8.98691568097891
 11
157.596346016978
 21
8.98691568097891
  0
LINE
  8
画層12
  6
CONTINUOUS
 62
7
 10
157.596346016978
 20
8.98691568097891
 11
157.596346016978
 21
8.45717326727069
  0
LINE
  8
画層12
  6
CONTINUOUS
 62
7
 10
160.695692705347
 20
9.78152949075618
 11
157.596346016978
 21
9.78152949075618
  0
POLYLINE
  8
画層12
 62
7
  6
CONTINUOUS
 10
0.0
 20
0.0
 30
0.0
 66
1
  0
VERTEX
  8
画層12
 10
157.596346016978
  20
7.67811746657904
  0
VERTEX
  8
画層12
 10
157.367165237343
  20
7.68531591221265
  0
VERTEX
  8
画層12
 10
157.138703131788
  20
7.70958729799506
  0
VERTEX
  8
画層12
 10
156.941490874816
  20
7.75230238554328
  0
VERTEX
  8
画層12
 10
156.785548667537
  20
7.80938042165838
  0
VERTEX
  8
画層12
 10
156.667925062546
  20
7.87534940333603
  0
VERTEX
  8
画層12
 10
156.573942835146
  20
7.95091731122401
  0
VERTEX
  8
画層12
 10
156.503347702708
  20
8.03571589186855
  0
VERTEX
  8
画層12
 10
156.450931687325
  20
8.12532962214698
  0
VERTEX
  8
画層12
 10
156.415378646338
  20
8.23041184347697
  0
VERTEX
  8
画層12
 10
156.39565212943
  20
8.34827017889546
  0
VERTEX
  8
画層12
 10
156.391936696735
  20
8.47273127635631
  0
SEQEND
100
AcDbEntity
  8
画層12
  0
LINE
  8
画層12
  6
CONTINUOUS
 62
7
 10
156.391936696735
 20
8.98691568097891
 11
156.391936696735
 21
8.45717326727069
  0
POLYLINE
  8
画層12
 62
7
  6
CONTINUOUS
 10
0.0
 20
0.0
 30
0.0
 66
1
  0
VERTEX
  8
画層12
 10
157.596346016978
  20
9.78152949075618
  0
VERTEX
  8
画層12
 10
157.367165237343
  20
9.77433104512257
  0
VERTEX
  8
画層12
 10
157.138703131788
  20
9.75005965934013
  0
VERTEX
  8
画層12
 10
156.941490874816
  20
9.70734457179195
  0
VERTEX
  8
画層12
 10
156.785548667537
  20
9.65026653567682
  0
VERTEX
  8
画層12
 10
156.667925062546
  20
9.58429755399919
  0
VERTEX
  8
画層12
 10
156.573942835146
  20
9.50872964611119
  0
VERTEX
  8
画層12
 10
156.503347702708
  20
9.42393106546666
  0
VERTEX
  8
画層12
 10
156.450931687325
  20
9.33431733518822
  0
VERTEX
  8
画層12
 10
156.415378646338
  20
9.22923511385823
  0
VERTEX
  8
画層12
 10
156.395652129431
  20
9.11137677843975
  0
VERTEX
  8
画層12
 10
156.391936696735
  20
8.98691568097891
  0
SEQEND
100
AcDbEntity
  8
画層12
  0
LINE
  8
画層12
  6
CONTINUOUS
 62
7
 10
156.47223055739
 20
10.3677010970793
 11
160.514703563489
 21
10.3677010970793
  0
LINE
  8
画層12
  6
CONTINUOUS
 62
7
 10
156.47223055739
 20
11.155571664886
 11
156.47223055739
 21
10.3677010970793
  0
LINE
  8
画層12
  6
CONTINUOUS
 62
7
 10
160.588404795981
 20
11.155571664886
 11
156.47223055739
 21
11.155571664886
  0
LINE
  8
画層12
  6
CONTINUOUS
 62
7
 10
155.833015567081
 20
10.1058346421091
 11
155.833015567081
 21
7.67811746657904
  0
LINE
  8
画層12
  6
CONTINUOUS
 62
7
 10
155.833015567081
 20
7.67811746657904
 11
154.773135266539
 21
7.67811746657904
  0
LINE
  8
画層12
  6
CONTINUOUS
 62
7
 10
154.773135266539
 20
7.67811746657904
 11
154.773135266539
 21
10.0474541741272
  0
ARC
  8
画層12
  6
CONTINUOUS
 62
7
 10
154.783278544305
 20
10.1058346421091
 40
1.04973702277675
 50
0
 51
90
  0
ARC
  8
画層12
  6
CONTINUOUS
 62
7
 10
154.555948296309
 20
10.0474541741272
 40
0.217186970229704
 50
0
 51
90
  0
LINE
  8
画層12
  6
CONTINUOUS
 62
7
 10
154.555948296309
 20
10.2646411443569
 11
151.7139356848
 21
10.2646411443569
  0
LINE
  8
画層12
  6
CONTINUOUS
 62
7
 10
151.7139356848
 20
10.2646411443569
 11
151.7139356848
 21
7.67811746657904
  0
LINE
  8
画層12
  6
CONTINUOUS
 62
7
 10
151.7139356848
 20
7.67811746657904
 11
150.654055384257
 21
7.67811746657904
  0
LINE
  8
画層12
  6
CONTINUOUS
 62
7
 10
150.654055384257
 20
7.67811746657904
 11
150.654055384257
 21
11.155571664886
  0
LINE
  8
画層12
  6
CONTINUOUS
 62
7
 10
150.654055384257
 20
11.155571664886
 11
154.783278544305
 21
11.155571664886
  0
LINE
  8
画層12
  6
CONTINUOUS
 62
7
 10
150.037413125234
 20
7.67811746657904
 11
150.037413125234
 21
11.155571664886
  0
LINE
  8
画層12
  6
CONTINUOUS
 62
7
 10
150.037413125234
 20
11.403210247379
 11
150.037413125234
 21
12.1990038753682
  0
LINE
  8
画層12
  6
CONTINUOUS
 62
7
 10
148.982333721684
 20
7.67811746657904
 11
150.037413125234
 21
7.67811746657904
  0
LINE
  8
画層12
  6
CONTINUOUS
 62
7
 10
148.982333721684
 20
11.155571664886
 11
148.982333721684
 21
7.67811746657904
  0
LINE
  8
画層12
  6
CONTINUOUS
 62
7
 10
150.037413125234
 20
11.155571664886
 11
148.982333721684
 21
11.155571664886
  0
LINE
  8
画層12
  6
CONTINUOUS
 62
7
 10
148.982333721684
 20
11.403210247379
 11
150.037413125234
 21
11.403210247379
  0
LINE
  8
画層12
  6
CONTINUOUS
 62
7
 10
150.037413125234
 20
12.1990038753682
 11
148.982333721684
 21
12.1990038753682
  0
LINE
  8
画層12
  6
CONTINUOUS
 62
7
 10
148.982333721684
 20
12.1990038753682
 11
148.982333721684
 21
11.403210247379
  0
LINE
  8
画層12
  6
CONTINUOUS
 62
7
 10
146.498974005054
 20
7.67811746657904
 11
148.311093005525
 21
7.67811746657904
  0
LINE
  8
画層12
  6
CONTINUOUS
 62
7
 10
148.254887197285
 20
11.155571664886
 11
146.592802412923
 21
11.155571664886
  0
LINE
  8
画層12
  6
CONTINUOUS
 62
7
 10
145.65551361918
 20
9.41902747540385
 11
148.311093005525
 21
7.67811746657904
  0
LINE
  8
画層12
  6
CONTINUOUS
 62
7
 10
148.254887197285
 20
11.155571664886
 11
145.65551361918
 21
9.41902747540385
  0
LINE
  8
画層12
  6
CONTINUOUS
 62
7
 10
146.498974005054
 20
7.67811746657904
 11
144.330695277803
 21
9.31487112239947
  0
LINE
  8
画層12
  6
CONTINUOUS
 62
7
 10
146.592802412923
 20
11.155571664886
 11
144.328717431875
 21
9.52558640803019
  0
LINE
  8
画層12
  6
CONTINUOUS
 62
7
 10
144.156676257646
 20
7.67811746657904
 11
144.156676257646
 21
9.22819907169247
  0
ARC
  8
画層12
  6
CONTINUOUS
 62
7
 10
144.26526974276
 20
9.22819907169247
 40
0.10859348511508
 50
52.9521908437041
 51
179.999999999999
  0
ARC
  8
画層12
  6
CONTINUOUS
 62
7
 10
144.26526974276
 20
9.61371662847366
 40
0.10859348511508
 50
180
 51
305.751288374719
  0
LINE
  8
画層12
  6
CONTINUOUS
 62
7
 10
143.101010471539
 20
7.67811746657904
 11
144.156676257646
 21
7.67811746657904
  0
LINE
  8
画層12
  6
CONTINUOUS
 62
7
 10
144.156676257646
 20
9.61371662847366
 11
144.156676257646
 21
12.1990038753682
  0
LINE
  8
画層12
  6
CONTINUOUS
 62
7
 10
144.156676257646
 20
12.1990038753682
 11
143.101010471539
 21
12.1990038753682
  0
LINE
  8
画層12
  6
CONTINUOUS
 62
7
 10
143.101010471539
 20
12.1990038753682
 11
143.101010471539
 21
7.67811746657904
  0
LINE
  8
画層12
  6
CONTINUOUS
 62
7
 10
142.55556221278
 20
8.87264580284238
 11
142.55556221278
 21
9.96873050084869
  0
ARC
  8
画層12
  6
CONTINUOUS
 62
7
 10
141.361033876517
 20
8.87264580284238
 40
1.19452833626337
 50
270
 51
-8.52032946536918E-14
  0
ARC
  8
画層12
  6
CONTINUOUS
 62
7
 10
141.278626088901
 20
8.73615077002307
 40
0.162890227672506
 50
270
 51
0
  0
LINE
  8
画層12
  6
CONTINUOUS
 62
7
 10
141.441516316573
 20
8.73615077002307
 11
141.441516316573
 21
10.1119675142057
  0
ARC
  8
画層12
  6
CONTINUOUS
 62
7
 10
141.278626088901
 20
10.1119675142057
 40
0.162890227672506
 50
0
 51
90
  0
ARC
  8
画層12
  6
CONTINUOUS
 62
7
 10
141.361033876517
 20
9.96873050084869
 40
1.19452833626337
 50
0
 51
90
  0
LINE
  8
画層12
  6
CONTINUOUS
 62
7
 10
138.402512941499
 20
7.67811746657904
 11
141.361033876517
 21
7.67811746657904
  0
LINE
  8
画層12
  6
CONTINUOUS
 62
7
 10
138.342431745688
 20
8.57326054235079
 11
141.278626088901
 21
8.57326054235079
  0
LINE
  8
画層12
  6
CONTINUOUS
 62
7
 10
133.98319859364
 20
7.67811746657904
 11
135.171549212272
 21
7.67811746657904
  0
ARC
  8
画層12
  6
CONTINUOUS
 62
7
 10
138.342431745688
 20
8.73615077002307
 40
0.162890227672051
 50
180
 51
270
  0
LINE
  8
画層12
  6
CONTINUOUS
 62
7
 10
131.757506026737
 20
12.1990038753682
 11
131.757506026737
 21
11.2037301464052
  0
ARC
  8
画層12
  6
CONTINUOUS
 62
7
 10
138.402512941499
 20
8.87264580284238
 40
1.19452833626337
 50
180
 51
270
  0
LINE
  8
画層12
  6
CONTINUOUS
 62
7
 10
141.278626088901
 20
10.274857741878
 11
138.342431745688
 21
10.274857741878
  0
LINE
  8
画層12
  6
CONTINUOUS
 62
7
 10
138.179541518016
 20
10.1119675142057
 11
138.179541518016
 21
8.73615077002307
  0
ARC
  8
画層12
  6
CONTINUOUS
 62
7
 10
138.342431745688
 20
10.1119675142057
 40
0.162890227672051
 50
90
 51
180
  0
LINE
  8
画層12
  6
CONTINUOUS
 62
7
 10
141.361033876517
 20
11.163258837112
 11
138.402512941499
 21
11.1632588371121
  0
LINE
  8
画層12
  6
CONTINUOUS
 62
7
 10
137.207984605236
 20
9.96873050084869
 11
137.207984605236
 21
8.87264580284238
  0
ARC
  8
画層12
  6
CONTINUOUS
 62
7
 10
138.402512941499
 20
9.96873050084869
 40
1.19452833626337
 50
90
 51
180
  0
LINE
  8
画層12
  6
CONTINUOUS
 62
7
 10
137.432807838195
 20
11.2037301464052
 11
137.432807838195
 21
12.1990038753682
  0
LINE
  8
画層12
  6
CONTINUOUS
 62
7
 10
131.757506026737
 20
11.2037301464052
 11
133.98319859364
 21
11.2037301464052
  0
LINE
  8
画層12
  6
CONTINUOUS
 62
7
 10
133.98319859364
 20
11.2037301464052
 11
133.98319859364
 21
7.67811746657904
  0
LINE
  8
画層12
  6
CONTINUOUS
 62
7
 10
135.171549212272
 20
7.67811746657904
 11
135.171549212272
 21
11.2037301464052
  0
LINE
  8
画層12
  6
CONTINUOUS
 62
7
 10
135.171549212272
 20
11.2037301464052
 11
137.432807838195
 21
11.2037301464052
  0
LINE
  8
画層12
  6
CONTINUOUS
 62
7
 10
137.432807838195
 20
12.1990038753682
 11
131.757506026737
 21
12.1990038753682
  0
LINE
  8
画層12
  6
CONTINUOUS
 62
7
 10
10.2575060267368
 20
105.678117466579
 11
7.75750602673679
 21
105.678117466579
  0
LINE
  8
画層12
  6
CONTINUOUS
 62
7
 10
285.257506026737
 20
105.678117466579
 11
287.757506026737
 21
105.678117466579
  0
LINE
  8
画層12
  6
CONTINUOUS
 62
7
 10
95.2575060267357
 20
14.678117466579
 11
95.2575060267357
 21
47.178117466579
  0
LINE
  8
画層12
  6
CONTINUOUS
 62
7
 10
116.257506026736
 20
14.678117466579
 11
116.257506026736
 21
47.178117466579
  0
LINE
  8
画層12
  6
CONTINUOUS
 62
7
 10
132.257506026736
 20
14.678117466579
 11
132.257506026736
 21
34.678117466579
  0
LINE
  8
画層12
  6
CONTINUOUS
 62
7
 10
148.257506026736
 20
14.678117466579
 11
148.257506026736
 21
34.678117466579
  0
LINE
  8
画層12
  6
CONTINUOUS
 62
7
 10
164.257506026736
 20
14.678117466579
 11
164.257506026736
 21
47.178117466579
  0
TEXT
  8
画層12
 62
7
  6
CENTER
 62
7
 10
168.320006026736
 20
30.603117466579
 40
3.15
  1
承 認
  7
Font_0
 72
1
 11
172.257506026736
 21
32.178117466579
 73
2
  0
TEXT
  8
画層12
 62
7
  6
CENTER
 62
7
 10
152.320006026736
 20
30.603117466579
 40
3.15
  1
検 図
  7
Font_0
 72
1
 11
156.257506026736
 21
32.178117466579
 73
2
  0
TEXT
  8
画層12
 62
7
  6
CENTER
 62
7
 10
120.320006026736
 20
30.603117466579
 40
3.15
  1
製 図
  7
Font_0
 72
1
 11
124.257506026736
 21
32.178117466579
 73
2
  0
TEXT
  8
画層12
 62
7
  6
CENTER
 62
7
 10
130.807506026736
 20
35.603117466579
 40
3.15
  1
部   品   名
  7
Font_0
 72
1
 11
140.257506026736
 21
37.178117466579
 73
2
  0
TEXT
  8
画層12
 62
7
  6
CENTER
 62
7
 10
244.232506026737
 20
35.603117466579
 40
3.15
  1
表  面  処  理
  7
Font_0
 72
1
 11
255.257506026737
 21
37.178117466579
 73
2
  0
LINE
  8
画層12
  6
CONTINUOUS
 62
7
 10
95.2575060267357
 20
19.678117466579
 11
116.257506026736
 21
19.678117466579
  0
TEXT
  8
画層12
 62
7
  6
CENTER
 62
7
 10
15.1766264406365
 20
18.352411916179
 40
3.15
  1
日付
  7
Font_0
  0
TEXT
  8
画層12
 62
7
  6
CENTER
 62
7
 10
100.087506026736
 20
15.828117466579
 40
2.7
 41
1.2
  1
 三角法
  7
Font_0
 72
1
 11
105.757506026736
 21
17.178117466579
 73
2
  0
LINE
  8
画層12
  6
CONTINUOUS
 62
7
 10
95.2575060267357
 20
29.678117466579
 11
180.257506026736
 21
29.678117466579
  0
LINE
  8
画層12
  6
CONTINUOUS
 62
7
 10
36.2575060267368
 20
24.678117466579
 11
36.2575060267368
 21
34.678117466579
  0
LINE
  8
画層12
  6
CONTINUOUS
 62
7
 10
10.2575060267368
 20
31.344784133279
 11
95.2575060267357
 21
31.344784133279
  0
LINE
  8
画層12
  6
CONTINUOUS
 62
7
 10
10.2575060267368
 20
28.011450799879
 11
95.2575060267357
 21
28.011450799879
  0
LINE
  8
画層12
  6
CONTINUOUS
 62
7
 10
10.2575060267368
 20
24.678117466579
 11
95.2575060267357
 21
24.678117466579
  0
LINE
  8
画層12
  6
CONTINUOUS
 62
7
 10
28.2575060267368
 20
14.678117466579
 11
28.2575060267368
 21
34.678117466579
  0
LINE
  8
画層12
  6
CONTINUOUS
 62
7
 10
15.6575060267364
 20
24.678117466579
 11
15.6575060267364
 21
34.678117466579
  0
TEXT
  8
画層12
 62
7
  6
CENTER
 62
7
 10
53.3109425271855
 20
25.1889461196279
 40
2.4
  1
訂  正  記  事
  7
Font_0
  0
TEXT
  8
画層12
 62
7
  6
CENTER
 62
7
 10
11.1569919035364
 20
25.527566146833
 40
1.8
  1
符号
  7
Font_0
  0
LINE
  8
画層12
  6
CONTINUOUS
 62
7
 10
13.1350318310366
 20
34.208314179879
 11
14.4683651643368
 21
31.898913103079
  0
LINE
  8
画層12
  6
CONTINUOUS
 62
7
 10
14.4683651643368
 20
31.898913103079
 11
11.8016984976367
 21
31.898913103079
  0
LINE
  8
画層12
  6
CONTINUOUS
 62
7
 10
11.8016984976367
 20
31.898913103079
 11
13.1350318310366
 21
34.208314179879
  0
LINE
  8
画層12
  6
CONTINUOUS
 62
7
 10
11.8040421049266
 20
28.5868109766478
 11
13.1373754382262
 21
30.8962120533478
  0
LINE
  8
画層12
  6
CONTINUOUS
 62
7
 10
14.4707087716265
 20
28.5868109766478
 11
11.8040421049266
 21
28.5868109766478
  0
LINE
  8
画層12
  6
CONTINUOUS
 62
7
 10
13.1373754382262
 20
30.8962120533478
 11
14.4707087716265
 21
28.5868109766478
  0
TEXT
  8
画層12
 62
7
  6
CENTER
 62
7
 10
29.8698913791507
 20
25.2275660037819
 40
2.4
  1
担当
  7
Font_0
  0
TEXT
  8
画層12
 62
7
  6
CENTER
 62
7
 10
18.1855567892192
 20
25.1607351363459
 40
2.4
  1
年月日
  7
Font_0
  0
TEXT
  8
画層12
 62
7
  6
CENTER
 62
7
 10
12.997750266084
 20
28.8247111778674
 40
1.35600025863647
 41
0.577433297908475
  1
1
  7
Font_0
  0
TEXT
  8
画層12
 62
7
  6
CENTER
 62
7
 10
12.8652002070243
 20
32.1509517079525
 40
1.35600025863647
 41
0.577433297908475
  1
2
  7
Font_0
  0
TEXT
  8
画層12
 62
7
  6
CENTER
 62
7
 10
196.457506026736
 20
35.603117466579
 40
3.15
  1
材    質
  7
Font_0
 72
1
 11
202.757506026736
 21
37.178117466579
 73
2
  0
TEXT
  8
画層12
 62
7
  6
CENTER
 62
7
 10
169.107506026736
 20
35.603117466579
 40
3.15
  1
個数
  7
Font_0
 72
1
 11
172.257506026736
 21
37.178117466579
 73
2
  0
TEXT
  8
画層12
 62
7
  6
CENTER
 62
7
 10
99.4575060267357
 20
35.603117466579
 40
3.15
  1
部品番号
  7
Font_0
 72
1
 11
105.757506026736
 21
37.178117466579
 73
2
  0
TEXT
  8
画層12
 62
7
  6
CENTER
 62
7
 10
101.910006026736
 20
30.603117466579
 40
3.15
 41
1.22142857142857
  1
尺度
  7
Font_0
 72
1
 11
105.757506026736
 21
32.178117466579
 73
2
  0
LINE
  8
画層12
  6
CONTINUOUS
 62
7
 10
185.257506026736
 20
14.678117466579
 11
185.257506026736
 21
34.678117466579
  0
LINE
  8
画層12
  6
CONTINUOUS
 62
7
 10
95.2575060267357
 20
39.678117466579
 11
285.257506026737
 21
39.678117466579
  0
TEXT
  8
画層12
 62
7
  6
CENTER
 62
7
 10
225.907506026736
 20
16.328117466579
 40
2.7
 41
1.26666666666666
  1
番
  7
Font_0
  0
TEXT
  8
画層12
 62
7
  6
CENTER
 62
7
 10
225.907506026736
 20
20.828117466579
 40
2.7
 41
1.26666666666666
  1
図
  7
Font_0
  0
TEXT
  8
画層12
 62
7
  6
CENTER
 62
7
 10
180.926031563318
 20
30.0453501118791
 40
2.7
 41
1.26666666666666
  1
仕
  7
Font_0
  0
TEXT
  8
画層12
 62
7
  6
CENTER
 62
7
 10
180.926031563318
 20
26.5453501118791
 40
2.7
 41
1.27
  1
上
  7
Font_0
  0
TEXT
  8
画層12
 62
7
  6
CENTER
 62
7
 10
181.272974202399
 20
16.773478051679
 40
2.7
 41
1.20333331823349
  1
取
  7
Font_0
  0
TEXT
  8
画層12
 62
7
  6
CENTER
 62
7
 10
181.272974202399
 20
20.273478051679
 40
2.7
 41
1.20333331823349
  1
面
  7
Font_0
  0
TEXT
  8
画層12
 62
7
  6
CENTER
 62
7
 10
136.320006026736
 20
30.603117466579
 40
3.15
  1
設 計
  7
Font_0
 72
1
 11
140.257506026736
 21
32.178117466579
 73
2
  0
TEXT
  8
画層12
 62
7
  6
CENTER
 62
7
 10
225.987420288247
 20
25.363669304179
 40
2.7
 41
1.26666666666666
  1
名
  7
Font_0
  0
TEXT
  8
画層12
 62
7
  6
CENTER
 62
7
 10
225.987420288247
 20
28.463669304179
 40
2.7
 41
1.26666666666666
  1
品
  7
Font_0
  0
TEXT
  8
画層12
 62
7
  6
CENTER
 62
7
 10
225.987420288247
 20
31.5636693041791
 40
2.7
 41
1.26666666666666
  1
製
  7
Font_0
  0
LINE
  8
画層12
  6
CONTINUOUS
 62
7
 10
285.257506026737
 20
24.678117466579
 11
180.257506026736
 21
24.678117466579
  0
LINE
  8
画層12
  6
CONTINUOUS
 62
7
 10
230.257506026737
 20
14.678117466579
 11
230.257506026737
 21
34.678117466579
  0
LINE
  8
画層12
  6
CONTINUOUS
 62
7
 10
180.257506026736
 20
14.678117466579
 11
180.257506026736
 21
47.178117466579
  0
LINE
  8
画層12
  6
CONTINUOUS
 62
7
 10
285.257506026737
 20
34.678117466579
 11
10.2575060267365
 21
34.678117466579
  0
LINE
  8
画層12
  6
CONTINUOUS
 62
7
 10
225.257506026737
 20
47.178117466579
 11
225.257506026737
 21
14.678117466579
  0
LINE
  8
画層12
  6
CONTINUOUS
 62
7
 10
95.2575060267357
 20
47.178117466579
 11
285.257506026737
 21
47.178117466579
  0
LINE
  8
画層12
  6
CONTINUOUS
 62
7
 10
285.257506026737
 20
14.678117466579
 11
10.2575060267368
 21
14.678117466579
  0
LINE
  8
画層12
  6
CONTINUOUS
 62
7
 10
146.757506026737
 20
201.678117466579
 11
146.757506026737
 21
204.178117466579
  0
LINE
  8
画層12
  6
CONTINUOUS
 62
7
 10
285.257506026737
 20
201.678117466579
 11
285.257506026737
 21
14.678117466579
  0
LINE
  8
画層12
  6
CONTINUOUS
 62
7
 10
10.2575060267368
 20
201.678117466579
 11
10.2575060267368
 21
14.678117466579
  0
LINE
  8
画層12
  6
CONTINUOUS
 62
7
 10
285.257506026737
 20
201.678117466579
 11
10.2575060267368
 21
201.678117466579
  0
TEXT
  8
画層0
 62
7
  6
CONTINUOUS
 62
7
 10
68.4575060267368
 20
190.878117466579
 40
3.2
  1
１．０
  7
Font_0
 72
1
 11
73.2575060267368
 21
192.478117466579
 73
2
  0
TEXT
  8
画層0
 62
7
  6
CONTINUOUS
 62
7
 10
62.0575060267368
 20
184.478117466579
 40
3.2
  1
１７７．７ｍｍ
  7
Font_0
 72
1
 11
73.2575060267368
 21
186.078117466579
 73
2
  0
TEXT
  8
画層0
 62
7
  6
CONTINUOUS
 62
7
 10
63.6575060267368
 20
178.078117466579
 40
3.2
  1
６５．０ｍｍ
  7
Font_0
 72
1
 11
73.2575060267368
 21
179.678117466579
 73
2
  0
TEXT
  8
画層0
 62
7
  6
CONTINUOUS
 62
7
 10
66.8575060267368
 20
133.278117466579
 40
3.2
  1
１／２″
  7
Font_0
 72
1
 11
73.2575060267368
 21
134.878117466579
 73
2
  0
TEXT
  8
画層0
 62
7
  6
CONTINUOUS
 62
7
 10
66.8575060267368
 20
158.878117466579
 40
3.2
  1
１４．２
  7
Font_0
 72
1
 11
73.2575060267368
 21
160.478117466579
 73
2
  0
TEXT
  8
画層0
 62
7
  6
CONTINUOUS
 62
7
 10
65.2575060267368
 20
171.678117466579
 40
3.2
  1
１１４０μ
  7
Font_0
 72
1
 11
73.2575060267368
 21
173.278117466579
 73
2
  0
TEXT
  8
画層0
 62
7
  6
CONTINUOUS
 62
7
 10
66.8575060267368
 20
165.278117466579
 40
3.2
  1
９．６μ
  7
Font_0
 72
1
 11
73.2575060267368
 21
166.878117466579
 73
2
  0
TEXT
  8
画層0
 62
7
  6
CONTINUOUS
 62
7
 10
65.2575060267368
 20
152.478117466579
 40
3.2
  1
０．０３５
  7
Font_0
 72
1
 11
73.2575060267368
 21
154.078117466579
 73
2
  0
TEXT
  8
画層0
 62
7
  6
CONTINUOUS
 62
7
 10
65.2575060267368
 20
146.078117466579
 40
3.2
  1
０．１１％
  7
Font_0
 72
1
 11
73.2575060267368
 21
147.678117466579
 73
2
  0
TEXT
  8
画層0
 62
7
  6
CONTINUOUS
 62
7
 10
70.0575060267368
 20
139.678117466579
 40
3.2
  1
６０
  7
Font_0
 72
1
 11
73.2575060267368
 21
141.278117466579
 73
2
  0
LINE
  8
画層1
  6
CONTINUOUS
 62
7
 10
112.457506026737
 20
108.678117466579
 11
104.358996430237
 21
108.678117466579
  0
LINE
  8
画層1
  6
CONTINUOUS
 62
7
 10
112.457506026737
 20
124.678117466579
 11
104.358996430237
 21
124.678117466579
  0
LINE
  8
画層1
  6
CONTINUOUS
 62
7
 10
105.358996430237
 20
111.678117466579
 11
105.358996430237
 21
121.678117466579
  0
TEXT
  8
画層1
 62
7
  6
BYLAYER
 62
7
 10
104.825696430237
 20
113.478117466579
 40
3.2
  1
%%c16
  7
Font_0
 50
90
 72
1
 11
103.225696430237
 21
116.678117466579
 73
2
  0
LINE
  8
画層0
  6
CONTINUOUS
 62
7
 10
106.162843430237
 20
111.678117466579
 11
105.358996430237
 21
108.678117466579
  0
LINE
  8
画層0
  6
CONTINUOUS
 62
7
 10
105.358996430237
 20
108.678117466579
 11
104.555149430237
 21
111.678117466579
  0
LINE
  8
画層0
  6
CONTINUOUS
 62
7
 10
105.358996430237
 20
108.678117466579
 11
105.358996430237
 21
111.678117466579
  0
LINE
  8
画層0
  6
CONTINUOUS
 62
7
 10
104.555149430237
 20
121.678117466579
 11
105.358996430237
 21
124.678117466579
  0
LINE
  8
画層0
  6
CONTINUOUS
 62
7
 10
105.358996430237
 20
124.678117466579
 11
106.162843430237
 21
121.678117466579
  0
LINE
  8
画層0
  6
CONTINUOUS
 62
7
 10
105.358996430237
 20
124.678117466579
 11
105.358996430237
 21
121.678117466579
  0
LINE
  8
画層1
  6
CONTINUOUS
 62
7
 10
208.357506026736
 20
100.478117466579
 11
208.357506026736
 21
86.2426852879144
  0
LINE
  8
画層1
  6
CONTINUOUS
 62
7
 10
116.157506026737
 20
87.2426852879144
 11
205.357506026737
 21
87.2426852879144
  0
TEXT
  8
画層1
 62
7
  6
BYLAYER
 62
7
 10
157.557506026737
 20
87.7759852879144
 40
3.2
  1
95.2
  7
Font_0
 72
1
 11
160.757506026737
 21
89.3759852879144
 73
2
  0
LINE
  8
画層0
  6
CONTINUOUS
 62
7
 10
116.157506026737
 20
86.4388382879144
 11
113.157506026737
 21
87.2426852879144
  0
LINE
  8
画層0
  6
CONTINUOUS
 62
7
 10
113.157506026737
 20
87.2426852879144
 11
116.157506026737
 21
88.0465322879144
  0
LINE
  8
画層0
  6
CONTINUOUS
 62
7
 10
113.157506026737
 20
87.2426852879144
 11
116.157506026737
 21
87.2426852879144
  0
LINE
  8
画層0
  6
CONTINUOUS
 62
7
 10
205.357506026736
 20
88.0465322879144
 11
208.357506026736
 21
87.2426852879144
  0
LINE
  8
画層0
  6
CONTINUOUS
 62
7
 10
208.357506026736
 20
87.2426852879144
 11
205.357506026736
 21
86.4388382879144
  0
LINE
  8
画層0
  6
CONTINUOUS
 62
7
 10
208.357506026736
 20
87.2426852879144
 11
205.357506026736
 21
87.2426852879144
  0
LINE
  8
画層1
  6
CONTINUOUS
 62
7
 10
48.1575060267371
 20
86.2426852879144
 11
48.1575060267371
 21
112.909290466579
  0
LINE
  8
画層1
  6
CONTINUOUS
 62
7
 10
113.157506026737
 20
86.2426852879144
 11
113.157506026737
 21
107.978117466579
  0
LINE
  8
画層1
  6
CONTINUOUS
 62
7
 10
51.1575060267369
 20
87.2426852879144
 11
110.157506026737
 21
87.2426852879144
  0
TEXT
  8
画層1
 62
7
  6
BYLAYER
 62
7
 10
72.6575060267367
 20
87.7759852879144
 40
3.2
  1
W.D.=65%%p2
  7
Font_0
 72
1
 11
80.6575060267367
 21
89.3759852879144
 73
2
  0
LINE
  8
画層0
  6
CONTINUOUS
 62
7
 10
51.1575060267371
 20
86.4388382879144
 11
48.1575060267371
 21
87.2426852879144
  0
LINE
  8
画層0
  6
CONTINUOUS
 62
7
 10
48.1575060267371
 20
87.2426852879144
 11
51.1575060267371
 21
88.0465322879144
  0
LINE
  8
画層0
  6
CONTINUOUS
 62
7
 10
48.1575060267371
 20
87.2426852879144
 11
51.1575060267371
 21
87.2426852879144
  0
LINE
  8
画層0
  6
CONTINUOUS
 62
7
 10
110.157506026737
 20
88.0465322879144
 11
113.157506026737
 21
87.2426852879144
  0
LINE
  8
画層0
  6
CONTINUOUS
 62
7
 10
113.157506026737
 20
87.2426852879144
 11
110.157506026737
 21
86.4388382879144
  0
LINE
  8
画層0
  6
CONTINUOUS
 62
7
 10
113.157506026737
 20
87.2426852879144
 11
110.157506026737
 21
87.2426852879144
  0
LINE
  8
画層0
  6
CONTINUOUS
 62
7
 10
158.557506026737
 20
108.678117466579
 11
201.857506026737
 21
108.678117466579
  0
LINE
  8
画層0
  6
CONTINUOUS
 62
7
 10
135.157506026737
 20
124.578117466579
 11
135.157506026737
 21
108.778117466579
  0
LINE
  8
画層0
  6
CONTINUOUS
 62
7
 10
113.157506026737
 20
108.978117466579
 11
113.157506026737
 21
124.378117466579
  0
LINE
  8
画層0
  6
CONTINUOUS
 62
7
 10
113.457506026737
 20
108.678117466579
 11
113.457506026737
 21
124.678117466579
  0
LINE
  8
画層0
  6
CONTINUOUS
 62
7
 10
135.057506026737
 20
124.678117466579
 11
113.457506026737
 21
124.678117466579
  0
LINE
  8
画層0
  6
CONTINUOUS
 62
7
 10
135.057506026737
 20
124.678117466579
 11
135.157506026737
 21
124.578117466579
  0
LINE
  8
画層0
  6
CONTINUOUS
 62
7
 10
135.157506026737
 20
124.578117466579
 11
135.257506026737
 21
124.678117466579
  0
LINE
  8
画層0
  6
CONTINUOUS
 62
7
 10
135.257506026737
 20
124.678117466579
 11
151.057506026737
 21
124.678117466579
  0
LINE
  8
画層0
  6
CONTINUOUS
 62
7
 10
151.257506026737
 20
124.678117466579
 11
151.157506026737
 21
124.578117466579
  0
LINE
  8
画層0
  6
CONTINUOUS
 62
7
 10
151.157506026737
 20
124.578117466579
 11
151.057506026737
 21
124.678117466579
  0
LINE
  8
画層0
  6
CONTINUOUS
 62
7
 10
201.857506026737
 20
124.678117466579
 11
151.257506026737
 21
124.678117466579
  0
LINE
  8
画層0
  6
CONTINUOUS
 62
7
 10
151.157506026737
 20
108.778117466579
 11
151.157506026737
 21
124.578117466579
  0
LINE
  8
画層0
  6
CONTINUOUS
 62
7
 10
135.157506026737
 20
108.778117466579
 11
135.257506026737
 21
108.678117466579
  0
LINE
  8
画層0
  6
CONTINUOUS
 62
7
 10
135.057506026737
 20
108.678117466579
 11
135.157506026737
 21
108.778117466579
  0
LINE
  8
画層0
  6
CONTINUOUS
 62
7
 10
151.157506026737
 20
108.778117466579
 11
151.057506026737
 21
108.678117466579
  0
LINE
  8
画層0
  6
CONTINUOUS
 62
7
 10
151.257506026737
 20
108.678117466579
 11
151.157506026737
 21
108.778117466579
  0
LINE
  8
画層0
  6
CONTINUOUS
 62
7
 10
135.057506026737
 20
108.678117466579
 11
113.457506026737
 21
108.678117466579
  0
LINE
  8
画層0
  6
CONTINUOUS
 62
7
 10
135.257506026737
 20
108.678117466579
 11
151.057506026737
 21
108.678117466579
  0
LINE
  8
画層0
  6
CONTINUOUS
 62
7
 10
151.257506026737
 20
108.678117466579
 11
175.957506026737
 21
108.678117466579
  0
LINE
  8
画層0
  6
CONTINUOUS
 62
7
 10
113.457506026737
 20
108.678117466579
 11
113.157506026737
 21
108.978117466579
  0
LINE
  8
画層0
  6
CONTINUOUS
 62
7
 10
113.157506026737
 20
124.378117466579
 11
113.457506026737
 21
124.678117466579
  0
TEXT
  8
画層0
 62
7
  6
CENTER
 62
7
 10
102.026256026736
 20
22.644117466579
 40
4.068
 41
1.22295968534906
  1
1/1
  7
Font_0
 72
1
 11
105.757506026736
 21
24.678117466579
 73
2
  0
TEXT
  8
画層0
 62
7
  6
CENTER
 62
7
 10
42.8925060267363
 20
17.963117466579
 40
3.43
  1
２０１０年　２月　１日
  7
Font_0
 72
1
 11
61.7575060267363
 21
19.678117466579
 73
2
  0
TEXT
  8
画層0
 62
7
  6
CONTINUOUS
 62
7
 10
242.240074581334
 20
27.5363556148183
 40
3.3
  1
ＫＣＭ－１－６５Ｃ
  7
Font_0
  0
TEXT
  8
画層0
 62
7
  6
CONTINUOUS
 62
7
 10
241.131114848157
 20
17.6612276278196
 40
4
  1
ＫＶＴ－１０１８
  7
Font_0
 72
1
 11
257.131114848157
 21
19.6612276278196
 73
2
  0
TEXT
  8
画層0
 62
7
  6
CENTER
 62
7
 10
239.507506026737
 20
41.678117466579
 40
3.5
  1
サテン黒アルマイト
  7
Font_0
 72
1
 11
255.257506026737
 21
43.428117466579
 73
2
  0
TEXT
  8
画層0
 62
7
  6
CENTER
 62
7
 10
190.507506026735
 20
41.678117466579
 40
3.5
  1
Ａ５０５２ＴＤ
  7
Font_0
 72
1
 11
202.757506026735
 21
43.428117466579
 73
2
  0
TEXT
  8
画層0
 62
7
  6
CENTER
 62
7
 10
171.357506026736
 20
41.628117466579
 40
3.6
  1
1
  7
Font_0
 72
1
 11
172.257506026736
 21
43.428117466579
 73
2
  0
TEXT
  8
画層0
 62
7
  6
CENTER
 62
7
 10
133.057506026736
 20
41.7604140937172
 40
3.6
  1
組 立 図
  7
Font_0
 72
1
 11
140.257506026736
 21
43.5604140937172
 73
2
  0
TEXT
  8
画層0
 62
7
  6
CENTER
 62
7
 10
100.357506026736
 20
41.628117466579
 40
3.6
  1
０００
  7
Font_0
 72
1
 11
105.757506026736
 21
43.428117466579
 73
2
  0
TEXT
  8
画層0
 62
7
  6
CONTINUOUS
 62
7
 10
134.999256024824
 20
22.4592161170757
 40
3.6
 41
0.973750000353902
  1
宇賀田
  7
Font_0
 72
1
 11
140.257506026736
 21
24.2592161170757
 73
2
  0
TEXT
  8
画層0
 62
7
  6
CONTINUOUS
 62
7
 10
167.875631025143
 20
22.4592161170757
 40
3.6
 41
0.973750000353902
  1
藤 田
  7
Font_0
 72
1
 11
172.257506026736
 21
24.2592161170757
 73
2
  0
TEXT
  8
画層0
 62
7
  6
CONTINUOUS
 62
7
 10
200.457506026736
 20
17.678117466579
 40
4
 41
1.2
  1
C0.1
  7
Font_0
 72
1
 11
205.257506026736
 21
19.678117466579
 73
2
  0
TEXT
  8
画層0
 62
7
  6
CONTINUOUS
 62
7
 10
151.875631025143
 20
22.4592161170757
 40
3.6
 41
0.973750000353902
  1
藤 田
  7
Font_0
 72
1
 11
156.257506026735
 21
24.2592161170757
 73
2
  0
TEXT
  8
画層0
 62
7
  6
CONTINUOUS
 62
7
 10
118.999256024825
 20
22.4592161170757
 40
3.6
 41
0.973750000353902
  1
宇賀田
  7
Font_0
 72
1
 11
124.257506026736
 21
24.2592161170757
 73
2
  0
TEXT
  8
画層0
 62
7
  6
CONTINUOUS
 62
7
 10
120.765906026736
 20
18.3722304684827
 40
2.03
 41
0.86
  1
10/02/01
  7
Font_0
 72
1
 11
124.257506026736
 21
19.3872304684827
 73
2
  0
INSERT
  8
画層0
  6
CONTINUOUS
 62
7
  2
13462_KCAD_FINI
 10
201.562464303923
 20
27.7117494972845
 30
0.0
  0
TEXT
  8
画層0
 62
7
  6
CONTINUOUS
 62
7
 10
136.765906026736
 20
18.3722304684827
 40
2.03
 41
0.86
  1
10/02/01
  7
Font_0
 72
1
 11
140.257506026736
 21
19.3872304684827
 73
2
  0
TEXT
  8
画層0
 62
7
  6
CONTINUOUS
 62
7
 10
152.765906026735
 20
18.3722304684827
 40
2.03
 41
0.86
  1
10/02/01
  7
Font_0
 72
1
 11
156.257506026735
 21
19.3872304684827
 73
2
  0
TEXT
  8
画層0
 62
7
  6
CONTINUOUS
 62
7
 10
168.765906026736
 20
18.3722304684827
 40
2.03
 41
0.86
  1
10/02/01
  7
Font_0
 72
1
 11
172.257506026736
 21
19.3872304684827
 73
2
  0
LINE
  8
画層0
  6
CENTER
 62
7
 10
45.2925728463524
 20
116.678117466579
 11
219.482873348614
 21
116.678117466579
  0
LINE
  8
画層0
  6
CONTINUOUS
 62
7
 10
48.1575060267371
 20
113.909290466579
 11
48.1575060267371
 21
119.446944466579
  0
LINE
  8
画層0
  6
CONTINUOUS
 62
7
 10
209.357506026736
 20
103.978117466579
 11
209.357506026736
 21
129.378117466579
  0
LINE
  8
画層0
  6
CONTINUOUS
 62
7
 10
208.057506026737
 20
101.178117466579
 11
208.057506026737
 21
132.178117466579
  0
LINE
  8
画層0
  6
CONTINUOUS
 62
7
 10
202.357506026736
 20
101.178117466579
 11
202.357506026736
 21
132.178117466579
  0
LINE
  8
画層0
  6
CONTINUOUS
 62
7
 10
202.357506026736
 20
101.178117466579
 11
201.857506026737
 21
101.678117466579
  0
LINE
  8
画層0
  6
CONTINUOUS
 62
7
 10
208.357506026736
 20
101.478117466579
 11
208.057506026737
 21
101.178117466579
  0
LINE
  8
画層0
  6
CONTINUOUS
 62
7
 10
208.057506026737
 20
101.178117466579
 11
202.357506026736
 21
101.178117466579
  0
LINE
  8
画層0
  6
CONTINUOUS
 62
7
 10
211.757506026737
 20
103.978117466579
 11
211.757506026737
 21
129.378117466579
  0
LINE
  8
画層0
  6
CONTINUOUS
 62
7
 10
211.757506026737
 20
103.978117466579
 11
212.357506026737
 21
104.578117466579
  0
LINE
  8
画層0
  6
CONTINUOUS
 62
7
 10
212.357506026737
 20
104.578117466579
 11
212.357506026737
 21
128.778117466579
  0
LINE
  8
画層0
  6
CONTINUOUS
 62
7
 10
211.757506026737
 20
103.978117466579
 11
209.357506026736
 21
103.978117466579
  0
LINE
  8
画層0
  6
CONTINUOUS
 62
7
 10
208.357506026736
 20
104.428117466579
 11
212.207506026737
 21
104.428117466579
  0
LINE
  8
画層0
  6
CONTINUOUS
 62
7
 10
201.857506026737
 20
101.678117466579
 11
201.857506026737
 21
131.678117466579
  0
LINE
  8
画層0
  6
CONTINUOUS
 62
7
 10
208.357506026736
 20
101.478117466579
 11
208.357506026736
 21
131.878117466579
  0
LINE
  8
画層0
  6
CONTINUOUS
 62
7
 10
208.357506026736
 20
128.928117466579
 11
212.207506026737
 21
128.928117466579
  0
LINE
  8
画層0
  6
CONTINUOUS
 62
7
 10
211.757506026737
 20
129.378117466579
 11
209.357506026736
 21
129.378117466579
  0
LINE
  8
画層0
  6
CONTINUOUS
 62
7
 10
211.757506026737
 20
129.378117466579
 11
212.357506026737
 21
128.778117466579
  0
LINE
  8
画層0
  6
CONTINUOUS
 62
7
 10
208.057506026737
 20
132.178117466579
 11
202.357506026736
 21
132.178117466579
  0
LINE
  8
画層0
  6
CONTINUOUS
 62
7
 10
208.357506026736
 20
131.878117466579
 11
208.057506026737
 21
132.178117466579
  0
LINE
  8
画層0
  6
CONTINUOUS
 62
7
 10
202.357506026736
 20
132.178117466579
 11
201.857506026737
 21
131.678117466579
  0
CIRCLE
  8
画層0
  6
CONTINUOUS
 62
7
 10
205.157506026737
 20
116.678117466579
 40
1.24999999999977
  0
CIRCLE
  8
画層0
  6
CONTINUOUS
 62
7
 10
205.157506026737
 20
116.678117466579
 40
1.50000000000023
  0
LINE
  8
画層0
  6
CENTER
 62
7
 10
205.157506026737
 20
119.678117466579
 11
205.157506026737
 21
113.678117466579
  0
LINE
  8
画層1
  6
CONTINUOUS
 62
7
 10
212.357506026737
 20
86.2426852879144
 11
212.357506026737
 21
103.578117466579
  0
LINE
  8
画層1
  6
CONTINUOUS
 62
7
 10
208.357506026736
 20
87.2426852879144
 11
212.357506026737
 21
87.2426852879144
  0
LINE
  8
画層1
  6
CONTINUOUS
 62
7
 10
206.357506026737
 20
87.2426852879144
 11
204.357506026737
 21
87.2426852879144
  0
LINE
  8
画層1
  6
CONTINUOUS
 62
7
 10
215.357506026736
 20
87.2426852879144
 11
219.02413936007
 21
87.2426852879144
  0
TEXT
  8
画層1
 62
7
  6
BYLAYER
 62
7
 10
217.157472693404
 20
87.7759852879144
 40
3.2
  1
4
  7
Font_0
 72
1
 11
217.957472693404
 21
89.3759852879144
 73
2
  0
LINE
  8
画層0
  6
CONTINUOUS
 62
7
 10
208.357506026736
 20
87.2426852879144
 11
206.357506026736
 21
87.2426852879144
  0
LINE
  8
画層0
  6
CONTINUOUS
 62
7
 10
215.357506026737
 20
86.4388382879144
 11
212.357506026737
 21
87.2426852879144
  0
LINE
  8
画層0
  6
CONTINUOUS
 62
7
 10
212.357506026737
 20
87.2426852879144
 11
215.357506026737
 21
88.0465322879144
  0
LINE
  8
画層0
  6
CONTINUOUS
 62
7
 10
212.357506026737
 20
87.2426852879144
 11
215.357506026737
 21
87.2426852879144
  0
LINE
  8
画層1
  6
CONTINUOUS
 62
7
 10
232.674135367957
 20
101.178117466579
 11
209.057506026737
 21
101.178117466579
  0
LINE
  8
画層1
  6
CONTINUOUS
 62
7
 10
232.674135367957
 20
132.178117466579
 11
209.057506026737
 21
132.178117466579
  0
LINE
  8
画層1
  6
CONTINUOUS
 62
7
 10
231.674135367957
 20
104.178117466579
 11
231.674135367957
 21
129.178117466579
  0
TEXT
  8
画層1
 62
7
  6
BYLAYER
 62
7
 10
231.140835367957
 20
113.478117466579
 40
3.2
  1
%%c31
  7
Font_0
 50
90
 72
1
 11
229.540835367957
 21
116.678117466579
 73
2
  0
LINE
  8
画層0
  6
CONTINUOUS
 62
7
 10
232.477982367957
 20
104.178117466579
 11
231.674135367957
 21
101.178117466579
  0
LINE
  8
画層0
  6
CONTINUOUS
 62
7
 10
231.674135367957
 20
101.178117466579
 11
230.870288367957
 21
104.178117466579
  0
LINE
  8
画層0
  6
CONTINUOUS
 62
7
 10
231.674135367957
 20
101.178117466579
 11
231.674135367957
 21
104.178117466579
  0
LINE
  8
画層0
  6
CONTINUOUS
 62
7
 10
230.870288367957
 20
129.178117466579
 11
231.674135367957
 21
132.178117466579
  0
LINE
  8
画層0
  6
CONTINUOUS
 62
7
 10
231.674135367957
 20
132.178117466579
 11
232.477982367957
 21
129.178117466579
  0
LINE
  8
画層0
  6
CONTINUOUS
 62
7
 10
231.674135367957
 20
132.178117466579
 11
231.674135367957
 21
129.178117466579
  0
LINE
  8
画層1
  6
CONTINUOUS
 62
7
 10
226.689302254219
 20
103.978117466579
 11
212.757506026737
 21
103.978117466579
  0
LINE
  8
画層1
  6
CONTINUOUS
 62
7
 10
226.689302254219
 20
129.378117466579
 11
212.757506026737
 21
129.378117466579
  0
LINE
  8
画層1
  6
CONTINUOUS
 62
7
 10
225.689302254219
 20
106.978117466579
 11
225.689302254219
 21
126.378117466579
  0
TEXT
  8
画層1
 62
7
  6
BYLAYER
 62
7
 10
225.156002254219
 20
108.678117466579
 40
3.2
  1
Ｃマウント
  7
Font_0
 50
90
 72
1
 11
223.556002254219
 21
116.678117466579
 73
2
  0
LINE
  8
画層0
  6
CONTINUOUS
 62
7
 10
226.493149254219
 20
106.978117466579
 11
225.689302254219
 21
103.978117466579
  0
LINE
  8
画層0
  6
CONTINUOUS
 62
7
 10
225.689302254219
 20
103.978117466579
 11
224.885455254219
 21
106.978117466579
  0
LINE
  8
画層0
  6
CONTINUOUS
 62
7
 10
225.689302254219
 20
103.978117466579
 11
225.689302254219
 21
106.978117466579
  0
LINE
  8
画層0
  6
CONTINUOUS
 62
7
 10
224.885455254219
 20
126.378117466579
 11
225.689302254219
 21
129.378117466579
  0
LINE
  8
画層0
  6
CONTINUOUS
 62
7
 10
225.689302254219
 20
129.378117466579
 11
226.493149254219
 21
126.378117466579
  0
LINE
  8
画層0
  6
CONTINUOUS
 62
7
 10
225.689302254219
 20
129.378117466579
 11
225.689302254219
 21
126.378117466579
  0
LINE
  8
画層0
  6
CONTINUOUS
 62
7
 10
58.2575060267368
 20
195.678117466579
 11
58.2575060267368
 21
131.678117466579
  0
TEXT
  8
画層0
 62
7
  6
BYLAYER
 62
7
 10
18.2575060267368
 20
190.878117466579
 40
3.2
  1
倍率
  7
Font_0
 11
18.2575060267368
 21
192.478117466579
 73
2
  0
TEXT
  8
画層0
 62
7
  6
BYLAYER
 62
7
 10
18.2575060267368
 20
184.478117466579
 40
3.2
  1
Ｏ／Ｉ
  7
Font_0
 11
18.2575060267368
 21
186.078117466579
 73
2
  0
TEXT
  8
画層0
 62
7
  6
BYLAYER
 62
7
 10
18.2575060267368
 20
178.078117466579
 40
3.2
  1
Ｗ．Ｄ．
  7
Font_0
 11
18.2575060267368
 21
179.678117466579
 73
2
  0
TEXT
  8
画層0
 62
7
  6
BYLAYER
 62
7
 10
18.2575060267368
 20
171.678117466579
 40
3.2
  1
被写界深度
  7
Font_0
 11
18.2575060267368
 21
173.278117466579
 73
2
  0
TEXT
  8
画層0
 62
7
  6
BYLAYER
 62
7
 10
18.2575060267368
 20
165.278117466579
 40
3.2
  1
分解能
  7
Font_0
 11
18.2575060267368
 21
166.878117466579
 73
2
  0
TEXT
  8
画層0
 62
7
  6
BYLAYER
 62
7
 10
18.2575060267368
 20
158.878117466579
 40
3.2
  1
有効Ｆナンバー
  7
Font_0
 11
18.2575060267368
 21
160.478117466579
 73
2
  0
TEXT
  8
画層0
 62
7
  6
BYLAYER
 62
7
 10
18.2575060267368
 20
152.478117466579
 40
3.2
  1
Ｎ．Ａ．
  7
Font_0
 11
18.2575060267368
 21
154.078117466579
 73
2
  0
TEXT
  8
画層0
 62
7
  6
BYLAYER
 62
7
 10
18.2575060267368
 20
146.078117466579
 40
3.2
  1
ＴＶディストーション
  7
Font_0
 11
18.2575060267368
 21
147.678117466579
 73
2
  0
TEXT
  8
画層0
 62
7
  6
BYLAYER
 62
7
 10
18.2575060267368
 20
139.678117466579
 40
3.2
  1
重量
  7
Font_0
 11
18.2575060267368
 21
141.278117466579
 73
2
  0
TEXT
  8
画層0
 62
7
  6
BYLAYER
 62
7
 10
18.2575060267368
 20
133.278117466579
 40
3.2
  1
対応素子サイズ
  7
Font_0
 11
18.2575060267368
 21
134.878117466579
 73
2
  0
LINE
  8
画層0
  6
CONTINUOUS
 62
7
 10
88.2575060267368
 20
131.678117466579
 11
88.2575060267368
 21
195.678117466579
  0
LINE
  8
画層0
  6
CONTINUOUS
 62
7
 10
88.2575060267368
 20
195.678117466579
 11
16.2575060267368
 21
195.678117466579
  0
LINE
  8
画層0
  6
CONTINUOUS
 62
7
 10
16.2575060267368
 20
195.678117466579
 11
16.2575060267368
 21
131.678117466579
  0
LINE
  8
画層0
  6
CONTINUOUS
 62
7
 10
16.2575060267368
 20
189.278117466579
 11
88.2575060267368
 21
189.278117466579
  0
LINE
  8
画層0
  6
CONTINUOUS
 62
7
 10
88.2575060267368
 20
182.878117466579
 11
16.2575060267368
 21
182.878117466579
  0
LINE
  8
画層0
  6
CONTINUOUS
 62
7
 10
16.2575060267368
 20
176.478117466579
 11
88.2575060267368
 21
176.478117466579
  0
LINE
  8
画層0
  6
CONTINUOUS
 62
7
 10
88.2575060267368
 20
170.078117466579
 11
16.2575060267368
 21
170.078117466579
  0
LINE
  8
画層0
  6
CONTINUOUS
 62
7
 10
16.2575060267368
 20
163.678117466579
 11
88.2575060267368
 21
163.678117466579
  0
LINE
  8
画層0
  6
CONTINUOUS
 62
7
 10
88.2575060267368
 20
157.278117466579
 11
16.2575060267368
 21
157.278117466579
  0
LINE
  8
画層0
  6
CONTINUOUS
 62
7
 10
16.2575060267368
 20
150.878117466579
 11
88.2575060267368
 21
150.878117466579
  0
LINE
  8
画層0
  6
CONTINUOUS
 62
7
 10
88.2575060267368
 20
144.478117466579
 11
16.2575060267368
 21
144.478117466579
  0
LINE
  8
画層0
  6
CONTINUOUS
 62
7
 10
88.2575060267368
 20
138.078117466579
 11
16.2575060267368
 21
138.078117466579
  0
LINE
  8
画層0
  6
CONTINUOUS
 62
7
 10
88.2575060267368
 20
131.678117466579
 11
16.2575060267368
 21
131.678117466579
  0
ENDSEC
  0
EOF
