999
Outputted By AR_CAD Ver.1.6.0
  0
SECTION
  2
HEADER
  9
$ACADVER
  1
AC1009
  9
$DWGCODEPAGE
  3
DOS932
  9
$EXTMIN
 10
0
 20
0
  9
$EXTMAX
 10
594
 20
420
  9
$INSBASE
 10
0.0
 20
0.0
 30
0.0
  9
$HANDLING
 70
     1
  9
$LTSCALE
 40
1
  0
ENDSEC
  0
SECTION
  2
TABLES
  0
TABLE
  2
LTYPE
 70
     16
  0
LTYPE
  2
BYBLOCK
 70
    64
 3

 72
    65
 73
    0
 40
    0
  0
LTYPE
  2
BYLAYER
 70
    64
 3

 72
    65
 73
    0
 40
    0
  0
LTYPE
  2
CONTINUOUS
 70
    64
 3
CONTINUOUS
 72
    65
 73
    0
 40
    0
  0
LTYPE
  2
DASHED
 70
    64
 3

 72
    65
 73
    2
 40
    3.5
 49
    2.91666666666667
 49
    -0.583333333333333
  0
LTYPE
  2
DOT
 70
    64
 3

 72
    65
 73
    2
 40
    0.5
 49
    0.25
 49
    -0.25
  0
LTYPE
  2
DASHDOT
 70
    64
 3

 72
    65
 73
    4
 40
    3.5
 49
    1.84210526315789
 49
    -0.552631578947368
 49
    0.552631578947368
 49
    -0.552631578947368
  0
LTYPE
  2
DIVIDE
 70
    64
 3

 72
    65
 73
    6
 40
    3.5
 49
    1.4
 49
    -0.42
 49
    0.42
 49
    -0.42
 49
    0.42
 49
    -0.42
  0
LTYPE
  2
HIDDEN
 70
    64
 3

 72
    65
 73
    2
 40
    1.905
 49
    1.27
 49
    -0.635
  0
LTYPE
  2
PHANTOM
 70
    64
 3

 72
    65
 73
    6
 40
    12.7
 49
    6.35
 49
    -1.27
 49
    1.27
 49
    -1.27
 49
    1.27
 49
    -1.27
  0
LTYPE
  2
CENTER
 70
    64
 3

 72
    65
 73
    4
 40
    10.16
 49
    6.35
 49
    -1.27
 49
    1.27
 49
    -1.27
  0
LTYPE
  2
CENTERX2
 70
    64
 3

 72
    65
 73
    4
 40
    20.32
 49
    12.7
 49
    -2.54
 49
    2.54
 49
    -2.54
  0
LTYPE
  2
DOT2
 70
    64
 3

 72
    65
 73
    2
 40
    0.635
 49
    0
 49
    -0.635
  0
LTYPE
  2
GEN7
 70
    64
 3

 72
    65
 73
    4
 40
    13.75
 49
    9.75
 49
    -1.5
 49
    1
 49
    -1.5
  0
LTYPE
  2
GEN7A
 70
    64
 3

 72
    65
 73
    4
 40
    6.875
 49
    4.75
 49
    -0.875
 49
    0.375
 49
    -0.875
  0
LTYPE
  2
GEN3
 70
    64
 3

 72
    65
 73
    2
 40
    6.25
 49
    4.75
 49
    -1.5
  0
LTYPE
  2
GEN3A
 70
    64
 3

 72
    65
 73
    2
 40
    3.125
 49
    2.25
 49
    -0.875
  0
ENDTAB
  0
TABLE
  2
LAYER
 70
   257
  0
LAYER
  2
0
 70
    0
 62
7
  6
CONTINUOUS
  0
LAYER
  2
SLD-0
 70
    0
 62
179
  6
CONTINUOUS
  0
LAYER
  2
$DDT_AUDIT_GENERATED__27_
 70
    0
 62
179
  6
CONTINUOUS
  0
LAYER
  2
ﾌﾟﾘ_ﾞﾑ
 70
    0
 62
179
  6
CONTINUOUS
  0
LAYER
  2
DIMENSION
 70
    0
 62
179
  6
CONTINUOUS
  0
LAYER
  2
KCM-1
 70
    0
 62
179
  6
CONTINUOUS
  0
LAYER
  2
CCDｶﾒﾗ_XC-ES50_
 70
    0
 62
179
  6
CONTINUOUS
  0
LAYER
  2
$DDT_AUDIT_GENERATED__9C_
 70
    0
 62
179
  6
CONTINUOUS
  0
LAYER
  2
LAYER1
 70
    0
 62
179
  6
CONTINUOUS
  0
LAYER
  2
LAYER2
 70
    0
 62
179
  6
CONTINUOUS
  0
LAYER
  2
KCM-1-75SR
 70
    0
 62
179
  6
CONTINUOUS
  0
LAYER
  2
$DDT_AUDIT_GENERATED__30_
 70
    0
 62
7
  6
CONTINUOUS
  0
LAYER
  2
シリズムカグ_
 70
    0
 62
7
  6
CONTINUOUS
  0
LAYER
  2
ﾌﾟﾘ_ﾞﾑﾎﾙﾀﾞ_
 70
    0
 62
7
  6
CONTINUOUS
  0
LAYER
  2
シリズム2
 70
    0
 62
7
  6
CONTINUOUS
  0
LAYER
  2
光源_LED_
 70
    0
 62
7
  6
CONTINUOUS
  0
LAYER
  2
$DDT_AUDIT_GENERATED__36_
 70
    0
 62
7
  6
CONTINUOUS
  0
LAYER
  2
カグ_板
 70
    0
 62
7
  6
CONTINUOUS
  0
LAYER
  2
$DDT_AUDIT_GENERATED__39_
 70
    0
 62
7
  6
CONTINUOUS
  0
LAYER
  2
KCM-4
 70
    0
 62
7
  6
CONTINUOUS
  0
LAYER
  2
LAYER7
 70
    0
 62
7
  6
CONTINUOUS
  0
LAYER
  2
LAYER4
 70
    0
 62
7
  6
CONTINUOUS
  0
LAYER
  2
LAYER6
 70
    0
 62
7
  6
CONTINUOUS
  0
LAYER
  2
LAYER5
 70
    0
 62
7
  6
CONTINUOUS
  0
LAYER
  2
LAYER11
 70
    0
 62
7
  6
CONTINUOUS
  0
LAYER
  2
LAYER12
 70
    0
 62
7
  6
CONTINUOUS
  0
LAYER
  2
LAYER9
 70
    0
 62
7
  6
CONTINUOUS
  0
LAYER
  2
LAYER3
 70
    0
 62
7
  6
CONTINUOUS
  0
LAYER
  2
$CONSTRUCTION
 70
    0
 62
-9
  6
GEN7A
  0
LAYER
  2
SLD-DEFPOINTS
 70
    0
 62
7
  6
CONTINUOUS
  0
LAYER
  2
99
 70
    0
 62
-3
  6
CONTINUOUS
  0
LAYER
  2
LED-RDW_8-14_L
 70
    0
 62
179
  6
CONTINUOUS
  0
LAYER
  2
シリズム
 70
    0
 62
179
  6
CONTINUOUS
  0
LAYER
  2
$DDT_AUDIT_GENERATED__327_
 70
    0
 62
179
  6
CONTINUOUS
  0
LAYER
  2
$DDT_AUDIT_GENERATED__380_
 70
    0
 62
179
  6
CONTINUOUS
  0
LAYER
  2
CSCX30BC3
 70
    0
 62
179
  6
CONTINUOUS
  0
LAYER
  2
KCM-4D-65C_8_
 70
    0
 62
179
  6
CONTINUOUS
  0
LAYER
  2
KCM-4D-110C
 70
    0
 62
179
  6
CONTINUOUS
  0
LAYER
  2
画層38
 70
    0
 62
7
  6
CONTINUOUS
  0
LAYER
  2
画層39
 70
    0
 62
7
  6
CONTINUOUS
  0
LAYER
  2
画層40
 70
    0
 62
7
  6
CONTINUOUS
  0
LAYER
  2
画層41
 70
    0
 62
7
  6
CONTINUOUS
  0
LAYER
  2
画層42
 70
    0
 62
7
  6
CONTINUOUS
  0
LAYER
  2
画層43
 70
    0
 62
7
  6
CONTINUOUS
  0
LAYER
  2
画層44
 70
    0
 62
7
  6
CONTINUOUS
  0
LAYER
  2
画層45
 70
    0
 62
7
  6
CONTINUOUS
  0
LAYER
  2
画層46
 70
    0
 62
7
  6
CONTINUOUS
  0
LAYER
  2
画層47
 70
    0
 62
7
  6
CONTINUOUS
  0
LAYER
  2
画層48
 70
    0
 62
7
  6
CONTINUOUS
  0
LAYER
  2
画層49
 70
    0
 62
7
  6
CONTINUOUS
  0
LAYER
  2
画層50
 70
    0
 62
7
  6
CONTINUOUS
  0
LAYER
  2
画層51
 70
    0
 62
7
  6
CONTINUOUS
  0
LAYER
  2
画層52
 70
    0
 62
7
  6
CONTINUOUS
  0
LAYER
  2
画層53
 70
    0
 62
7
  6
CONTINUOUS
  0
LAYER
  2
画層54
 70
    0
 62
7
  6
CONTINUOUS
  0
LAYER
  2
画層55
 70
    0
 62
7
  6
CONTINUOUS
  0
LAYER
  2
画層56
 70
    0
 62
7
  6
CONTINUOUS
  0
LAYER
  2
画層57
 70
    0
 62
7
  6
CONTINUOUS
  0
LAYER
  2
画層58
 70
    0
 62
7
  6
CONTINUOUS
  0
LAYER
  2
画層59
 70
    0
 62
7
  6
CONTINUOUS
  0
LAYER
  2
画層60
 70
    0
 62
7
  6
CONTINUOUS
  0
LAYER
  2
画層61
 70
    0
 62
7
  6
CONTINUOUS
  0
LAYER
  2
画層62
 70
    0
 62
7
  6
CONTINUOUS
  0
LAYER
  2
画層63
 70
    0
 62
7
  6
CONTINUOUS
  0
LAYER
  2
画層64
 70
    0
 62
7
  6
CONTINUOUS
  0
LAYER
  2
画層65
 70
    0
 62
7
  6
CONTINUOUS
  0
LAYER
  2
画層66
 70
    0
 62
7
  6
CONTINUOUS
  0
LAYER
  2
画層67
 70
    0
 62
7
  6
CONTINUOUS
  0
LAYER
  2
画層68
 70
    0
 62
7
  6
CONTINUOUS
  0
LAYER
  2
画層69
 70
    0
 62
7
  6
CONTINUOUS
  0
LAYER
  2
画層70
 70
    0
 62
7
  6
CONTINUOUS
  0
LAYER
  2
画層71
 70
    0
 62
7
  6
CONTINUOUS
  0
LAYER
  2
画層72
 70
    0
 62
7
  6
CONTINUOUS
  0
LAYER
  2
画層73
 70
    0
 62
7
  6
CONTINUOUS
  0
LAYER
  2
画層74
 70
    0
 62
7
  6
CONTINUOUS
  0
LAYER
  2
画層75
 70
    0
 62
7
  6
CONTINUOUS
  0
LAYER
  2
画層76
 70
    0
 62
7
  6
CONTINUOUS
  0
LAYER
  2
画層77
 70
    0
 62
7
  6
CONTINUOUS
  0
LAYER
  2
画層78
 70
    0
 62
7
  6
CONTINUOUS
  0
LAYER
  2
画層79
 70
    0
 62
7
  6
CONTINUOUS
  0
LAYER
  2
画層80
 70
    0
 62
7
  6
CONTINUOUS
  0
LAYER
  2
画層81
 70
    0
 62
7
  6
CONTINUOUS
  0
LAYER
  2
画層82
 70
    0
 62
7
  6
CONTINUOUS
  0
LAYER
  2
画層83
 70
    0
 62
7
  6
CONTINUOUS
  0
LAYER
  2
画層84
 70
    0
 62
7
  6
CONTINUOUS
  0
LAYER
  2
画層85
 70
    0
 62
7
  6
CONTINUOUS
  0
LAYER
  2
画層86
 70
    0
 62
7
  6
CONTINUOUS
  0
LAYER
  2
画層87
 70
    0
 62
7
  6
CONTINUOUS
  0
LAYER
  2
画層88
 70
    0
 62
7
  6
CONTINUOUS
  0
LAYER
  2
画層89
 70
    0
 62
7
  6
CONTINUOUS
  0
LAYER
  2
画層90
 70
    0
 62
7
  6
CONTINUOUS
  0
LAYER
  2
画層91
 70
    0
 62
7
  6
CONTINUOUS
  0
LAYER
  2
画層92
 70
    0
 62
7
  6
CONTINUOUS
  0
LAYER
  2
画層93
 70
    0
 62
7
  6
CONTINUOUS
  0
LAYER
  2
画層94
 70
    0
 62
7
  6
CONTINUOUS
  0
LAYER
  2
画層95
 70
    0
 62
7
  6
CONTINUOUS
  0
LAYER
  2
画層96
 70
    0
 62
7
  6
CONTINUOUS
  0
LAYER
  2
画層97
 70
    0
 62
7
  6
CONTINUOUS
  0
LAYER
  2
画層98
 70
    0
 62
7
  6
CONTINUOUS
  0
LAYER
  2
画層99
 70
    0
 62
7
  6
CONTINUOUS
  0
LAYER
  2
画層100
 70
    0
 62
7
  6
CONTINUOUS
  0
LAYER
  2
画層101
 70
    0
 62
7
  6
CONTINUOUS
  0
LAYER
  2
画層102
 70
    0
 62
7
  6
CONTINUOUS
  0
LAYER
  2
画層103
 70
    0
 62
7
  6
CONTINUOUS
  0
LAYER
  2
画層104
 70
    0
 62
7
  6
CONTINUOUS
  0
LAYER
  2
画層105
 70
    0
 62
7
  6
CONTINUOUS
  0
LAYER
  2
画層106
 70
    0
 62
7
  6
CONTINUOUS
  0
LAYER
  2
画層107
 70
    0
 62
7
  6
CONTINUOUS
  0
LAYER
  2
画層108
 70
    0
 62
7
  6
CONTINUOUS
  0
LAYER
  2
画層109
 70
    0
 62
7
  6
CONTINUOUS
  0
LAYER
  2
画層110
 70
    0
 62
7
  6
CONTINUOUS
  0
LAYER
  2
画層111
 70
    0
 62
7
  6
CONTINUOUS
  0
LAYER
  2
画層112
 70
    0
 62
7
  6
CONTINUOUS
  0
LAYER
  2
画層113
 70
    0
 62
7
  6
CONTINUOUS
  0
LAYER
  2
画層114
 70
    0
 62
7
  6
CONTINUOUS
  0
LAYER
  2
画層115
 70
    0
 62
7
  6
CONTINUOUS
  0
LAYER
  2
画層116
 70
    0
 62
7
  6
CONTINUOUS
  0
LAYER
  2
画層117
 70
    0
 62
7
  6
CONTINUOUS
  0
LAYER
  2
画層118
 70
    0
 62
7
  6
CONTINUOUS
  0
LAYER
  2
画層119
 70
    0
 62
7
  6
CONTINUOUS
  0
LAYER
  2
画層120
 70
    0
 62
7
  6
CONTINUOUS
  0
LAYER
  2
画層121
 70
    0
 62
7
  6
CONTINUOUS
  0
LAYER
  2
画層122
 70
    0
 62
7
  6
CONTINUOUS
  0
LAYER
  2
画層123
 70
    0
 62
7
  6
CONTINUOUS
  0
LAYER
  2
画層124
 70
    0
 62
7
  6
CONTINUOUS
  0
LAYER
  2
画層125
 70
    0
 62
7
  6
CONTINUOUS
  0
LAYER
  2
画層126
 70
    0
 62
7
  6
CONTINUOUS
  0
LAYER
  2
画層127
 70
    0
 62
7
  6
CONTINUOUS
  0
LAYER
  2
画層128
 70
    0
 62
7
  6
CONTINUOUS
  0
LAYER
  2
画層129
 70
    0
 62
7
  6
CONTINUOUS
  0
LAYER
  2
画層130
 70
    0
 62
7
  6
CONTINUOUS
  0
LAYER
  2
画層131
 70
    0
 62
7
  6
CONTINUOUS
  0
LAYER
  2
画層132
 70
    0
 62
7
  6
CONTINUOUS
  0
LAYER
  2
画層133
 70
    0
 62
7
  6
CONTINUOUS
  0
LAYER
  2
画層134
 70
    0
 62
7
  6
CONTINUOUS
  0
LAYER
  2
画層135
 70
    0
 62
7
  6
CONTINUOUS
  0
LAYER
  2
画層136
 70
    0
 62
7
  6
CONTINUOUS
  0
LAYER
  2
画層137
 70
    0
 62
7
  6
CONTINUOUS
  0
LAYER
  2
画層138
 70
    0
 62
7
  6
CONTINUOUS
  0
LAYER
  2
画層139
 70
    0
 62
7
  6
CONTINUOUS
  0
LAYER
  2
画層140
 70
    0
 62
7
  6
CONTINUOUS
  0
LAYER
  2
画層141
 70
    0
 62
7
  6
CONTINUOUS
  0
LAYER
  2
画層142
 70
    0
 62
7
  6
CONTINUOUS
  0
LAYER
  2
画層143
 70
    0
 62
7
  6
CONTINUOUS
  0
LAYER
  2
画層144
 70
    0
 62
7
  6
CONTINUOUS
  0
LAYER
  2
画層145
 70
    0
 62
7
  6
CONTINUOUS
  0
LAYER
  2
画層146
 70
    0
 62
7
  6
CONTINUOUS
  0
LAYER
  2
画層147
 70
    0
 62
7
  6
CONTINUOUS
  0
LAYER
  2
画層148
 70
    0
 62
7
  6
CONTINUOUS
  0
LAYER
  2
画層149
 70
    0
 62
7
  6
CONTINUOUS
  0
LAYER
  2
画層150
 70
    0
 62
7
  6
CONTINUOUS
  0
LAYER
  2
画層151
 70
    0
 62
7
  6
CONTINUOUS
  0
LAYER
  2
画層152
 70
    0
 62
7
  6
CONTINUOUS
  0
LAYER
  2
画層153
 70
    0
 62
7
  6
CONTINUOUS
  0
LAYER
  2
画層154
 70
    0
 62
7
  6
CONTINUOUS
  0
LAYER
  2
画層155
 70
    0
 62
7
  6
CONTINUOUS
  0
LAYER
  2
画層156
 70
    0
 62
7
  6
CONTINUOUS
  0
LAYER
  2
画層157
 70
    0
 62
7
  6
CONTINUOUS
  0
LAYER
  2
画層158
 70
    0
 62
7
  6
CONTINUOUS
  0
LAYER
  2
画層159
 70
    0
 62
7
  6
CONTINUOUS
  0
LAYER
  2
画層160
 70
    0
 62
7
  6
CONTINUOUS
  0
LAYER
  2
画層161
 70
    0
 62
7
  6
CONTINUOUS
  0
LAYER
  2
画層162
 70
    0
 62
7
  6
CONTINUOUS
  0
LAYER
  2
画層163
 70
    0
 62
7
  6
CONTINUOUS
  0
LAYER
  2
画層164
 70
    0
 62
7
  6
CONTINUOUS
  0
LAYER
  2
画層165
 70
    0
 62
7
  6
CONTINUOUS
  0
LAYER
  2
画層166
 70
    0
 62
7
  6
CONTINUOUS
  0
LAYER
  2
画層167
 70
    0
 62
7
  6
CONTINUOUS
  0
LAYER
  2
画層168
 70
    0
 62
7
  6
CONTINUOUS
  0
LAYER
  2
画層169
 70
    0
 62
7
  6
CONTINUOUS
  0
LAYER
  2
画層170
 70
    0
 62
7
  6
CONTINUOUS
  0
LAYER
  2
画層171
 70
    0
 62
7
  6
CONTINUOUS
  0
LAYER
  2
画層172
 70
    0
 62
7
  6
CONTINUOUS
  0
LAYER
  2
画層173
 70
    0
 62
7
  6
CONTINUOUS
  0
LAYER
  2
画層174
 70
    0
 62
7
  6
CONTINUOUS
  0
LAYER
  2
画層175
 70
    0
 62
7
  6
CONTINUOUS
  0
LAYER
  2
画層176
 70
    0
 62
7
  6
CONTINUOUS
  0
LAYER
  2
画層177
 70
    0
 62
7
  6
CONTINUOUS
  0
LAYER
  2
画層178
 70
    0
 62
7
  6
CONTINUOUS
  0
LAYER
  2
画層179
 70
    0
 62
7
  6
CONTINUOUS
  0
LAYER
  2
画層180
 70
    0
 62
7
  6
CONTINUOUS
  0
LAYER
  2
画層181
 70
    0
 62
7
  6
CONTINUOUS
  0
LAYER
  2
画層182
 70
    0
 62
7
  6
CONTINUOUS
  0
LAYER
  2
画層183
 70
    0
 62
7
  6
CONTINUOUS
  0
LAYER
  2
画層184
 70
    0
 62
7
  6
CONTINUOUS
  0
LAYER
  2
画層185
 70
    0
 62
7
  6
CONTINUOUS
  0
LAYER
  2
画層186
 70
    0
 62
7
  6
CONTINUOUS
  0
LAYER
  2
画層187
 70
    0
 62
7
  6
CONTINUOUS
  0
LAYER
  2
画層188
 70
    0
 62
7
  6
CONTINUOUS
  0
LAYER
  2
画層189
 70
    0
 62
7
  6
CONTINUOUS
  0
LAYER
  2
画層190
 70
    0
 62
7
  6
CONTINUOUS
  0
LAYER
  2
画層191
 70
    0
 62
7
  6
CONTINUOUS
  0
LAYER
  2
画層192
 70
    0
 62
7
  6
CONTINUOUS
  0
LAYER
  2
画層193
 70
    0
 62
7
  6
CONTINUOUS
  0
LAYER
  2
画層194
 70
    0
 62
7
  6
CONTINUOUS
  0
LAYER
  2
画層195
 70
    0
 62
7
  6
CONTINUOUS
  0
LAYER
  2
画層196
 70
    0
 62
7
  6
CONTINUOUS
  0
LAYER
  2
画層197
 70
    0
 62
7
  6
CONTINUOUS
  0
LAYER
  2
画層198
 70
    0
 62
7
  6
CONTINUOUS
  0
LAYER
  2
画層199
 70
    0
 62
7
  6
CONTINUOUS
  0
LAYER
  2
画層200
 70
    0
 62
7
  6
CONTINUOUS
  0
LAYER
  2
画層201
 70
    0
 62
7
  6
CONTINUOUS
  0
LAYER
  2
画層202
 70
    0
 62
7
  6
CONTINUOUS
  0
LAYER
  2
画層203
 70
    0
 62
7
  6
CONTINUOUS
  0
LAYER
  2
画層204
 70
    0
 62
7
  6
CONTINUOUS
  0
LAYER
  2
画層205
 70
    0
 62
7
  6
CONTINUOUS
  0
LAYER
  2
画層206
 70
    0
 62
7
  6
CONTINUOUS
  0
LAYER
  2
画層207
 70
    0
 62
7
  6
CONTINUOUS
  0
LAYER
  2
画層208
 70
    0
 62
7
  6
CONTINUOUS
  0
LAYER
  2
画層209
 70
    0
 62
7
  6
CONTINUOUS
  0
LAYER
  2
画層210
 70
    0
 62
7
  6
CONTINUOUS
  0
LAYER
  2
画層211
 70
    0
 62
7
  6
CONTINUOUS
  0
LAYER
  2
画層212
 70
    0
 62
7
  6
CONTINUOUS
  0
LAYER
  2
画層213
 70
    0
 62
7
  6
CONTINUOUS
  0
LAYER
  2
画層214
 70
    0
 62
7
  6
CONTINUOUS
  0
LAYER
  2
画層215
 70
    0
 62
7
  6
CONTINUOUS
  0
LAYER
  2
画層216
 70
    0
 62
7
  6
CONTINUOUS
  0
LAYER
  2
画層217
 70
    0
 62
7
  6
CONTINUOUS
  0
LAYER
  2
画層218
 70
    0
 62
7
  6
CONTINUOUS
  0
LAYER
  2
画層219
 70
    0
 62
7
  6
CONTINUOUS
  0
LAYER
  2
画層220
 70
    0
 62
7
  6
CONTINUOUS
  0
LAYER
  2
画層221
 70
    0
 62
7
  6
CONTINUOUS
  0
LAYER
  2
画層222
 70
    0
 62
7
  6
CONTINUOUS
  0
LAYER
  2
画層223
 70
    0
 62
7
  6
CONTINUOUS
  0
LAYER
  2
画層224
 70
    0
 62
7
  6
CONTINUOUS
  0
LAYER
  2
画層225
 70
    0
 62
7
  6
CONTINUOUS
  0
LAYER
  2
画層226
 70
    0
 62
7
  6
CONTINUOUS
  0
LAYER
  2
画層227
 70
    0
 62
7
  6
CONTINUOUS
  0
LAYER
  2
画層228
 70
    0
 62
7
  6
CONTINUOUS
  0
LAYER
  2
画層229
 70
    0
 62
7
  6
CONTINUOUS
  0
LAYER
  2
画層230
 70
    0
 62
7
  6
CONTINUOUS
  0
LAYER
  2
画層231
 70
    0
 62
7
  6
CONTINUOUS
  0
LAYER
  2
画層232
 70
    0
 62
7
  6
CONTINUOUS
  0
LAYER
  2
画層233
 70
    0
 62
7
  6
CONTINUOUS
  0
LAYER
  2
画層234
 70
    0
 62
7
  6
CONTINUOUS
  0
LAYER
  2
画層235
 70
    0
 62
7
  6
CONTINUOUS
  0
LAYER
  2
画層236
 70
    0
 62
7
  6
CONTINUOUS
  0
LAYER
  2
画層237
 70
    0
 62
7
  6
CONTINUOUS
  0
LAYER
  2
画層238
 70
    0
 62
7
  6
CONTINUOUS
  0
LAYER
  2
画層239
 70
    0
 62
7
  6
CONTINUOUS
  0
LAYER
  2
画層240
 70
    0
 62
7
  6
CONTINUOUS
  0
LAYER
  2
画層241
 70
    0
 62
7
  6
CONTINUOUS
  0
LAYER
  2
画層242
 70
    0
 62
7
  6
CONTINUOUS
  0
LAYER
  2
画層243
 70
    0
 62
7
  6
CONTINUOUS
  0
LAYER
  2
画層244
 70
    0
 62
7
  6
CONTINUOUS
  0
LAYER
  2
画層245
 70
    0
 62
7
  6
CONTINUOUS
  0
LAYER
  2
画層246
 70
    0
 62
7
  6
CONTINUOUS
  0
LAYER
  2
画層247
 70
    0
 62
7
  6
CONTINUOUS
  0
LAYER
  2
画層248
 70
    0
 62
7
  6
CONTINUOUS
  0
LAYER
  2
画層249
 70
    0
 62
7
  6
CONTINUOUS
  0
LAYER
  2
画層250
 70
    0
 62
7
  6
CONTINUOUS
  0
LAYER
  2
画層251
 70
    0
 62
7
  6
CONTINUOUS
  0
LAYER
  2
画層252
 70
    0
 62
7
  6
CONTINUOUS
  0
LAYER
  2
画層253
 70
    0
 62
7
  6
CONTINUOUS
  0
LAYER
  2
画層254
 70
    0
 62
7
  6
CONTINUOUS
  0
LAYER
  2
画層255
 70
    0
 62
7
  6
CONTINUOUS
  0
ENDTAB
  0
TABLE
  2
STYLE
 70
     1
  0
STYLE
  2
Standard
 70
     0
 40
0.0
 41
1.0
 50
0.0
 71
     0
 42
3.2
  3
TXT
  4
BIGFONT
  0
STYLE
  2
Font_0
 70
     0
 40
0.0
 41
1.0
 50
0.0
 71
     0
 42
3.2
  3
txt
  4
BIGFONT
  0
STYLE
  2
Font_1
 70
     0
 40
0.0
 41
1.0
 50
0.0
 71
     0
 42
3.2
  3
txt
  4
BIGFONT
  0
ENDTAB
  0
ENDSEC
  0
SECTION
  2
BLOCKS
  0
BLOCK
  8
0
  2
ﾌﾞﾛｯｸ1
 70
    0
 10
0
 20
0
 30
0.0
  3
ﾌﾞﾛｯｸ1
  1

  0
LINE
  8
LED-RDW_8-14_L
  6
BYLAYER
 10
132.1199422972
 20
54.0607843137
 11
117.1199422972
 21
54.0607843137
  0
LINE
  8
LED-RDW_8-14_L
  6
BYLAYER
 10
132.1199422972
 20
57.0607843137
 11
117.1199422972
 21
57.0607843137
  0
LINE
  8
LED-RDW_8-14_L
  6
BYLAYER
 10
117.1199422972
 20
62.5607843137
 11
117.1199422972
 21
48.5607843137
  0
LINE
  8
LED-RDW_8-14_L
  6
BYLAYER
 10
98.1199422972
 20
36.5607843137
 11
98.1199422972
 21
48.5607843137
  0
LINE
  8
LED-RDW_8-14_L
  6
CENTERX2
 10
132.1199422972
 20
55.5607843137
 11
87.1199422972
 21
55.5607843137
  0
LINE
  8
LED-RDW_8-14_L
  6
BYLAYER
 10
87.1199422972
 20
62.5607843137
 11
117.1199422972
 21
62.5607843137
  0
LINE
  8
LED-RDW_8-14_L
  6
BYLAYER
 10
98.1199422972
 20
36.5607843137
 11
90.1199422972
 21
36.5607843137
  0
LINE
  8
LED-RDW_8-14_L
  6
BYLAYER
 10
117.1199422972
 20
48.5607843137
 11
87.1199422972
 21
48.5607843137
  0
LINE
  8
LED-RDW_8-14_L
  6
CENTERX2
 10
94.1199422972
 20
36.5607843137
 11
94.1199422972
 21
48.5607843137
  0
LINE
  8
LED-RDW_8-14_L
  6
BYLAYER
 10
87.1199422972
 20
48.5607843137
 11
87.1199422972
 21
62.5607843137
  0
LINE
  8
LED-RDW_8-14_L
  6
BYLAYER
 10
90.1199422972
 20
36.5607843137
 11
90.1199422972
 21
48.5607843137
  0
ENDBLK
  0
BLOCK
  8
0
  2
CLUMP1_0
 70
    0
 10
0
 20
0
 30
0.0
  3
CLUMP1_0
  1

  0
LINE
  8
シリズム
  6
BYLAYER
 62
5
 10
189.3390272395
 20
231.0607843137
 11
189.7894847684
 21
230.6103267848
  0
LINE
  8
シリズム
  6
BYLAYER
 62
5
 10
187.2177068959
 20
231.0607843137
 11
188.7288245966
 21
229.5496666131
  0
LINE
  8
シリズム
  6
BYLAYER
 62
5
 10
185.0963865523
 20
231.0607843137
 11
187.6681644248
 21
228.4890064413
  0
LINE
  8
シリズム
  6
BYLAYER
 62
5
 10
182.9750662088
 20
231.0607843137
 11
186.607504253
 21
227.4283462695
  0
LINE
  8
シリズム
  6
BYLAYER
 62
5
 10
180.8537458652
 20
231.0607843137
 11
185.5468440812
 21
226.3676860977
  0
LINE
  8
シリズム
  6
BYLAYER
 62
5
 10
180.2399422972
 20
229.5532675382
 11
184.4861839095
 21
225.3070259259
  0
LINE
  8
シリズム
  6
BYLAYER
 62
5
 10
180.2399422972
 20
227.4319471946
 11
183.4255237377
 21
224.2463657542
  0
LINE
  8
シリズム
  6
BYLAYER
 62
5
 10
180.2399422972
 20
225.310626851
 11
182.3648635659
 21
223.1857055824
  0
LINE
  8
シリズム
  6
BYLAYER
 62
5
 10
180.2399422972
 20
223.1893065075
 11
181.3042033941
 21
222.1250454106
  0
LINE
  8
シリズム
  6
BYLAYER
 62
5
 10
180.2399422972
 20
221.0679861639
 11
180.2435432223
 21
221.0643852388
  0
LINE
  8
シリズム
  6
BYLAYER
 62
5
 10
190.2399422972
 20
231.0607843137
 11
180.2399422972
 21
221.0607843137
  0
LINE
  8
シリズム
  6
BYLAYER
 62
5
 10
180.2399422972
 20
221.0607843137
 11
180.2399422972
 21
231.0607843137
  0
LINE
  8
シリズム
  6
BYLAYER
 62
5
 10
180.2399422972
 20
231.0607843137
 11
190.2399422972
 21
231.0607843137
  0
ENDBLK
  0
BLOCK
  8
0
  2
CLUMP3_1
 70
    0
 10
0
 20
0
 30
0.0
  3
CLUMP3_1
  1

  0
LINE
  8
シリズム
  6
BYLAYER
 62
5
 10
180.2399422972
 20
195.5509608177
 11
188.7301188012
 21
187.0607843137
  0
LINE
  8
シリズム
  6
BYLAYER
 62
5
 10
180.2399422972
 20
193.4296404741
 11
186.6087984577
 21
187.0607843137
  0
LINE
  8
シリズム
  6
BYLAYER
 62
5
 10
180.2399422972
 20
191.3083201306
 11
184.4874781141
 21
187.0607843137
  0
LINE
  8
シリズム
  6
BYLAYER
 62
5
 10
180.2399422972
 20
189.186999787
 11
182.3661577705
 21
187.0607843137
  0
LINE
  8
シリズム
  6
BYLAYER
 62
5
 10
180.2399422972
 20
187.0656794435
 11
180.244837427
 21
187.0607843137
  0
LINE
  8
シリズム
  6
BYLAYER
 62
5
 10
190.2399422972
 20
187.0607843137
 11
180.2399422972
 21
197.0607843137
  0
LINE
  8
シリズム
  6
BYLAYER
 62
5
 10
180.2399422972
 20
197.0607843137
 11
180.2399422972
 21
187.0607843137
  0
LINE
  8
シリズム
  6
BYLAYER
 62
5
 10
180.2399422972
 20
187.0607843137
 11
190.2399422972
 21
187.0607843137
  0
ENDBLK
  0
BLOCK
  8
0
  2
CLUMP5_2
 70
    0
 10
0
 20
0
 30
0.0
  3
CLUMP5_2
  1

  0
LINE
  8
シリズム
  6
BYLAYER
 62
5
 10
69.2219233766
 20
231.0607843137
 11
79.2219233766
 21
231.0607843137
  0
LINE
  8
シリズム
  6
BYLAYER
 62
5
 10
79.2219233766
 20
231.0607843137
 11
79.2219233766
 21
221.0607843137
  0
LINE
  8
シリズム
  6
BYLAYER
 62
5
 10
79.2219233766
 20
221.0607843137
 11
69.2219233766
 21
221.0607843137
  0
LINE
  8
シリズム
  6
BYLAYER
 62
5
 10
69.2219233766
 20
221.0607843137
 11
69.2219233766
 21
231.0607843137
  0
LINE
  8
シリズム
  6
BYLAYER
 62
5
 10
69.2219233766
 20
230.1666437905
 11
70.1160638998
 21
231.0607843137
  0
LINE
  8
シリズム
  6
BYLAYER
 62
5
 10
69.2219233766
 20
228.0453234469
 11
72.2373842434
 21
231.0607843137
  0
LINE
  8
シリズム
  6
BYLAYER
 62
5
 10
69.2219233766
 20
225.9240031033
 11
74.358704587
 21
231.0607843137
  0
LINE
  8
シリズム
  6
BYLAYER
 62
5
 10
69.2219233766
 20
223.8026827598
 11
76.4800249305
 21
231.0607843137
  0
LINE
  8
シリズム
  6
BYLAYER
 62
5
 10
69.2219233766
 20
221.6813624162
 11
78.6013452741
 21
231.0607843137
  0
LINE
  8
シリズム
  6
BYLAYER
 62
5
 10
70.7226656176
 20
221.0607843137
 11
79.2219233766
 21
229.5600420727
  0
LINE
  8
シリズム
  6
BYLAYER
 62
5
 10
72.8439859612
 20
221.0607843137
 11
79.2219233766
 21
227.4387217291
  0
LINE
  8
シリズム
  6
BYLAYER
 62
5
 10
74.9653063048
 20
221.0607843137
 11
79.2219233766
 21
225.3174013855
  0
LINE
  8
シリズム
  6
BYLAYER
 62
5
 10
77.0866266483
 20
221.0607843137
 11
79.2219233766
 21
223.196081042
  0
LINE
  8
シリズム
  6
BYLAYER
 62
5
 10
79.2079469919
 20
221.0607843137
 11
79.2219233766
 21
221.0747606984
  0
ENDBLK
  0
BLOCK
  8
0
  2
CLUMP7_3
 70
    0
 10
0
 20
0
 30
0.0
  3
CLUMP7_3
  1

  0
LINE
  8
シリズム
  6
BYLAYER
 62
5
 10
69.2219233766
 20
187.0607843137
 11
79.2219233766
 21
187.0607843137
  0
LINE
  8
シリズム
  6
BYLAYER
 62
5
 10
79.2219233766
 20
187.0607843137
 11
79.2219233766
 21
197.0607843137
  0
LINE
  8
シリズム
  6
BYLAYER
 62
5
 10
79.2219233766
 20
197.0607843137
 11
69.2219233766
 21
197.0607843137
  0
LINE
  8
シリズム
  6
BYLAYER
 62
5
 10
69.2219233766
 20
197.0607843137
 11
69.2219233766
 21
187.0607843137
  0
LINE
  8
シリズム
  6
BYLAYER
 62
5
 10
69.2219233766
 20
196.16433707
 11
70.1183706203
 21
197.0607843137
  0
LINE
  8
シリズム
  6
BYLAYER
 62
5
 10
69.2219233766
 20
194.0430167264
 11
72.2396909639
 21
197.0607843137
  0
LINE
  8
シリズム
  6
BYLAYER
 62
5
 10
69.2219233766
 20
191.9216963829
 11
74.3610113074
 21
197.0607843137
  0
LINE
  8
シリズム
  6
BYLAYER
 62
5
 10
69.2219233766
 20
189.8003760393
 11
76.482331651
 21
197.0607843137
  0
LINE
  8
シリズム
  6
BYLAYER
 62
5
 10
69.2219233766
 20
187.6790556958
 11
78.6036519945
 21
197.0607843137
  0
LINE
  8
シリズム
  6
BYLAYER
 62
5
 10
70.7249723381
 20
187.0607843137
 11
79.2219233766
 21
195.5577353522
  0
LINE
  8
シリズム
  6
BYLAYER
 62
5
 10
72.8462926817
 20
187.0607843137
 11
79.2219233766
 21
193.4364150086
  0
LINE
  8
シリズム
  6
BYLAYER
 62
5
 10
74.9676130252
 20
187.0607843137
 11
79.2219233766
 21
191.3150946651
  0
LINE
  8
シリズム
  6
BYLAYER
 62
5
 10
77.0889333688
 20
187.0607843137
 11
79.2219233766
 21
189.1937743215
  0
LINE
  8
シリズム
  6
BYLAYER
 62
5
 10
79.2102537123
 20
187.0607843137
 11
79.2219233766
 21
187.072453978
  0
ENDBLK
  0
BLOCK
  8
0
  2
CLUMP9_4
 70
    0
 10
0
 20
0
 30
0.0
  3
CLUMP9_4
  1

  0
LINE
  8
シリズム
  6
BYLAYER
 62
5
 10
77.6983646872
 20
214.0607843137
 11
79.2219233766
 21
212.5372256244
  0
LINE
  8
シリズム
  6
BYLAYER
 62
5
 10
75.5770443437
 20
214.0607843137
 11
79.2219233766
 21
210.4159052808
  0
LINE
  8
シリズム
  6
BYLAYER
 62
5
 10
73.4557240001
 20
214.0607843137
 11
79.2219233766
 21
208.2945849372
  0
LINE
  8
シリズム
  6
BYLAYER
 62
5
 10
71.3344036565
 20
214.0607843137
 11
79.2219233766
 21
206.1732645937
  0
LINE
  8
シリズム
  6
BYLAYER
 62
5
 10
69.2219233766
 20
214.0607843137
 11
79.2219233766
 21
204.0607843137
  0
LINE
  8
シリズム
  6
BYLAYER
 62
5
 10
79.2219233766
 20
204.0607843137
 11
79.2219233766
 21
214.0607843137
  0
LINE
  8
シリズム
  6
BYLAYER
 62
5
 10
79.2219233766
 20
214.0607843137
 11
69.2219233766
 21
214.0607843137
  0
ENDBLK
  0
BLOCK
  8
0
  2
CLUMP13
 70
    0
 10
0
 20
0
 30
0.0
  3
CLUMP13
  1

  0
LINE
  8
$DDT_AUDIT_GENERATED__327_
  6
BYLAYER
 10
-115.7780766234
 20
9.0607843137
 11
-90.7780766234
 21
-2.4392156863
  0
LINE
  8
$DDT_AUDIT_GENERATED__327_
  6
BYLAYER
 10
-115.7780766234
 20
9.0607843137
 11
-90.7780766234
 21
20.5607843137
  0
LINE
  8
$DDT_AUDIT_GENERATED__327_
  6
HIDDEN
 10
-85.7780766234
 20
1.0607843137
 11
-90.7780766234
 21
1.0607843137
  0
LINE
  8
$DDT_AUDIT_GENERATED__327_
  6
HIDDEN
 10
-85.7780766234
 20
17.0607843137
 11
-90.7780766234
 21
17.0607843137
  0
LINE
  8
$DDT_AUDIT_GENERATED__327_
  6
BYLAYER
 10
-85.7780766234
 20
-7.9392156863
 11
-90.7780766234
 21
-7.9392156863
  0
LINE
  8
$DDT_AUDIT_GENERATED__327_
  6
CENTERX2
 10
-85.7780766234
 20
9.0607843137
 11
-115.7780766234
 21
9.0607843137
  0
LINE
  8
$DDT_AUDIT_GENERATED__327_
  6
BYLAYER
 10
-90.7780766234
 20
-7.9392156863
 11
-90.7780766234
 21
26.0607843137
  0
LINE
  8
$DDT_AUDIT_GENERATED__327_
  6
BYLAYER
 10
-90.7780766234
 20
26.0607843137
 11
-85.7780766234
 21
26.0607843137
  0
LINE
  8
$DDT_AUDIT_GENERATED__327_
  6
BYLAYER
 10
-85.7780766234
 20
26.0607843137
 11
-85.7780766234
 21
-7.9392156863
  0
ENDBLK
  0
BLOCK
  8
0
  2
CLUMP11_5
 70
    0
 10
0
 20
0
 30
0.0
  3
CLUMP11_5
  1

  0
LINE
  8
シリズム
  6
BYLAYER
 62
5
 10
69.2219233766
 20
212.5357152869
 11
77.6968543497
 21
204.0607843137
  0
LINE
  8
シリズム
  6
BYLAYER
 62
5
 10
69.2219233766
 20
210.4143949433
 11
75.5755340062
 21
204.0607843137
  0
LINE
  8
シリズム
  6
BYLAYER
 62
5
 10
69.2219233766
 20
208.2930745997
 11
73.4542136626
 21
204.0607843137
  0
LINE
  8
シリズム
  6
BYLAYER
 62
5
 10
69.2219233766
 20
206.1717542562
 11
71.332893319
 21
204.0607843137
  0
LINE
  8
シリズム
  6
BYLAYER
 62
5
 10
79.2219233766
 20
204.0607843137
 11
69.2219233766
 21
214.0607843137
  0
LINE
  8
シリズム
  6
BYLAYER
 62
5
 10
69.2219233766
 20
214.0607843137
 11
69.2219233766
 21
204.0607843137
  0
LINE
  8
シリズム
  6
BYLAYER
 62
5
 10
69.2219233766
 20
204.0607843137
 11
79.2219233766
 21
204.0607843137
  0
ENDBLK
  0
BLOCK
  8
0
  2
CLUMP14_6
 70
    0
 10
0
 20
0
 30
0.0
  3
CLUMP14_6
  1

  0
LINE
  8
シリズム
  6
BYLAYER
 62
5
 10
180.2399422972
 20
214.0607843137
 11
190.2399422972
 21
214.0607843137
  0
LINE
  8
シリズム
  6
BYLAYER
 62
5
 10
190.2399422972
 20
214.0607843137
 11
190.2399422972
 21
204.0607843137
  0
LINE
  8
シリズム
  6
BYLAYER
 62
5
 10
190.2399422972
 20
204.0607843137
 11
180.2399422972
 21
204.0607843137
  0
LINE
  8
シリズム
  6
BYLAYER
 62
5
 10
180.2399422972
 20
204.0607843137
 11
180.2399422972
 21
214.0607843137
  0
LINE
  8
シリズム
  6
BYLAYER
 62
5
 10
180.2399422972
 20
213.1490915392
 11
181.1516350718
 21
214.0607843137
  0
LINE
  8
シリズム
  6
BYLAYER
 62
5
 10
180.2399422972
 20
211.0277711956
 11
183.2729554154
 21
214.0607843137
  0
LINE
  8
シリズム
  6
BYLAYER
 62
5
 10
180.2399422972
 20
208.906450852
 11
185.3942757589
 21
214.0607843137
  0
LINE
  8
シリズム
  6
BYLAYER
 62
5
 10
180.2399422972
 20
206.7851305085
 11
187.5155961025
 21
214.0607843137
  0
LINE
  8
シリズム
  6
BYLAYER
 62
5
 10
180.2399422972
 20
204.6638101649
 11
189.636916446
 21
214.0607843137
  0
LINE
  8
シリズム
  6
BYLAYER
 62
5
 10
181.7582367896
 20
204.0607843137
 11
190.2399422972
 21
212.5424898214
  0
LINE
  8
シリズム
  6
BYLAYER
 62
5
 10
183.8795571332
 20
204.0607843137
 11
190.2399422972
 21
210.4211694778
  0
LINE
  8
シリズム
  6
BYLAYER
 62
5
 10
186.0008774767
 20
204.0607843137
 11
190.2399422972
 21
208.2998491342
  0
LINE
  8
シリズム
  6
BYLAYER
 62
5
 10
188.1221978203
 20
204.0607843137
 11
190.2399422972
 21
206.1785287907
  0
ENDBLK
  0
BLOCK
  8
0
  2
CLUMP16
 70
    0
 10
0
 20
0
 30
0.0
  3
CLUMP16
  1

  0
LINE
  8
$DDT_AUDIT_GENERATED__380_
  6
BYLAYER
 10
-5.7780766234
 20
9.0607843137
 11
-60.7780766234
 21
20.5607843137
  0
LINE
  8
$DDT_AUDIT_GENERATED__380_
  6
BYLAYER
 10
-5.7780766234
 20
9.0607843137
 11
-60.7780766234
 21
-2.4392156863
  0
LINE
  8
$DDT_AUDIT_GENERATED__380_
  6
CENTERX2
 10
-65.7780766234
 20
9.0607843137
 11
-5.7780766234
 21
9.0607843137
  0
LINE
  8
$DDT_AUDIT_GENERATED__380_
  6
HIDDEN
 10
-65.7780766234
 20
4.0607843137
 11
-60.7780766234
 21
4.0607843137
  0
LINE
  8
$DDT_AUDIT_GENERATED__380_
  6
BYLAYER
 10
-65.7780766234
 20
26.0607843137
 11
-60.7780766234
 21
26.0607843137
  0
LINE
  8
$DDT_AUDIT_GENERATED__380_
  6
HIDDEN
 10
-65.7780766234
 20
14.0607843137
 11
-60.7780766234
 21
14.0607843137
  0
LINE
  8
$DDT_AUDIT_GENERATED__380_
  6
BYLAYER
 10
-65.7780766234
 20
-7.9392156863
 11
-65.7780766234
 21
26.0607843137
  0
LINE
  8
$DDT_AUDIT_GENERATED__380_
  6
BYLAYER
 10
-60.7780766234
 20
26.0607843137
 11
-60.7780766234
 21
-7.9392156863
  0
LINE
  8
$DDT_AUDIT_GENERATED__380_
  6
BYLAYER
 10
-60.7780766234
 20
-7.9392156863
 11
-65.7780766234
 21
-7.9392156863
  0
ENDBLK
  0
BLOCK
  8
0
  2
CLUMP18
 70
    0
 10
0
 20
0
 30
0.0
  3
CLUMP18
  1

  0
LINE
  8
CSCX30BC3
  6
BYLAYER
 10
152.7399422972
 20
40.5607843137
 11
198.9399422972
 21
40.5607843137
  0
LINE
  8
CSCX30BC3
  6
BYLAYER
 10
198.9399422972
 20
11.5607843137
 11
152.7399422972
 21
11.5607843137
  0
LINE
  8
CSCX30BC3
  6
CENTERX2
 10
152.7399422972
 20
26.0607843137
 11
198.9399422972
 21
26.0607843137
  0
LINE
  8
CSCX30BC3
  6
BYLAYER
 10
192.2399422972
 20
40.5607843137
 11
192.2399422972
 21
11.5607843137
  0
LINE
  8
CSCX30BC3
  6
BYLAYER
 10
152.7399422972
 20
11.5607843137
 11
152.7399422972
 21
40.5607843137
  0
LINE
  8
CSCX30BC3
  6
BYLAYER
 10
165.7399422972
 20
11.5607843137
 11
165.7399422972
 21
40.5607843137
  0
LINE
  8
CSCX30BC3
  6
BYLAYER
 10
198.9399422972
 20
40.5607843137
 11
198.9399422972
 21
11.5607843137
  0
ENDBLK
  0
BLOCK
  8
0
  2
CLUMP19
 70
    0
 10
0
 20
0
 30
0.0
  3
CLUMP19
  1

  0
LINE
  8
CSCX30BC3
  6
BYLAYER
 10
122.9399422972
 20
-22.4392156863
 11
169.1399422972
 21
-22.4392156863
  0
LINE
  8
CSCX30BC3
  6
BYLAYER
 10
169.1399422972
 20
6.5607843137
 11
122.9399422972
 21
6.5607843137
  0
LINE
  8
CSCX30BC3
  6
CENTERX2
 10
122.9399422972
 20
-7.9392156863
 11
169.1399422972
 21
-7.9392156863
  0
LINE
  8
CSCX30BC3
  6
BYLAYER
 10
162.4399422972
 20
-22.4392156863
 11
162.4399422972
 21
6.5607843137
  0
LINE
  8
CSCX30BC3
  6
BYLAYER
 10
122.9399422972
 20
6.5607843137
 11
122.9399422972
 21
-22.4392156863
  0
LINE
  8
CSCX30BC3
  6
BYLAYER
 10
135.9399422972
 20
6.5607843137
 11
135.9399422972
 21
-22.4392156863
  0
LINE
  8
CSCX30BC3
  6
BYLAYER
 10
169.1399422972
 20
-22.4392156863
 11
169.1399422972
 21
6.5607843137
  0
ENDBLK
  0
BLOCK
  8
0
  2
CLUMP23
 70
    0
 10
0
 20
0
 30
0.0
  3
CLUMP23
  1

  0
CIRCLE
  8
KCM-4D-65C_8_
  6
BYLAYER
 10
72.4399422972
 20
-27.4392156863
 40
1.5
  0
CIRCLE
  8
KCM-4D-65C_8_
  6
BYLAYER
 10
72.4399422972
 20
-27.4392156863
 40
1.25
  0
CIRCLE
  8
KCM-4D-65C_8_
  6
BYLAYER
 10
119.7399422972
 20
-7.9392156863
 40
1.25
  0
CIRCLE
  8
KCM-4D-65C_8_
  6
BYLAYER
 10
119.7399422972
 20
-7.9392156863
 40
1.5
  0
LINE
  8
KCM-4D-65C_8_
  6
HIDDEN
 10
68.4399422972
 20
-30.4392156863
 11
68.4399422972
 21
-18.7392156863
  0
LINE
  8
KCM-4D-65C_8_
  6
BYLAYER
 10
46.4399422972
 20
-15.6392156863
 11
46.4399422972
 21
-0.2392156863
  0
LINE
  8
KCM-4D-65C_8_
  6
BYLAYER
 10
46.7399422972
 20
-15.9392156863
 11
46.7399422972
 21
0.0607843137
  0
LINE
  8
KCM-4D-65C_8_
  6
BYLAYER
 10
46.4399422972
 20
-15.6392156863
 11
46.7399422972
 21
-15.9392156863
  0
LINE
  8
KCM-4D-65C_8_
  6
BYLAYER
 10
64.4399422972
 20
0.7607843137
 11
64.4399422972
 21
-17.6392156863
  0
LINE
  8
KCM-4D-65C_8_
  6
BYLAYER
 10
116.9399422972
 20
-23.4392156863
 11
116.4399422972
 21
-22.9392156863
  0
LINE
  8
KCM-4D-65C_8_
  6
HIDDEN
 10
76.4399422972
 20
-30.4392156863
 11
76.4399422972
 21
-18.7392156863
  0
LINE
  8
KCM-4D-65C_8_
  6
BYLAYER
 10
78.9399422972
 20
-30.4392156863
 11
79.4399422972
 21
-29.9392156863
  0
LINE
  8
KCM-4D-65C_8_
  6
BYLAYER
 10
122.9399422972
 20
4.3107843137
 11
126.7899422972
 21
4.3107843137
  0
LINE
  8
KCM-4D-65C_8_
  6
BYLAYER
 10
126.9399422972
 20
4.1607843137
 11
126.9399422972
 21
-20.0392156863
  0
LINE
  8
KCM-4D-65C_8_
  6
CENTERX2
 10
75.4399422972
 20
-27.4392156863
 11
69.4399422972
 21
-27.4392156863
  0
LINE
  8
KCM-4D-65C_8_
  6
BYLAYER
 10
65.9399422972
 20
-30.4392156863
 11
78.9399422972
 21
-30.4392156863
  0
LINE
  8
KCM-4D-65C_8_
  6
BYLAYER
 10
64.4399422972
 20
-0.0019617531
 11
80.4399422972
 21
-0.0019617531
  0
LINE
  8
KCM-4D-65C_8_
  6
HIDDEN
 10
68.4399422972
 20
-18.7392156863
 11
76.4399422972
 21
-18.7392156863
  0
LINE
  8
KCM-4D-65C_8_
  6
BYLAYER
 10
65.4399422972
 20
-29.9392156863
 11
79.4399422972
 21
-29.9392156863
  0
LINE
  8
KCM-4D-65C_8_
  6
BYLAYER
 10
80.1399422972
 20
1.0607843137
 11
64.7399422972
 21
1.0607843137
  0
LINE
  8
KCM-4D-65C_8_
  6
BYLAYER
 10
46.7399422972
 20
-15.9392156863
 11
105.2399422972
 21
-15.9392156863
  0
LINE
  8
KCM-4D-65C_8_
  6
CENTERX2
 10
39.8407118383
 20
-7.9392156863
 11
135.547042583
 21
-7.9392156863
  0
LINE
  8
KCM-4D-65C_8_
  6
BYLAYER
 10
80.1399422972
 20
-17.9392156863
 11
64.7399422972
 21
-17.9392156863
  0
LINE
  8
KCM-4D-65C_8_
  6
CENTERX2
 10
72.4399422972
 20
-33.972077776
 11
72.4399422972
 21
4.6953914643
  0
LINE
  8
KCM-4D-65C_8_
  6
BYLAYER
 10
126.3399422972
 20
4.7607843137
 11
123.9399422972
 21
4.7607843137
  0
LINE
  8
KCM-4D-65C_8_
  6
BYLAYER
 10
126.3399422972
 20
-20.6392156863
 11
126.3399422972
 21
4.7607843137
  0
LINE
  8
KCM-4D-65C_8_
  6
BYLAYER
 10
116.9399422972
 20
-23.4392156863
 11
116.9399422972
 21
7.5607843137
  0
LINE
  8
KCM-4D-65C_8_
  6
BYLAYER
 10
122.6399422972
 20
-23.4392156863
 11
122.6399422972
 21
7.5607843137
  0
LINE
  8
KCM-4D-65C_8_
  6
BYLAYER
 10
123.9399422972
 20
-20.6392156863
 11
123.9399422972
 21
4.7607843137
  0
LINE
  8
KCM-4D-65C_8_
  6
BYLAYER
 10
122.9399422972
 20
-23.1392156863
 11
122.9399422972
 21
7.2607843137
  0
LINE
  8
KCM-4D-65C_8_
  6
BYLAYER
 10
116.4399422972
 20
-22.9392156863
 11
116.4399422972
 21
7.0607843137
  0
LINE
  8
KCM-4D-65C_8_
  6
BYLAYER
 10
126.3399422972
 20
4.7607843137
 11
126.9399422972
 21
4.1607843137
  0
LINE
  8
KCM-4D-65C_8_
  6
BYLAYER
 10
80.4399422972
 20
0.7607843137
 11
80.4399422972
 21
-17.6392156863
  0
LINE
  8
KCM-4D-65C_8_
  6
BYLAYER
 10
80.4399422972
 20
0.7607843137
 11
80.1399422972
 21
1.0607843137
  0
LINE
  8
KCM-4D-65C_8_
  6
BYLAYER
 10
116.9399422972
 20
7.5607843137
 11
116.4399422972
 21
7.0607843137
  0
LINE
  8
KCM-4D-65C_8_
  6
BYLAYER
 10
122.9399422972
 20
7.2607843137
 11
122.6399422972
 21
7.5607843137
  0
LINE
  8
KCM-4D-65C_8_
  6
BYLAYER
 10
122.6399422972
 20
7.5607843137
 11
116.9399422972
 21
7.5607843137
  0
LINE
  8
KCM-4D-65C_8_
  6
BYLAYER
 10
64.4399422972
 20
0.7607843137
 11
64.7399422972
 21
1.0607843137
  0
LINE
  8
KCM-4D-65C_8_
  6
BYLAYER
 10
64.4399422972
 20
0.0607843137
 11
46.7399422972
 21
0.0607843137
  0
LINE
  8
KCM-4D-65C_8_
  6
BYLAYER
 10
63.3399422972
 20
-15.9392156863
 11
58.0185680921
 21
-15.9392156863
  0
LINE
  8
KCM-4D-65C_8_
  6
BYLAYER
 10
65.4399422972
 20
-29.9392156863
 11
65.9399422972
 21
-30.4392156863
  0
LINE
  8
KCM-4D-65C_8_
  6
BYLAYER
 10
65.4399422972
 20
-29.9392156863
 11
65.4399422972
 21
-17.9392156863
  0
LINE
  8
KCM-4D-65C_8_
  6
BYLAYER
 10
64.4399422972
 20
-17.6392156863
 11
64.7399422972
 21
-17.9392156863
  0
LINE
  8
KCM-4D-65C_8_
  6
BYLAYER
 10
46.4399422972
 20
-0.2392156863
 11
46.7399422972
 21
0.0607843137
  0
LINE
  8
KCM-4D-65C_8_
  6
CENTERX2
 10
119.7399422972
 20
-10.9392156863
 11
119.7399422972
 21
-4.9392156863
  0
LINE
  8
KCM-4D-65C_8_
  6
BYLAYER
 10
79.4399422972
 20
-29.9392156863
 11
79.4399422972
 21
-17.9392156863
  0
LINE
  8
KCM-4D-65C_8_
  6
BYLAYER
 10
122.9399422972
 20
-20.1892156863
 11
126.7899422972
 21
-20.1892156863
  0
LINE
  8
KCM-4D-65C_8_
  6
BYLAYER
 10
87.8399422972
 20
-15.9392156863
 11
116.4399422972
 21
-15.9392156863
  0
LINE
  8
KCM-4D-65C_8_
  6
BYLAYER
 10
80.4399422972
 20
0.0607843137
 11
105.2399422972
 21
0.0607843137
  0
LINE
  8
KCM-4D-65C_8_
  6
BYLAYER
 10
87.8399422972
 20
0.0607843137
 11
116.4399422972
 21
0.0607843137
  0
LINE
  8
KCM-4D-65C_8_
  6
BYLAYER
 10
80.4399422972
 20
-17.6392156863
 11
80.1399422972
 21
-17.9392156863
  0
LINE
  8
KCM-4D-65C_8_
  6
BYLAYER
 10
126.3399422972
 20
-20.6392156863
 11
123.9399422972
 21
-20.6392156863
  0
LINE
  8
KCM-4D-65C_8_
  6
BYLAYER
 10
126.3399422972
 20
-20.6392156863
 11
126.9399422972
 21
-20.0392156863
  0
LINE
  8
KCM-4D-65C_8_
  6
BYLAYER
 10
122.6399422972
 20
-23.4392156863
 11
116.9399422972
 21
-23.4392156863
  0
LINE
  8
KCM-4D-65C_8_
  6
BYLAYER
 10
122.9399422972
 20
-23.1392156863
 11
122.6399422972
 21
-23.4392156863
  0
ENDBLK
  0
BLOCK
  8
0
  2
CLUMP24
 70
    0
 10
0
 20
0
 30
0.0
  3
CLUMP24
  1

  0
LINE
  8
LED-RDW_8-14_L
  6
BYLAYER
 10
110.4399422972
 20
-36.2392156863
 11
95.4399422972
 21
-36.2392156863
  0
LINE
  8
LED-RDW_8-14_L
  6
BYLAYER
 10
110.4399422972
 20
-39.2392156863
 11
95.4399422972
 21
-39.2392156863
  0
LINE
  8
LED-RDW_8-14_L
  6
BYLAYER
 10
95.4399422972
 20
-44.7392156863
 11
95.4399422972
 21
-30.7392156863
  0
LINE
  8
LED-RDW_8-14_L
  6
BYLAYER
 10
76.4399422972
 20
-18.7392156863
 11
76.4399422972
 21
-30.7392156863
  0
LINE
  8
LED-RDW_8-14_L
  6
CENTERX2
 10
110.4399422972
 20
-37.7392156863
 11
65.4399422972
 21
-37.7392156863
  0
LINE
  8
LED-RDW_8-14_L
  6
BYLAYER
 10
65.4399422972
 20
-44.7392156863
 11
95.4399422972
 21
-44.7392156863
  0
LINE
  8
LED-RDW_8-14_L
  6
BYLAYER
 10
76.4399422972
 20
-18.7392156863
 11
68.4399422972
 21
-18.7392156863
  0
LINE
  8
LED-RDW_8-14_L
  6
BYLAYER
 10
95.4399422972
 20
-30.7392156863
 11
65.4399422972
 21
-30.7392156863
  0
LINE
  8
LED-RDW_8-14_L
  6
CENTERX2
 10
72.4399422972
 20
-18.7392156863
 11
72.4399422972
 21
-30.7392156863
  0
LINE
  8
LED-RDW_8-14_L
  6
BYLAYER
 10
65.4399422972
 20
-30.7392156863
 11
65.4399422972
 21
-44.7392156863
  0
LINE
  8
LED-RDW_8-14_L
  6
BYLAYER
 10
68.4399422972
 20
-18.7392156863
 11
68.4399422972
 21
-30.7392156863
  0
ENDBLK
  0
BLOCK
  8
0
  2
CLUMP27
 70
    0
 10
0
 20
0
 30
0.0
  3
CLUMP27
  1

  0
CIRCLE
  8
$DDT_AUDIT_GENERATED__327_
  6
BYLAYER
 10
53.2399422972
 20
1.5607843137
 40
2
  0
CIRCLE
  8
$DDT_AUDIT_GENERATED__327_
  6
BYLAYER
 10
58.2399422972
 20
1.5607843137
 40
2
  0
CIRCLE
  8
$DDT_AUDIT_GENERATED__327_
  6
BYLAYER
 10
53.2399422972
 20
1.5607843137
 40
1.09999999999999
  0
CIRCLE
  8
$DDT_AUDIT_GENERATED__327_
  6
BYLAYER
 10
58.2399422972
 20
1.5607843137
 40
1.1
  0
CIRCLE
  8
$DDT_AUDIT_GENERATED__327_
  6
BYLAYER
 10
53.2399422972
 20
16.5607843137
 40
1.09999999999999
  0
CIRCLE
  8
$DDT_AUDIT_GENERATED__327_
  6
BYLAYER
 10
53.2399422972
 20
16.5607843137
 40
2
  0
CIRCLE
  8
$DDT_AUDIT_GENERATED__327_
  6
BYLAYER
 10
58.2399422972
 20
16.5607843137
 40
2
  0
CIRCLE
  8
$DDT_AUDIT_GENERATED__327_
  6
BYLAYER
 10
58.2399422972
 20
16.5607843137
 40
1.1
  0
CIRCLE
  8
$DDT_AUDIT_GENERATED__327_
  6
BYLAYER
 10
35.2399422972
 20
9.0607843137
 40
8
  0
LINE
  8
$DDT_AUDIT_GENERATED__327_
  6
BYLAYER
 10
61.2399422972
 20
10.5607843137
 11
90.238241617
 21
10.5607843137
  0
LINE
  8
$DDT_AUDIT_GENERATED__327_
  6
BYLAYER
 10
61.2399422972
 20
7.5607843137
 11
90.238241617
 21
7.5607843137
  0
LINE
  8
$DDT_AUDIT_GENERATED__327_
  6
CENTERX2
 10
18.2399422972
 20
9.0607843137
 11
90.238241617
 21
9.0607843137
  0
LINE
  8
$DDT_AUDIT_GENERATED__327_
  6
CENTERX2
 10
53.2399422972
 20
-2.1214687133
 11
53.2399422972
 21
5.2430373407
  0
LINE
  8
$DDT_AUDIT_GENERATED__327_
  6
CENTERX2
 10
58.2399422972
 20
-2.1214687133
 11
58.2399422972
 21
5.2430373407
  0
LINE
  8
$DDT_AUDIT_GENERATED__327_
  6
BYLAYER
 10
61.2399422972
 20
26.0607843137
 11
61.2399422972
 21
-7.9392156863
  0
LINE
  8
$DDT_AUDIT_GENERATED__327_
  6
CENTERX2
 10
35.2399422972
 20
-7.9392156863
 11
35.2399422972
 21
26.0607843137
  0
LINE
  8
$DDT_AUDIT_GENERATED__327_
  6
BYLAYER
 10
18.2399422972
 20
-7.9392156863
 11
18.2399422972
 21
26.0607843137
  0
LINE
  8
$DDT_AUDIT_GENERATED__327_
  6
BYLAYER
 10
61.2399422972
 20
-7.9392156863
 11
18.2399422972
 21
-7.9392156863
  0
LINE
  8
$DDT_AUDIT_GENERATED__327_
  6
CENTERX2
 10
49.5576892702
 20
1.5607843137
 11
61.9221953242
 21
1.5607843137
  0
LINE
  8
$DDT_AUDIT_GENERATED__327_
  6
CENTERX2
 10
53.2399422972
 20
12.8785312867
 11
53.2399422972
 21
20.2430373407
  0
LINE
  8
$DDT_AUDIT_GENERATED__327_
  6
CENTERX2
 10
49.5576892702
 20
16.5607843137
 11
61.9221953242
 21
16.5607843137
  0
LINE
  8
$DDT_AUDIT_GENERATED__327_
  6
CENTERX2
 10
58.2399422972
 20
12.8785312867
 11
58.2399422972
 21
20.2430373407
  0
LINE
  8
$DDT_AUDIT_GENERATED__327_
  6
BYLAYER
 10
18.2399422972
 20
26.0607843137
 11
61.2399422972
 21
26.0607843137
  0
ENDBLK
  0
BLOCK
  8
0
  2
CLUMP28
 70
    0
 10
0
 20
0
 30
0.0
  3
CLUMP28
  1

  0
CIRCLE
  8
$DDT_AUDIT_GENERATED__380_
  6
BYLAYER
 10
53.2399422972
 20
1.5607843137
 40
2
  0
CIRCLE
  8
$DDT_AUDIT_GENERATED__380_
  6
BYLAYER
 10
58.2399422972
 20
1.5607843137
 40
2
  0
CIRCLE
  8
$DDT_AUDIT_GENERATED__380_
  6
BYLAYER
 10
53.2399422972
 20
1.5607843137
 40
1.09999999999999
  0
CIRCLE
  8
$DDT_AUDIT_GENERATED__380_
  6
BYLAYER
 10
58.2399422972
 20
1.5607843137
 40
1.1
  0
CIRCLE
  8
$DDT_AUDIT_GENERATED__380_
  6
BYLAYER
 10
53.2399422972
 20
16.5607843137
 40
1.09999999999999
  0
CIRCLE
  8
$DDT_AUDIT_GENERATED__380_
  6
BYLAYER
 10
53.2399422972
 20
16.5607843137
 40
2
  0
CIRCLE
  8
$DDT_AUDIT_GENERATED__380_
  6
BYLAYER
 10
58.2399422972
 20
16.5607843137
 40
2
  0
CIRCLE
  8
$DDT_AUDIT_GENERATED__380_
  6
BYLAYER
 10
58.2399422972
 20
16.5607843137
 40
1.1
  0
CIRCLE
  8
$DDT_AUDIT_GENERATED__380_
  6
BYLAYER
 10
35.2399422972
 20
9.0607843137
 40
5
  0
LINE
  8
$DDT_AUDIT_GENERATED__380_
  6
BYLAYER
 10
61.2399422972
 20
10.5607843137
 11
90.238241617
 21
10.5607843137
  0
LINE
  8
$DDT_AUDIT_GENERATED__380_
  6
BYLAYER
 10
61.2399422972
 20
7.5607843137
 11
90.238241617
 21
7.5607843137
  0
LINE
  8
$DDT_AUDIT_GENERATED__380_
  6
CENTERX2
 10
18.2399422972
 20
9.0607843137
 11
90.238241617
 21
9.0607843137
  0
LINE
  8
$DDT_AUDIT_GENERATED__380_
  6
CENTERX2
 10
53.2399422972
 20
-2.1214687133
 11
53.2399422972
 21
5.2430373407
  0
LINE
  8
$DDT_AUDIT_GENERATED__380_
  6
CENTERX2
 10
58.2399422972
 20
-2.1214687133
 11
58.2399422972
 21
5.2430373407
  0
LINE
  8
$DDT_AUDIT_GENERATED__380_
  6
BYLAYER
 10
61.2399422972
 20
-7.9392156863
 11
61.2399422972
 21
26.0607843137
  0
LINE
  8
$DDT_AUDIT_GENERATED__380_
  6
BYLAYER
 10
18.2399422972
 20
-7.9392156863
 11
18.2399422972
 21
26.0607843137
  0
LINE
  8
$DDT_AUDIT_GENERATED__380_
  6
CENTERX2
 10
35.2399422972
 20
-7.9392156863
 11
35.2399422972
 21
26.0607843137
  0
LINE
  8
$DDT_AUDIT_GENERATED__380_
  6
BYLAYER
 10
61.2399422972
 20
-7.9392156863
 11
18.2399422972
 21
-7.9392156863
  0
LINE
  8
$DDT_AUDIT_GENERATED__380_
  6
CENTERX2
 10
49.5576892702
 20
1.5607843137
 11
61.9221953242
 21
1.5607843137
  0
LINE
  8
$DDT_AUDIT_GENERATED__380_
  6
CENTERX2
 10
53.2399422972
 20
12.8785312867
 11
53.2399422972
 21
20.2430373407
  0
LINE
  8
$DDT_AUDIT_GENERATED__380_
  6
CENTERX2
 10
58.2399422972
 20
12.8785312867
 11
58.2399422972
 21
20.2430373407
  0
LINE
  8
$DDT_AUDIT_GENERATED__380_
  6
CENTERX2
 10
49.5576892702
 20
16.5607843137
 11
61.9221953242
 21
16.5607843137
  0
LINE
  8
$DDT_AUDIT_GENERATED__380_
  6
BYLAYER
 10
18.2399422972
 20
26.0607843137
 11
61.2399422972
 21
26.0607843137
  0
ENDBLK
  0
BLOCK
  8
0
  2
CLUMP22
 70
    0
 10
0
 20
0
 30
0.0
  3
CLUMP22
  1

  0
CIRCLE
  8
KCM-4D-65C_8_
  6
BYLAYER
 10
119.7399422972
 20
-127.745751634
 40
1.25
  0
CIRCLE
  8
KCM-4D-65C_8_
  6
BYLAYER
 10
119.7399422972
 20
-127.745751634
 40
1.5
  0
LINE
  8
KCM-4D-65C_8_
  6
CENTERX2
 10
119.7399422972
 20
-130.745751634
 11
119.7399422972
 21
-124.745751634
  0
LINE
  8
KCM-4D-65C_8_
  6
BYLAYER
 10
123.9399422972
 20
-140.445751634
 11
123.9399422972
 21
-115.045751634
  0
LINE
  8
KCM-4D-65C_8_
  6
BYLAYER
 10
122.9399422972
 20
-142.945751634
 11
122.9399422972
 21
-112.545751634
  0
LINE
  8
KCM-4D-65C_8_
  6
BYLAYER
 10
116.4399422972
 20
-142.745751634
 11
116.4399422972
 21
-112.745751634
  0
LINE
  8
KCM-4D-65C_8_
  6
BYLAYER
 10
80.4399422972
 20
-119.045751634
 11
80.4399422972
 21
-136.445751634
  0
LINE
  8
KCM-4D-65C_8_
  6
BYLAYER
 10
126.3399422972
 20
-140.445751634
 11
126.3399422972
 21
-115.045751634
  0
LINE
  8
KCM-4D-65C_8_
  6
BYLAYER
 10
116.9399422972
 20
-143.245751634
 11
116.9399422972
 21
-112.245751634
  0
LINE
  8
KCM-4D-65C_8_
  6
BYLAYER
 10
122.6399422972
 20
-143.245751634
 11
122.6399422972
 21
-112.245751634
  0
LINE
  8
KCM-4D-65C_8_
  6
BYLAYER
 10
126.9399422972
 20
-115.645751634
 11
126.9399422972
 21
-139.845751634
  0
LINE
  8
KCM-4D-65C_8_
  6
BYLAYER
 10
63.3399422972
 20
-135.745751634
 11
58.0185680921
 21
-135.745751634
  0
LINE
  8
KCM-4D-65C_8_
  6
BYLAYER
 10
46.4399422972
 20
-135.445751634
 11
46.7399422972
 21
-135.745751634
  0
LINE
  8
KCM-4D-65C_8_
  6
BYLAYER
 10
46.7399422972
 20
-135.745751634
 11
64.4399422972
 21
-135.745751634
  0
LINE
  8
KCM-4D-65C_8_
  6
BYLAYER
 10
64.4399422972
 20
-136.445751634
 11
64.7399422972
 21
-136.745751634
  0
LINE
  8
KCM-4D-65C_8_
  6
BYLAYER
 10
46.4399422972
 20
-120.045751634
 11
46.7399422972
 21
-119.745751634
  0
LINE
  8
KCM-4D-65C_8_
  6
BYLAYER
 10
64.4399422972
 20
-119.745751634
 11
46.7399422972
 21
-119.745751634
  0
LINE
  8
KCM-4D-65C_8_
  6
BYLAYER
 10
64.4399422972
 20
-119.045751634
 11
64.7399422972
 21
-118.745751634
  0
LINE
  8
KCM-4D-65C_8_
  6
BYLAYER
 10
87.8399422972
 20
-135.745751634
 11
116.4399422972
 21
-135.745751634
  0
LINE
  8
KCM-4D-65C_8_
  6
BYLAYER
 10
80.4399422972
 20
-136.445751634
 11
80.1399422972
 21
-136.745751634
  0
LINE
  8
KCM-4D-65C_8_
  6
BYLAYER
 10
80.4399422972
 20
-135.745751634
 11
105.2399422972
 21
-135.745751634
  0
LINE
  8
KCM-4D-65C_8_
  6
BYLAYER
 10
122.9399422972
 20
-139.995751634
 11
126.7899422972
 21
-139.995751634
  0
LINE
  8
KCM-4D-65C_8_
  6
BYLAYER
 10
126.3399422972
 20
-140.445751634
 11
123.9399422972
 21
-140.445751634
  0
LINE
  8
KCM-4D-65C_8_
  6
BYLAYER
 10
126.3399422972
 20
-140.445751634
 11
126.9399422972
 21
-139.845751634
  0
LINE
  8
KCM-4D-65C_8_
  6
BYLAYER
 10
122.6399422972
 20
-143.245751634
 11
116.9399422972
 21
-143.245751634
  0
LINE
  8
KCM-4D-65C_8_
  6
BYLAYER
 10
122.9399422972
 20
-142.945751634
 11
122.6399422972
 21
-143.245751634
  0
LINE
  8
KCM-4D-65C_8_
  6
BYLAYER
 10
116.9399422972
 20
-143.245751634
 11
116.4399422972
 21
-142.745751634
  0
LINE
  8
KCM-4D-65C_8_
  6
BYLAYER
 10
87.8399422972
 20
-119.745751634
 11
116.4399422972
 21
-119.745751634
  0
LINE
  8
KCM-4D-65C_8_
  6
BYLAYER
 10
80.4399422972
 20
-119.745751634
 11
105.2399422972
 21
-119.745751634
  0
LINE
  8
KCM-4D-65C_8_
  6
BYLAYER
 10
80.4399422972
 20
-119.045751634
 11
80.1399422972
 21
-118.745751634
  0
LINE
  8
KCM-4D-65C_8_
  6
BYLAYER
 10
126.3399422972
 20
-115.045751634
 11
126.9399422972
 21
-115.645751634
  0
LINE
  8
KCM-4D-65C_8_
  6
BYLAYER
 10
126.3399422972
 20
-115.045751634
 11
123.9399422972
 21
-115.045751634
  0
LINE
  8
KCM-4D-65C_8_
  6
BYLAYER
 10
122.9399422972
 20
-115.495751634
 11
126.7899422972
 21
-115.495751634
  0
LINE
  8
KCM-4D-65C_8_
  6
BYLAYER
 10
116.9399422972
 20
-112.245751634
 11
116.4399422972
 21
-112.745751634
  0
LINE
  8
KCM-4D-65C_8_
  6
BYLAYER
 10
122.9399422972
 20
-112.545751634
 11
122.6399422972
 21
-112.245751634
  0
LINE
  8
KCM-4D-65C_8_
  6
BYLAYER
 10
122.6399422972
 20
-112.245751634
 11
116.9399422972
 21
-112.245751634
  0
LINE
  8
KCM-4D-65C_8_
  6
CENTERX2
 10
39.8407118383
 20
-127.745751634
 11
135.547042583
 21
-127.745751634
  0
LINE
  8
KCM-4D-65C_8_
  6
BYLAYER
 10
80.1399422972
 20
-136.745751634
 11
64.7399422972
 21
-136.745751634
  0
LINE
  8
KCM-4D-65C_8_
  6
BYLAYER
 10
80.1399422972
 20
-118.745751634
 11
64.7399422972
 21
-118.745751634
  0
LINE
  8
KCM-4D-65C_8_
  6
CENTERX2
 10
72.4399422972
 20
-138.745751634
 11
72.4399422972
 21
-116.745751634
  0
LINE
  8
KCM-4D-65C_8_
  6
BYLAYER
 10
46.4399422972
 20
-135.445751634
 11
46.4399422972
 21
-120.045751634
  0
LINE
  8
KCM-4D-65C_8_
  6
BYLAYER
 10
46.7399422972
 20
-135.745751634
 11
46.7399422972
 21
-119.745751634
  0
LINE
  8
KCM-4D-65C_8_
  6
BYLAYER
 10
64.4399422972
 20
-119.045751634
 11
64.4399422972
 21
-136.445751634
  0
ENDBLK
  0
BLOCK
  8
0
  2
CLUMP20_7
 70
    0
 10
0
 20
0
 30
0.0
  3
CLUMP20_7
  1

  0
LINE
  8
シリズム
  6
BYLAYER
 62
5
 10
180.2399422972
 20
77.254248366
 11
190.2399422972
 21
77.254248366
  0
LINE
  8
シリズム
  6
BYLAYER
 62
5
 10
190.2399422972
 20
77.254248366
 11
190.2399422972
 21
67.254248366
  0
LINE
  8
シリズム
  6
BYLAYER
 62
5
 10
190.2399422972
 20
67.254248366
 11
180.2399422972
 21
67.254248366
  0
LINE
  8
シリズム
  6
BYLAYER
 62
5
 10
180.2399422972
 20
67.254248366
 11
180.2399422972
 21
77.254248366
  0
LINE
  8
シリズム
  6
BYLAYER
 62
5
 10
180.2399422972
 20
76.3328944744
 11
181.1612961888
 21
77.254248366
  0
LINE
  8
シリズム
  6
BYLAYER
 62
5
 10
180.2399422972
 20
74.2115741309
 11
183.2826165324
 21
77.254248366
  0
LINE
  8
シリズム
  6
BYLAYER
 62
5
 10
180.2399422972
 20
72.0902537873
 11
185.4039368759
 21
77.254248366
  0
LINE
  8
シリズム
  6
BYLAYER
 62
5
 10
180.2399422972
 20
69.9689334438
 11
187.5252572195
 21
77.254248366
  0
LINE
  8
シリズム
  6
BYLAYER
 62
5
 10
180.2399422972
 20
67.8476131002
 11
189.6465775631
 21
77.254248366
  0
LINE
  8
シリズム
  6
BYLAYER
 62
5
 10
181.7678979066
 20
67.254248366
 11
190.2399422972
 21
75.7262927566
  0
LINE
  8
シリズム
  6
BYLAYER
 62
5
 10
183.8892182502
 20
67.254248366
 11
190.2399422972
 21
73.6049724131
  0
LINE
  8
シリズム
  6
BYLAYER
 62
5
 10
186.0105385937
 20
67.254248366
 11
190.2399422972
 21
71.4836520695
  0
LINE
  8
シリズム
  6
BYLAYER
 62
5
 10
188.1318589373
 20
67.254248366
 11
190.2399422972
 21
69.362331726
  0
ENDBLK
  0
BLOCK
  8
0
  2
CLUMP17
 70
    0
 10
0
 20
0
 30
0.0
  3
CLUMP17
  1

  0
LINE
  8
CSCX30BC3
  6
BYLAYER
 10
122.9399422972
 20
-142.245751634
 11
169.1399422972
 21
-142.245751634
  0
LINE
  8
CSCX30BC3
  6
BYLAYER
 10
169.1399422972
 20
-113.245751634
 11
122.9399422972
 21
-113.245751634
  0
LINE
  8
CSCX30BC3
  6
CENTERX2
 10
122.9399422972
 20
-127.745751634
 11
169.1399422972
 21
-127.745751634
  0
LINE
  8
CSCX30BC3
  6
BYLAYER
 10
162.4399422972
 20
-142.245751634
 11
162.4399422972
 21
-113.245751634
  0
LINE
  8
CSCX30BC3
  6
BYLAYER
 10
122.9399422972
 20
-113.245751634
 11
122.9399422972
 21
-142.245751634
  0
LINE
  8
CSCX30BC3
  6
BYLAYER
 10
135.9399422972
 20
-113.245751634
 11
135.9399422972
 21
-142.245751634
  0
LINE
  8
CSCX30BC3
  6
BYLAYER
 10
169.1399422972
 20
-142.245751634
 11
169.1399422972
 21
-113.245751634
  0
ENDBLK
  0
BLOCK
  8
0
  2
_OPEN30
 70
    0
 10
0
 20
0
 30
0.0
  3
_OPEN30
  1

  0
LINE
  8
0
  6
BYBLOCK
 62
0
 10
-1
 20
0.267949
 11
0
 21
0
  0
LINE
  8
0
  6
BYBLOCK
 62
0
 10
0
 20
0
 11
-1
 21
-0.267949
  0
LINE
  8
0
  6
BYBLOCK
 62
0
 10
0
 20
0
 11
-1
 21
0
  0
ENDBLK
  0
BLOCK
  8
0
  2
SW_NOTE_0
 70
    0
 10
0
 20
0
 30
0.0
  3
SW_NOTE_0
  1

  0
TEXT
  8
0
 62
0
  6
BYLAYER
 62
0
 10
-1.29604172448243E-16
 20
0.3463636363
 40
2.1166666667
  1
1
  7
Font_0
 11
0
 21
2.463030303
 73
3
  0
TEXT
  8
0
 62
0
  6
BYLAYER
 62
0
 10
1.4111110941
 20
0.3463636363
 40
2.1166666667
  1
.6
  7
Font_0
 11
1.4111110941
 21
2.463030303
 73
3
  0
ENDBLK
  0
BLOCK
  8
0
  2
SW_CENTERMARKSYMBOL_0
 70
    0
 10
0
 20
0
 30
0.0
  3
SW_CENTERMARKSYMBOL_0
  1

  0
LINE
  8
0
  6
CONTINUOUS
 62
0
 10
0
 20
0
 11
0
 21
2.5
  0
LINE
  8
0
  6
CONTINUOUS
 62
0
 10
0
 20
0
 11
-2.5
 21
0
  0
LINE
  8
0
  6
CONTINUOUS
 62
0
 10
0
 20
0
 11
0
 21
-2.5
  0
LINE
  8
0
  6
CONTINUOUS
 62
0
 10
0
 20
0
 11
2.5
 21
0
  0
LINE
  8
0
  6
CONTINUOUS
 62
0
 10
0
 20
5
 11
0
 21
18.25
  0
LINE
  8
0
  6
CONTINUOUS
 62
0
 10
-5
 20
0
 11
-27.766622885
 21
0
  0
LINE
  8
0
  6
CONTINUOUS
 62
0
 10
0
 20
-5
 11
0
 21
-18.25
  0
LINE
  8
0
  6
CONTINUOUS
 62
0
 10
5
 20
0
 11
27.0232094568
 21
0
  0
ENDBLK
  0
BLOCK
  8
0
  2
SW_NOTE_3
 70
    0
 10
0
 20
0
 30
0.0
  3
SW_NOTE_3
  1

  0
TEXT
  8
0
 62
0
  6
BYLAYER
 62
0
 10
-1.83690953073357E-16
 20
0.4909090909
 40
3
  1
一般
  7
Font_0
 11
0
 21
3.4909090909
 73
3
  0
TEXT
  8
0
 62
0
  6
BYLAYER
 62
0
 10
-1.83690953073357E-16
 20
-3.2090909102
 40
3
  1
公差
  7
Font_0
 11
0
 21
-0.2090909102
 73
3
  0
ENDBLK
  0
BLOCK
  8
0
  2
SW_NOTE_4
 70
    0
 10
0
 20
0
 30
0.0
  3
SW_NOTE_4
  1

  0
LINE
  8
0
  6
CONTINUOUS
 62
0
 10
0
 20
0
 11
0
 21
-4.498808587
  0
LINE
  8
0
  6
CONTINUOUS
 62
0
 10
0
 20
-4.498808587
 11
4.0707905215
 21
-4.498808587
  0
LINE
  8
0
  6
CONTINUOUS
 62
0
 10
4.0707905215
 20
-4.498808587
 11
4.0707905215
 21
0
  0
LINE
  8
0
  6
CONTINUOUS
 62
0
 10
4.0707905215
 20
0
 11
0
 21
0
  0
LINE
  8
0
  6
CONTINUOUS
 62
0
 10
0
 20
0
 11
4.0707905215
 21
-4.498808587
  0
LINE
  8
0
  6
CONTINUOUS
 62
0
 10
0
 20
-4.498808587
 11
4.0707905215
 21
0
  0
ENDBLK
  0
BLOCK
  8
0
  2
SW_NOTE_5
 70
    0
 10
0
 20
0
 30
0.0
  3
SW_NOTE_5
  1

  0
TEXT
  8
0
 62
0
  6
BYLAYER
 62
0
 10
-1.29604172448243E-16
 20
0.3463636363
 40
2.1166666667
  1
1
  7
Font_0
 11
0
 21
2.463030303
 73
3
  0
TEXT
  8
0
 62
0
  6
BYLAYER
 62
0
 10
1.4111110941
 20
0.3463636363
 40
2.1166666667
  1
.6
  7
Font_0
 11
1.4111110941
 21
2.463030303
 73
3
  0
ENDBLK
  0
BLOCK
  8
0
  2
A$C680C0862
 70
    0
 10
0
 20
0
 30
0.0
  3
A$C680C0862
  1

  0
LINE
  8
$DDT_AUDIT_GENERATED__327_
  6
BYLAYER
 62
4
 10
310.00000167003
 20
168.999998793287
 11
1.6700296328E-6
 21
168.999998793286
  0
LINE
  8
$DDT_AUDIT_GENERATED__327_
  6
HIDDEN
 62
4
 10
310.00000167003
 20
166.999998793287
 11
1.6700296328E-6
 21
166.999998793286
  0
LINE
  8
$DDT_AUDIT_GENERATED__327_
  6
BYLAYER
 62
4
 10
306.00000167003
 20
-1.2067134776E-6
 11
4.00000167002963
 21
-1.2067134776E-6
  0
LINE
  8
$DDT_AUDIT_GENERATED__327_
  6
BYLAYER
 62
4
 10
310.00000167003
 20
3.99999879328652
 11
310.00000167003
 21
168.999998793286
  0
ARC
  8
$DDT_AUDIT_GENERATED__327_
  6
BYLAYER
 62
4
 10
306.00000167003
 20
3.99999879328652
 40
4
 50
270
 51
0
  0
LINE
  8
$DDT_AUDIT_GENERATED__327_
  6
BYLAYER
 62
4
 10
1.6700296328E-6
 20
3.99999879328652
 11
1.6700296328E-6
 21
168.999998793286
  0
ARC
  8
$DDT_AUDIT_GENERATED__327_
  6
BYLAYER
 62
4
 10
4.00000167002963
 20
3.99999879328652
 40
4
 50
180
 51
270
  0
CIRCLE
  8
0
  6
BYLAYER
 10
64.5000016700296
 20
10.9999987932865
 40
1.75
  0
CIRCLE
  8
0
  6
BYLAYER
 10
245.50000167003
 20
10.9999987932865
 40
1.75
  0
CIRCLE
  8
0
  6
BYLAYER
 10
11.0000016700296
 20
36.9999987932865
 40
1.75
  0
CIRCLE
  8
0
  6
BYLAYER
 10
299.00000167003
 20
36.9999987932865
 40
1.75
  0
CIRCLE
  8
0
  6
BYLAYER
 10
299.00000167003
 20
136.999998793286
 40
1.75
  0
CIRCLE
  8
0
  6
BYLAYER
 10
11.0000016700296
 20
136.999998793286
 40
1.75
  0
LINE
  8
$DDT_AUDIT_GENERATED__327_
  6
BYLAYER
 62
4
 10
62.5000016700296
 20
158.999998793286
 11
77.5000016700296
 21
158.999998793286
  0
LINE
  8
$DDT_AUDIT_GENERATED__327_
  6
BYLAYER
 62
4
 10
62.5000016700296
 20
153.999998793286
 11
77.5000016700296
 21
153.999998793286
  0
ARC
  8
0
  6
BYLAYER
 10
62.5000016700296
 20
156.499998793286
 40
2.5
 50
90
 51
270
  0
ARC
  8
0
  6
BYLAYER
 10
77.5000016700296
 20
156.499998793286
 40
2.5
 50
270
 51
90
  0
LINE
  8
$DDT_AUDIT_GENERATED__327_
  6
BYLAYER
 62
4
 10
62.5000016700296
 20
151.499998793286
 11
77.5000016700296
 21
151.499998793286
  0
LINE
  8
$DDT_AUDIT_GENERATED__327_
  6
BYLAYER
 62
4
 10
62.5000016700296
 20
146.499998793286
 11
77.5000016700296
 21
146.499998793286
  0
ARC
  8
0
  6
BYLAYER
 10
62.5000016700296
 20
148.999998793286
 40
2.5
 50
90
 51
270
  0
ARC
  8
0
  6
BYLAYER
 10
77.5000016700296
 20
148.999998793286
 40
2.5
 50
270
 51
90
  0
ENDBLK
  0
ENDSEC
  0
SECTION
  2
ENTITIES
  0
LINE
  8
0
  6
CONTINUOUS
 62
7
 10
802.188273923942
 20
29.8563054358948
 11
36.2913488155938
 21
29.8563054358948
  0
LINE
  8
0
  6
CONTINUOUS
 62
7
 10
36.2913488155938
 20
29.8563054358948
 11
36.2913488155938
 21
550.856305435895
  0
LINE
  8
0
  6
CONTINUOUS
 62
7
 10
802.291348815594
 20
550.856305435895
 11
36.2913488155938
 21
550.856305435895
  0
LINE
  8
0
  6
CONTINUOUS
 62
7
 10
802.291348815594
 20
29.8684499348331
 11
802.291348815594
 21
550.856305435895
  0
TEXT
  8
0
 62
7
  6
BYLAYER
 62
7
 10
790.612686344594
 20
20.5371716322948
 40
7
  1
A3
  7
Font_0
 11
790.612686344594
 21
27.5371716322948
 73
3
  0
TEXT
  8
0
 62
7
  6
BYLAYER
 62
7
 10
735.409274144994
 20
20.1195035776948
 40
7
  1
〔ｍｍ〕
  7
Font_0
 11
735.409274144994
 21
27.1195035776948
 73
3
  0
TEXT
  8
0
 62
7
  6
BYLAYER
 62
7
 10
763.610367450594
 20
20.1195035776948
 40
7
  1
三角法
  7
Font_0
 11
763.610367450594
 21
27.1195035776948
 73
3
  0
LINE
  8
0
  6
CONTINUOUS
 62
7
 10
589.587742364342
 20
47.6494120712948
 11
586.587742364342
 21
42.8521906942948
  0
LINE
  8
0
  6
CONTINUOUS
 62
7
 10
583.587742364342
 20
47.6494120712948
 11
586.587742364342
 21
42.8521906942948
  0
LINE
  8
0
  6
CONTINUOUS
 62
7
 10
563.986333051342
 20
47.6494120712948
 11
560.986333051342
 21
42.8521906942948
  0
LINE
  8
0
  6
CONTINUOUS
 62
7
 10
557.986333051342
 20
47.6494120712948
 11
560.986333051342
 21
42.8521906942948
  0
LINE
  8
0
  6
CONTINUOUS
 62
7
 10
539.258319365542
 20
46.9443020158948
 11
536.258319365542
 21
42.2264661668949
  0
LINE
  8
0
  6
CONTINUOUS
 62
7
 10
533.258319365542
 20
46.9443020158948
 11
536.258319365542
 21
42.2264661668949
  0
LINE
  8
0
  6
CONTINUOUS
 62
7
 10
614.542900978742
 20
48.5788895428948
 11
611.542900978742
 21
43.3827371200948
  0
LINE
  8
0
  6
CONTINUOUS
 62
7
 10
527.258319365542
 20
37.0450568676948
 11
533.258319365542
 21
37.0450568676948
  0
LINE
  8
0
  6
CONTINUOUS
 62
7
 10
533.258319365542
 20
37.0450568676948
 11
530.258319365542
 21
31.8489044450948
  0
LINE
  8
0
  6
CONTINUOUS
 62
7
 10
527.258319365542
 20
37.0450568676948
 11
530.258319365542
 21
31.8489044450948
  0
LINE
  8
0
  6
CENTER
 62
7
 10
533.258319365542
 20
37.0450568676948
 11
539.258319365542
 21
37.0450568676948
  0
LINE
  8
0
  6
CONTINUOUS
 62
7
 10
760.854940590542
 20
44.3563054358948
 11
753.188273923942
 21
44.3563054358948
  0
LINE
  8
0
  6
CONTINUOUS
 62
7
 10
760.854940590542
 20
29.8563054358948
 11
742.854940590542
 21
29.8563054358948
  0
LINE
  8
0
  6
CONTINUOUS
 62
7
 10
760.854940590542
 20
29.8563054358948
 11
760.854940590542
 21
44.3563054358948
  0
LINE
  8
0
  6
CONTINUOUS
 62
7
 10
742.854940590542
 20
44.3563054358948
 11
733.188273923942
 21
44.3563054358948
  0
LINE
  8
0
  6
CONTINUOUS
 62
7
 10
742.854940590542
 20
29.8563054358948
 11
701.521607257342
 21
29.8563054358948
  0
LINE
  8
0
  6
CONTINUOUS
 62
7
 10
742.854940590542
 20
29.8563054358948
 11
742.854940590542
 21
44.3563054358948
  0
LINE
  8
0
  6
CONTINUOUS
 62
7
 10
701.521607257342
 20
44.3563054358948
 11
710.188273923942
 21
44.3563054358948
  0
LINE
  8
0
  6
CONTINUOUS
 62
7
 10
701.521607257342
 20
29.8563054358948
 11
683.521607257342
 21
29.8563054358948
  0
LINE
  8
0
  6
CONTINUOUS
 62
7
 10
701.521607257342
 20
29.8563054358948
 11
701.521607257342
 21
44.3563054358948
  0
LINE
  8
0
  6
CONTINUOUS
 62
7
 10
683.521607257342
 20
29.8563054358948
 11
642.188273923942
 21
29.8563054358948
  0
LINE
  8
0
  6
CONTINUOUS
 62
7
 10
683.521607257342
 20
44.3563054358948
 11
690.188273923942
 21
44.3563054358948
  0
LINE
  8
0
  6
CONTINUOUS
 62
7
 10
683.521607257342
 20
44.3563054358948
 11
683.521607257342
 21
29.8563054358948
  0
LINE
  8
0
  6
CONTINUOUS
 62
7
 10
642.188273923942
 20
29.8563054358948
 11
624.188273923942
 21
29.8563054358948
  0
LINE
  8
0
  6
CONTINUOUS
 62
7
 10
642.188273923942
 20
44.3563054358948
 11
647.188273923942
 21
44.3563054358948
  0
LINE
  8
0
  6
CONTINUOUS
 62
7
 10
642.188273923942
 20
44.3563054358948
 11
642.188273923942
 21
29.8563054358948
  0
LINE
  8
0
  6
CONTINUOUS
 62
7
 10
774.188273923942
 20
44.3563054358948
 11
760.854940590542
 21
44.3563054358948
  0
LINE
  8
0
  6
CONTINUOUS
 62
7
 10
774.188273923942
 20
58.8563054358948
 11
758.188273923942
 21
58.8563054358948
  0
LINE
  8
0
  6
CONTINUOUS
 62
7
 10
774.188273923942
 20
58.8563054358948
 11
774.188273923942
 21
44.3563054358948
  0
LINE
  8
0
  6
CONTINUOUS
 62
7
 10
753.188273923942
 20
44.3563054358948
 11
742.854940590542
 21
44.3563054358948
  0
LINE
  8
0
  6
CONTINUOUS
 62
7
 10
753.188273923942
 20
58.8563054358948
 11
758.188273923942
 21
58.8563054358948
  0
LINE
  8
0
  6
CONTINUOUS
 62
7
 10
753.188273923942
 20
58.8563054358948
 11
753.188273923942
 21
44.3563054358948
  0
LINE
  8
0
  6
CONTINUOUS
 62
7
 10
733.188273923942
 20
58.8563054358948
 11
753.188273923942
 21
58.8563054358948
  0
LINE
  8
0
  6
CONTINUOUS
 62
7
 10
733.188273923942
 20
58.8563054358948
 11
733.188273923942
 21
44.3563054358948
  0
LINE
  8
0
  6
CONTINUOUS
 62
7
 10
710.188273923942
 20
44.3563054358948
 11
733.188273923942
 21
44.3563054358948
  0
LINE
  8
0
  6
CONTINUOUS
 62
7
 10
710.188273923942
 20
58.8563054358948
 11
733.188273923942
 21
58.8563054358948
  0
LINE
  8
0
  6
CONTINUOUS
 62
7
 10
710.188273923942
 20
58.8563054358948
 11
710.188273923942
 21
44.3563054358948
  0
LINE
  8
0
  6
CONTINUOUS
 62
7
 10
690.188273923942
 20
44.3563054358948
 11
701.521607257342
 21
44.3563054358948
  0
LINE
  8
0
  6
CONTINUOUS
 62
7
 10
690.188273923942
 20
58.8563054358948
 11
710.188273923942
 21
58.8563054358948
  0
LINE
  8
0
  6
CONTINUOUS
 62
7
 10
690.188273923942
 20
58.8563054358948
 11
690.188273923942
 21
44.3563054358948
  0
LINE
  8
0
  6
CONTINUOUS
 62
7
 10
667.188273923942
 20
44.3563054358948
 11
683.521607257342
 21
44.3563054358948
  0
LINE
  8
0
  6
CONTINUOUS
 62
7
 10
667.188273923942
 20
58.8563054358948
 11
690.188273923942
 21
58.8563054358948
  0
LINE
  8
0
  6
CONTINUOUS
 62
7
 10
667.188273923942
 20
58.8563054358948
 11
667.188273923942
 21
44.3563054358948
  0
LINE
  8
0
  6
CONTINUOUS
 62
7
 10
647.188273923942
 20
44.3563054358948
 11
667.188273923942
 21
44.3563054358948
  0
LINE
  8
0
  6
CONTINUOUS
 62
7
 10
647.188273923942
 20
58.8563054358948
 11
667.188273923942
 21
58.8563054358948
  0
LINE
  8
0
  6
CONTINUOUS
 62
7
 10
647.188273923942
 20
58.8563054358948
 11
647.188273923942
 21
44.3563054358948
  0
LINE
  8
0
  6
CONTINUOUS
 62
7
 10
727.388273923942
 20
58.8563054358948
 11
727.388273923942
 21
98.4563054358948
  0
LINE
  8
0
  6
CONTINUOUS
 62
7
 10
802.188273923942
 20
29.8563054358948
 11
802.188273923942
 21
44.3563054358948
  0
LINE
  8
0
  6
CONTINUOUS
 62
7
 10
316.188273923942
 20
119.856305435895
 11
336.188273923942
 21
119.856305435895
  0
LINE
  8
0
  6
CONTINUOUS
 62
7
 10
316.188273923942
 20
119.856305435895
 11
316.188273923942
 21
104.856305435895
  0
LINE
  8
0
  6
CONTINUOUS
 62
7
 10
524.188273923942
 20
119.856305435895
 11
524.188273923942
 21
111.856305435895
  0
LINE
  8
0
  6
CONTINUOUS
 62
7
 10
524.188273923942
 20
29.8563054358948
 11
549.188273923942
 21
29.8563054358948
  0
LINE
  8
0
  6
CONTINUOUS
 62
7
 10
524.188273923942
 20
44.8563054358948
 11
460.135381705542
 21
44.8563054358948
  0
LINE
  8
0
  6
CONTINUOUS
 62
7
 10
524.188273923942
 20
44.8563054358948
 11
524.188273923942
 21
29.8563054358948
  0
LINE
  8
0
  6
CONTINUOUS
 62
7
 10
316.188273923942
 20
44.8563054358948
 11
316.188273923942
 21
29.8563054358948
  0
LINE
  8
0
  6
CONTINUOUS
 62
7
 10
524.188273923942
 20
119.856305435895
 11
624.188273923942
 21
119.856305435895
  0
LINE
  8
0
  6
CONTINUOUS
 62
7
 10
624.188273923942
 20
119.856305435895
 11
624.188273923942
 21
111.856305435895
  0
LINE
  8
0
  6
CONTINUOUS
 62
7
 10
624.188273923942
 20
119.856305435895
 11
802.188273923942
 21
119.856305435895
  0
LINE
  8
0
  6
CONTINUOUS
 62
7
 10
485.921548752142
 20
119.856305435895
 11
485.921548752142
 21
44.8563054358948
  0
LINE
  8
0
  6
CONTINUOUS
 62
7
 10
497.702088085342
 20
119.856305435895
 11
524.188273923942
 21
119.856305435895
  0
LINE
  8
0
  6
CONTINUOUS
 62
7
 10
376.188273923942
 20
119.856305435895
 11
376.188273923942
 21
44.8563054358948
  0
LINE
  8
0
  6
CONTINUOUS
 62
7
 10
376.188273923942
 20
119.856305435895
 11
497.702088085342
 21
119.856305435895
  0
LINE
  8
0
  6
CONTINUOUS
 62
7
 10
524.188273923942
 20
111.856305435895
 11
563.188273923942
 21
111.856305435895
  0
LINE
  8
0
  6
CONTINUOUS
 62
7
 10
524.188273923942
 20
111.856305435895
 11
524.188273923942
 21
104.856305435895
  0
LINE
  8
0
  6
CONTINUOUS
 62
7
 10
624.188273923942
 20
111.856305435895
 11
624.188273923942
 21
103.856305435895
  0
LINE
  8
0
  6
CONTINUOUS
 62
7
 10
524.188273923942
 20
63.8563054358948
 11
563.188273923942
 21
63.8563054358948
  0
LINE
  8
0
  6
CONTINUOUS
 62
7
 10
524.188273923942
 20
63.8563054358948
 11
524.188273923942
 21
59.8563054358948
  0
LINE
  8
0
  6
CONTINUOUS
 62
7
 10
624.188273923942
 20
63.8563054358948
 11
624.188273923942
 21
58.8563054358948
  0
LINE
  8
0
  6
CONTINUOUS
 62
7
 10
524.188273923942
 20
54.8563054358948
 11
549.188273923942
 21
54.8563054358948
  0
LINE
  8
0
  6
CONTINUOUS
 62
7
 10
524.188273923942
 20
54.8563054358948
 11
524.188273923942
 21
45.8563054358948
  0
LINE
  8
0
  6
CONTINUOUS
 62
7
 10
624.188273923942
 20
54.8563054358948
 11
624.188273923942
 21
45.8563054358948
  0
LINE
  8
0
  6
CONTINUOUS
 62
7
 10
802.188273923942
 20
98.4563054358948
 11
802.188273923942
 21
119.856305435895
  0
LINE
  8
0
  6
CONTINUOUS
 62
7
 10
624.188273923942
 20
98.4563054358948
 11
624.188273923942
 21
95.8563054358948
  0
LINE
  8
0
  6
CONTINUOUS
 62
7
 10
524.188273923942
 20
40.9428606312948
 11
624.188273923942
 21
40.9428606312948
  0
LINE
  8
0
  6
CONTINUOUS
 62
7
 10
524.188273923942
 20
45.8563054358948
 11
524.188273923942
 21
44.8563054358948
  0
LINE
  8
0
  6
CONTINUOUS
 62
7
 10
624.188273923942
 20
45.8563054358948
 11
624.188273923942
 21
44.3563054358948
  0
LINE
  8
0
  6
CONTINUOUS
 62
7
 10
802.188273923942
 20
58.8563054358948
 11
802.188273923942
 21
78.6563054358947
  0
LINE
  8
0
  6
CONTINUOUS
 62
7
 10
624.188273923942
 20
58.8563054358948
 11
624.188273923942
 21
54.8563054358948
  0
LINE
  8
0
  6
CONTINUOUS
 62
7
 10
549.188273923942
 20
54.8563054358948
 11
549.188273923942
 21
29.8563054358948
  0
LINE
  8
0
  6
CONTINUOUS
 62
7
 10
549.188273923942
 20
54.8563054358948
 11
574.188273923942
 21
54.8563054358948
  0
LINE
  8
0
  6
CONTINUOUS
 62
7
 10
549.188273923942
 20
29.8563054358948
 11
574.188273923942
 21
29.8563054358948
  0
LINE
  8
0
  6
CONTINUOUS
 62
7
 10
574.188273923942
 20
29.8563054358948
 11
574.188273923942
 21
54.8563054358948
  0
LINE
  8
0
  6
CONTINUOUS
 62
7
 10
574.188273923942
 20
29.8563054358948
 11
599.188273923942
 21
29.8563054358948
  0
LINE
  8
0
  6
CONTINUOUS
 62
7
 10
574.188273923942
 20
54.8563054358948
 11
599.188273923942
 21
54.8563054358948
  0
LINE
  8
0
  6
CONTINUOUS
 62
7
 10
599.188273923942
 20
54.8563054358948
 11
599.188273923942
 21
29.8563054358948
  0
LINE
  8
0
  6
CONTINUOUS
 62
7
 10
599.188273923942
 20
54.8563054358948
 11
624.188273923942
 21
54.8563054358948
  0
LINE
  8
0
  6
CONTINUOUS
 62
7
 10
599.188273923942
 20
29.8563054358948
 11
624.188273923942
 21
29.8563054358948
  0
LINE
  8
0
  6
CONTINUOUS
 62
7
 10
802.188273923942
 20
44.3563054358948
 11
802.188273923942
 21
58.8563054358948
  0
LINE
  8
0
  6
CONTINUOUS
 62
7
 10
624.188273923942
 20
44.3563054358948
 11
624.188273923942
 21
29.8563054358948
  0
LINE
  8
0
  6
CONTINUOUS
 62
7
 10
624.188273923942
 20
78.6563054358947
 11
802.188273923942
 21
78.6563054358947
  0
LINE
  8
0
  6
CONTINUOUS
 62
7
 10
624.188273923942
 20
78.6563054358947
 11
624.188273923942
 21
71.8563054358948
  0
LINE
  8
0
  6
CONTINUOUS
 62
7
 10
802.188273923942
 20
78.6563054358947
 11
802.188273923942
 21
98.4563054358948
  0
LINE
  8
0
  6
CONTINUOUS
 62
7
 10
802.188273923942
 20
98.4563054358948
 11
758.188273923942
 21
98.4563054358948
  0
LINE
  8
0
  6
CONTINUOUS
 62
7
 10
802.188273923942
 20
58.8563054358948
 11
774.188273923942
 21
58.8563054358948
  0
LINE
  8
0
  6
CONTINUOUS
 62
7
 10
802.188273923942
 20
44.3563054358948
 11
774.188273923942
 21
44.3563054358948
  0
LINE
  8
0
  6
CONTINUOUS
 62
7
 10
802.188273923942
 20
29.8563054358948
 11
760.854940590542
 21
29.8563054358948
  0
LINE
  8
0
  6
CONTINUOUS
 62
7
 10
655.188273923942
 20
98.4563054358948
 11
655.188273923942
 21
58.8563054358948
  0
LINE
  8
0
  6
CONTINUOUS
 62
7
 10
655.188273923942
 20
98.4563054358948
 11
624.188273923942
 21
98.4563054358948
  0
LINE
  8
0
  6
CONTINUOUS
 62
7
 10
624.188273923942
 20
58.8563054358948
 11
647.188273923942
 21
58.8563054358948
  0
LINE
  8
0
  6
CONTINUOUS
 62
7
 10
624.188273923942
 20
44.3563054358948
 11
642.188273923942
 21
44.3563054358948
  0
LINE
  8
0
  6
CONTINUOUS
 62
7
 10
727.388273923942
 20
98.4563054358948
 11
655.188273923942
 21
98.4563054358948
  0
LINE
  8
0
  6
CONTINUOUS
 62
7
 10
758.188273923942
 20
98.4563054358948
 11
758.188273923942
 21
58.8563054358948
  0
LINE
  8
0
  6
CONTINUOUS
 62
7
 10
758.188273923942
 20
98.4563054358948
 11
727.388273923942
 21
98.4563054358948
  0
LINE
  8
0
  6
CONTINUOUS
 62
7
 10
563.188273923942
 20
111.856305435895
 11
563.188273923942
 21
63.8563054358948
  0
LINE
  8
0
  6
CONTINUOUS
 62
7
 10
563.188273923942
 20
111.856305435895
 11
583.521607257342
 21
111.856305435895
  0
LINE
  8
0
  6
CONTINUOUS
 62
7
 10
563.188273923942
 20
63.8563054358948
 11
583.521607257342
 21
63.8563054358948
  0
LINE
  8
0
  6
CONTINUOUS
 62
7
 10
583.521607257342
 20
63.8563054358948
 11
583.521607257342
 21
111.856305435895
  0
LINE
  8
0
  6
CONTINUOUS
 62
7
 10
583.521607257342
 20
63.8563054358948
 11
603.854940590542
 21
63.8563054358948
  0
LINE
  8
0
  6
CONTINUOUS
 62
7
 10
583.521607257342
 20
111.856305435895
 11
603.854940590542
 21
111.856305435895
  0
LINE
  8
0
  6
CONTINUOUS
 62
7
 10
603.854940590542
 20
111.856305435895
 11
603.854940590542
 21
63.8563054358948
  0
LINE
  8
0
  6
CONTINUOUS
 62
7
 10
603.854940590542
 20
111.856305435895
 11
624.188273923942
 21
111.856305435895
  0
LINE
  8
0
  6
CONTINUOUS
 62
7
 10
603.854940590542
 20
63.8563054358948
 11
624.188273923942
 21
63.8563054358948
  0
LINE
  8
0
  6
CONTINUOUS
 62
7
 10
336.188273923942
 20
119.856305435895
 11
336.188273923942
 21
44.8563054358948
  0
LINE
  8
0
  6
CONTINUOUS
 62
7
 10
336.188273923942
 20
119.856305435895
 11
376.188273923942
 21
119.856305435895
  0
LINE
  8
0
  6
CONTINUOUS
 62
7
 10
316.188273923942
 20
29.8563054358948
 11
342.088960031342
 21
29.8563054358948
  0
LINE
  8
0
  6
CONTINUOUS
 62
7
 10
316.188273923942
 20
104.856305435895
 11
524.188273923942
 21
104.856305435895
  0
LINE
  8
0
  6
CONTINUOUS
 62
7
 10
316.188273923942
 20
104.856305435895
 11
316.188273923942
 21
89.8563054358948
  0
LINE
  8
0
  6
CONTINUOUS
 62
7
 10
524.188273923942
 20
104.856305435895
 11
524.188273923942
 21
103.856305435895
  0
LINE
  8
0
  6
CONTINUOUS
 62
7
 10
524.188273923942
 20
89.8563054358948
 11
316.188273923942
 21
89.8563054358948
  0
LINE
  8
0
  6
CONTINUOUS
 62
7
 10
524.188273923942
 20
89.8563054358948
 11
524.188273923942
 21
87.8563054358948
  0
LINE
  8
0
  6
CONTINUOUS
 62
7
 10
316.188273923942
 20
89.8563054358948
 11
316.188273923942
 21
74.8563054358948
  0
LINE
  8
0
  6
CONTINUOUS
 62
7
 10
316.188273923942
 20
74.8563054358948
 11
524.188273923942
 21
74.8563054358948
  0
LINE
  8
0
  6
CONTINUOUS
 62
7
 10
316.188273923942
 20
74.8563054358948
 11
316.188273923942
 21
59.8563054358948
  0
LINE
  8
0
  6
CONTINUOUS
 62
7
 10
524.188273923942
 20
74.8563054358948
 11
524.188273923942
 21
71.8563054358948
  0
LINE
  8
0
  6
CONTINUOUS
 62
7
 10
316.188273923942
 20
59.8563054358948
 11
524.188273923942
 21
59.8563054358948
  0
LINE
  8
0
  6
CONTINUOUS
 62
7
 10
316.188273923942
 20
59.8563054358948
 11
316.188273923942
 21
44.8563054358948
  0
LINE
  8
0
  6
CONTINUOUS
 62
7
 10
524.188273923942
 20
59.8563054358948
 11
524.188273923942
 21
54.8563054358948
  0
LINE
  8
0
  6
CONTINUOUS
 62
7
 10
624.188273923942
 20
103.856305435895
 11
524.188273923942
 21
103.856305435895
  0
LINE
  8
0
  6
CONTINUOUS
 62
7
 10
624.188273923942
 20
103.856305435895
 11
624.188273923942
 21
98.4563054358948
  0
LINE
  8
0
  6
CONTINUOUS
 62
7
 10
524.188273923942
 20
103.856305435895
 11
524.188273923942
 21
95.8563054358948
  0
LINE
  8
0
  6
CONTINUOUS
 62
7
 10
624.188273923942
 20
95.8563054358948
 11
524.188273923942
 21
95.8563054358948
  0
LINE
  8
0
  6
CONTINUOUS
 62
7
 10
624.188273923942
 20
95.8563054358948
 11
624.188273923942
 21
87.8563054358948
  0
LINE
  8
0
  6
CONTINUOUS
 62
7
 10
524.188273923942
 20
95.8563054358948
 11
524.188273923942
 21
89.8563054358948
  0
LINE
  8
0
  6
CONTINUOUS
 62
7
 10
524.188273923942
 20
87.8563054358948
 11
624.188273923942
 21
87.8563054358948
  0
LINE
  8
0
  6
CONTINUOUS
 62
7
 10
524.188273923942
 20
87.8563054358948
 11
524.188273923942
 21
79.8563054358948
  0
LINE
  8
0
  6
CONTINUOUS
 62
7
 10
624.188273923942
 20
87.8563054358948
 11
624.188273923942
 21
79.8563054358948
  0
LINE
  8
0
  6
CONTINUOUS
 62
7
 10
624.188273923942
 20
79.8563054358948
 11
524.188273923942
 21
79.8563054358948
  0
LINE
  8
0
  6
CONTINUOUS
 62
7
 10
624.188273923942
 20
79.8563054358948
 11
624.188273923942
 21
78.6563054358947
  0
LINE
  8
0
  6
CONTINUOUS
 62
7
 10
524.188273923942
 20
79.8563054358948
 11
524.188273923942
 21
74.8563054358948
  0
LINE
  8
0
  6
CONTINUOUS
 62
7
 10
524.188273923942
 20
71.8563054358948
 11
624.188273923942
 21
71.8563054358948
  0
LINE
  8
0
  6
CONTINUOUS
 62
7
 10
524.188273923942
 20
71.8563054358948
 11
524.188273923942
 21
63.8563054358948
  0
LINE
  8
0
  6
CONTINUOUS
 62
7
 10
624.188273923942
 20
71.8563054358948
 11
624.188273923942
 21
63.8563054358948
  0
LINE
  8
0
  6
CONTINUOUS
 62
7
 10
342.088960031342
 20
29.8563054358948
 11
342.088960031342
 21
44.8563054358948
  0
LINE
  8
0
  6
CONTINUOUS
 62
7
 10
342.088960031342
 20
29.8563054358948
 11
367.714695697142
 21
29.8563054358948
  0
LINE
  8
0
  6
CONTINUOUS
 62
7
 10
342.088960031342
 20
44.8563054358948
 11
316.188273923942
 21
44.8563054358948
  0
LINE
  8
0
  6
CONTINUOUS
 62
7
 10
367.714695697142
 20
44.8563054358948
 11
367.714695697142
 21
29.8563054358948
  0
LINE
  8
0
  6
CONTINUOUS
 62
7
 10
367.714695697142
 20
44.8563054358948
 11
342.088960031342
 21
44.8563054358948
  0
LINE
  8
0
  6
CONTINUOUS
 62
7
 10
367.714695697142
 20
29.8563054358948
 11
437.450304230742
 21
29.8563054358948
  0
LINE
  8
0
  6
CONTINUOUS
 62
7
 10
437.450304230742
 20
44.8563054358948
 11
437.450304230742
 21
29.8563054358948
  0
LINE
  8
0
  6
CONTINUOUS
 62
7
 10
437.450304230742
 20
44.8563054358948
 11
367.714695697142
 21
44.8563054358948
  0
LINE
  8
0
  6
CONTINUOUS
 62
7
 10
437.450304230742
 20
29.8563054358948
 11
460.135381705542
 21
29.8563054358948
  0
LINE
  8
0
  6
CONTINUOUS
 62
7
 10
460.135381705542
 20
44.8563054358948
 11
460.135381705542
 21
29.8563054358948
  0
LINE
  8
0
  6
CONTINUOUS
 62
7
 10
460.135381705542
 20
44.8563054358948
 11
437.450304230742
 21
44.8563054358948
  0
LINE
  8
0
  6
CONTINUOUS
 62
7
 10
460.135381705542
 20
29.8563054358948
 11
524.188273923942
 21
29.8563054358948
  0
LINE
  8
0
  6
CENTER
 62
7
 10
533.258319365542
 20
37.0450568676948
 11
536.258319365542
 21
31.8489044450948
  0
LINE
  8
0
  6
CENTER
 62
7
 10
539.258319365542
 20
37.0450568676948
 11
536.258319365542
 21
31.8489044450948
  0
LINE
  8
0
  6
CENTER
 62
7
 10
539.258319365542
 20
37.0450568676948
 11
545.258319365542
 21
37.0450568676948
  0
LINE
  8
0
  6
CENTER
 62
7
 10
539.258319365542
 20
37.0450568676948
 11
542.258319365542
 21
31.8489044450948
  0
LINE
  8
0
  6
CENTER
 62
7
 10
545.258319365542
 20
37.0450568676948
 11
542.258319365542
 21
31.8489044450948
  0
LINE
  8
0
  6
CONTINUOUS
 62
7
 10
554.986333051342
 20
37.0996440944948
 11
560.986333051342
 21
37.0996440944948
  0
LINE
  8
0
  6
CONTINUOUS
 62
7
 10
560.986333051342
 20
37.0996440944948
 11
557.986333051342
 21
31.9034916716948
  0
LINE
  8
0
  6
CONTINUOUS
 62
7
 10
554.986333051342
 20
37.0996440944948
 11
557.986333051342
 21
31.9034916716948
  0
LINE
  8
0
  6
CENTER
 62
7
 10
560.986333051342
 20
37.0996440944948
 11
566.986333051342
 21
37.0996440944948
  0
LINE
  8
0
  6
CENTER
 62
7
 10
566.986333051342
 20
37.0996440944948
 11
563.986333051342
 21
31.9034916716948
  0
LINE
  8
0
  6
CENTER
 62
7
 10
560.986333051342
 20
37.0996440944948
 11
563.986333051342
 21
31.9034916716948
  0
LINE
  8
0
  6
CONTINUOUS
 62
7
 10
583.587742364342
 20
36.7721207342948
 11
589.587742364342
 21
36.7721207342948
  0
LINE
  8
0
  6
CONTINUOUS
 62
7
 10
589.587742364342
 20
36.7721207342948
 11
586.587742364342
 21
31.5759683116948
  0
LINE
  8
0
  6
CONTINUOUS
 62
7
 10
583.587742364342
 20
36.7721207342948
 11
586.587742364342
 21
31.5759683116948
  0
LINE
  8
0
  6
CONTINUOUS
 62
7
 10
608.542900978742
 20
48.5788895428948
 11
611.542900978742
 21
43.3827371200948
  0
POLYLINE
  8
0
 62
5
  6
CONTINUOUS
 10
0.0
 20
0.0
 30
0.0
 66
1
 40
0.15
 41
0.15
  0
VERTEX
  8
0
 10
607.172143021855
  20
34.2378306665028
  0
VERTEX
  8
0
 10
607.449004410539
  20
34.5688700015472
  0
VERTEX
  8
0
 10
607.719739746216
  20
34.8859551018908
  0
VERTEX
  8
0
 10
607.983995633409
  20
35.1820569725435
  0
VERTEX
  8
0
 10
608.241418676643
  20
35.4501466185152
  0
VERTEX
  8
0
 10
608.491655480445
  20
35.6831950448159
  0
VERTEX
  8
0
 10
608.734352649338
  20
35.8741732564554
  0
VERTEX
  8
0
 10
608.969156787847
  20
36.0160522584438
  0
VERTEX
  8
0
 10
609.195714500499
  20
36.1018030557909
  0
VERTEX
  8
0
 10
609.413672391816
  20
36.1243966535068
  0
VERTEX
  8
0
 10
609.623016077144
  20
36.0793850066342
  0
VERTEX
  8
0
 10
609.825087215098
  20
35.9726438703477
  0
VERTEX
  8
0
 10
610.021566475115
  20
35.8126299498547
  0
VERTEX
  8
0
 10
610.214134526628
  20
35.6077999503626
  0
VERTEX
  8
0
 10
610.404472039075
  20
35.3666105770788
  0
VERTEX
  8
0
 10
610.594259681889
  20
35.0975185352108
  0
VERTEX
  8
0
 10
610.785178124507
  20
34.808980529966
  0
VERTEX
  8
0
 10
610.978908036363
  20
34.5094532665518
  0
VERTEX
  8
0
 10
611.177130086893
  20
34.2073934501757
  0
VERTEX
  8
0
 10
611.381089112488
  20
33.9108934985227
  0
VERTEX
  8
0
 10
611.590286617361
  20
33.6265886791887
  0
VERTEX
  8
0
 10
611.803788272684
  20
33.3607499722471
  0
VERTEX
  8
0
 10
612.020659749625
  20
33.1196483577715
  0
VERTEX
  8
0
 10
612.239966719354
  20
32.9095548158353
  0
VERTEX
  8
0
 10
612.460774853041
  20
32.7367403265121
  0
VERTEX
  8
0
 10
612.682149821857
  20
32.6074758698754
  0
VERTEX
  8
0
 10
612.903157296971
  20
32.5280324259985
  0
VERTEX
  8
0
 10
613.122862949552
  20
32.5046809749551
  0
VERTEX
  8
0
 10
613.340517915398
  20
32.5414763944337
  0
VERTEX
  8
0
 10
613.556115188815
  20
32.6336091525824
  0
VERTEX
  8
0
 10
613.769833228737
  20
32.7740536151646
  0
VERTEX
  8
0
 10
613.981850494096
  20
32.9557841479435
  0
VERTEX
  8
0
 10
614.192345443828
  20
33.1717751166823
  0
VERTEX
  8
0
 10
614.401496536864
  20
33.4150008871444
  0
VERTEX
  8
0
 10
614.60948223214
  20
33.678435825093
  0
VERTEX
  8
0
 10
614.816480988587
  20
33.9550542962914
  0
VERTEX
  8
0
 10
615.02267126514
  20
34.2378306665028
  0
SEQEND
100
AcDbEntity
  8
0
  0
TEXT
  8
0
 62
7
  6
BYLAYER
 62
7
 10
715.308024578142
 20
47.9329232858948
 40
6
  1
仕上
  7
Font_0
 11
715.308024578142
 21
53.9329232858948
 73
3
  0
TEXT
  8
0
 62
7
  6
BYLAYER
 62
7
 10
553.745648391542
 20
57.0349357352948
 40
6
  1
仕         上
  7
Font_0
 11
553.745648391542
 21
63.0349357352948
 73
3
  0
TEXT
  8
0
 62
7
  6
BYLAYER
 62
7
 10
319.862646086964
 20
48.6188987690948
 40
6
  1
符号
  7
Font_0
 11
319.862646086964
 21
54.6188987690948
 73
3
  0
TEXT
  8
0
 62
7
  6
BYLAYER
 62
7
 10
341.093639065043
 20
48.8971322187344
 40
6
  1
年　月　日
  7
Font_0
 11
341.093639065043
 21
54.8971322187344
 73
3
  0
TEXT
  8
0
 62
7
  6
BYLAYER
 62
7
 10
403.54935986504
 20
48.4650955452948
 40
6
  1
変   更   内   容
  7
Font_0
 11
403.54935986504
 21
54.4650955452948
 73
3
  0
TEXT
  8
0
 62
7
  6
BYLAYER
 62
7
 10
496.568987011357
 20
48.4768815680948
 40
6
  1
担 当
  7
Font_0
 11
496.568987011357
 21
54.4768815680948
 73
3
  0
TEXT
  8
0
 62
7
  6
BYLAYER
 62
7
 10
404.854317698968
 20
63.4723227132308
 40
7
  1
図  面  登  録
  7
Font_0
 11
404.854317698968
 21
70.4723227132308
 73
3
  0
TEXT
  8
0
 62
7
  6
BYLAYER
 62
7
 10
559.793642899235
 20
113.375000114295
 40
5
  1
一  般  公  差
  7
Font_0
 11
559.793642899235
 21
118.375000114295
 73
3
  0
TEXT
  8
0
 62
7
  6
BYLAYER
 62
7
 10
528.688273923942
 20
105.402883290095
 40
5
  1
呼び寸法区分
  7
Font_0
 11
528.688273923942
 21
110.402883290095
 73
3
  0
TEXT
  8
0
 62
7
  6
BYLAYER
 62
7
 10
528.244098458742
 20
81.3704900532948
 40
5
 41
0.912991905351579
  1
30をこえ120以下
  7
Font_0
 11
528.244098458742
 21
86.3704900532948
 73
3
  0
TEXT
  8
0
 62
7
  6
BYLAYER
 62
7
 10
525.763055265542
 20
73.3012374530948
 40
5
 41
0.916447634055058
  1
120をこえ315以下
  7
Font_0
 11
525.763055265542
 21
78.3012374530948
 73
3
  0
TEXT
  8
0
 62
7
  6
BYLAYER
 62
7
 10
532.864368178149
 20
89.5856924134948
 40
5
 41
0.914780928896849
  1
6をこえ30以下
  7
Font_0
 11
532.864368178149
 21
94.5856924134948
 73
3
  0
TEXT
  8
0
 62
7
  6
BYLAYER
 62
7
 10
525.502629752542
 20
65.3499467268948
 40
5
 41
0.866727160439832
  1
315をこえ1000以下
  7
Font_0
 11
525.502629752542
 21
70.3499467268948
 73
3
  0
TEXT
  8
0
 62
7
  6
BYLAYER
 62
7
 10
565.913686167047
 20
105.410607225895
 40
5
  1
精　級
  7
Font_0
 11
565.913686167047
 21
110.410607225895
 73
3
  0
TEXT
  8
0
 62
7
  6
BYLAYER
 62
7
 10
586.311003415164
 20
105.410607225895
 40
5
  1
中　級
  7
Font_0
 11
586.311003415164
 21
110.410607225895
 73
3
  0
TEXT
  8
0
 62
7
  6
BYLAYER
 62
7
 10
606.492031072699
 20
105.417783981295
 40
5
  1
粗　級
  7
Font_0
 11
606.492031072699
 21
110.417783981295
 73
3
  0
TEXT
  8
0
 62
7
  6
BYLAYER
 62
7
 10
629.711875501661
 20
89.8157169244948
 40
6
  1
図　面
  7
Font_0
 11
629.711875501661
 21
95.8157169244948
 73
3
  0
TEXT
  8
0
 62
7
  6
BYLAYER
 62
7
 10
629.711875501661
 20
81.4157169244947
 40
6
  1
番  号
  7
Font_0
 11
629.711875501661
 21
87.4157169244947
 73
3
  0
TEXT
  8
0
 62
7
  6
BYLAYER
 62
7
 10
628.720877015342
 20
66.0899391632948
 40
6
  1
製品名
  7
Font_0
 11
628.720877015342
 21
72.0899391632948
 73
3
  0
TEXT
  8
0
 62
7
  6
BYLAYER
 62
7
 10
628.916419503742
 20
48.8822001826948
 40
6
  1
個数
  7
Font_0
 11
628.916419503742
 21
54.8822001826948
 73
3
  0
TEXT
  8
0
 62
7
  6
BYLAYER
 62
7
 10
627.906933342272
 20
34.1363884732137
 40
6
  1
設計
  7
Font_0
 11
627.906933342272
 21
40.1363884732137
 73
3
  0
TEXT
  8
0
 62
7
  6
BYLAYER
 62
7
 10
686.882249986223
 20
33.8843572055046
 40
6
  1
製図
  7
Font_0
 11
686.882249986223
 21
39.8843572055046
 73
3
  0
TEXT
  8
0
 62
7
  6
BYLAYER
 62
7
 10
745.605535362464
 20
33.6323259377954
 40
6
  1
承認
  7
Font_0
 11
745.605535362464
 21
39.6323259377954
 73
3
  0
TEXT
  8
0
 62
7
  6
BYLAYER
 62
7
 10
736.597972175949
 20
85.8620180512948
 40
6
  1
材料
  7
Font_0
 11
736.597972175949
 21
91.8620180512948
 73
3
  0
TEXT
  8
0
 62
7
  6
BYLAYER
 62
7
 10
733.249480984021
 20
70.3969194412948
 40
6
  1
表　面
  7
Font_0
 11
733.249480984021
 21
76.3969194412948
 73
3
  0
TEXT
  8
0
 62
7
  6
BYLAYER
 62
7
 10
733.249480984021
 20
62.3969194412948
 40
6
  1
処　理
  7
Font_0
 11
733.249480984021
 21
68.3969194412948
 73
3
  0
TEXT
  8
0
 62
7
  6
BYLAYER
 62
7
 10
757.038653095124
 20
48.1092574406948
 40
6
  1
尺度
  7
Font_0
 11
757.038653095124
 21
54.1092574406948
 73
3
  0
TEXT
  8
0
 62
7
  6
BYLAYER
 62
7
 10
322.044361733279
 20
33.4479057564469
 40
7
  1
原型
  7
Font_0
 11
322.044361733279
 21
40.4479057564469
 73
3
  0
TEXT
  8
0
 62
7
  6
BYLAYER
 62
7
 10
347.652076165727
 20
33.1892419743009
 40
7
  1
機種
  7
Font_0
 11
347.652076165727
 21
40.1892419743009
 73
3
  0
TEXT
  8
0
 62
7
  6
BYLAYER
 62
7
 10
441.29117214629
 20
33.0313859673317
 40
7
  1
番号
  7
Font_0
 11
441.29117214629
 21
40.0313859673317
 73
3
  0
TEXT
  8
0
 62
7
  6
BYLAYER
 62
7
 10
535.978931576703
 20
97.3628538072948
 40
5
 41
0.888141089685761
  1
0.2以上6以下
  7
Font_0
 11
535.978931576703
 21
102.362853807295
 73
3
  0
INSERT
  8
0
  6
CONTINUOUS
 62
7
  2
SW_NOTE_3
 10
671.545245523742
 20
51.7845008438948
 30
0.0
 41
2
 42
2
  0
TEXT
  8
0
 62
7
  6
BYLAYER
 62
7
 10
607.493664915217
 20
66.0680749458948
 40
3.7041666666
  1
±２.０
  7
Font_0
 11
607.493664915217
 21
69.7722416124948
 73
3
  0
TEXT
  8
0
 62
7
  6
BYLAYER
 62
7
 10
607.493664915217
 20
73.7178043072948
 40
3.7041666666
  1
±１.２
  7
Font_0
 11
607.493664915217
 21
77.4219709738948
 73
3
  0
TEXT
  8
0
 62
7
  6
BYLAYER
 62
7
 10
607.493664915217
 20
81.7265738630948
 40
3.7041666666
  1
±０.８
  7
Font_0
 11
607.493664915217
 21
85.4307405296948
 73
3
  0
TEXT
  8
0
 62
7
  6
BYLAYER
 62
7
 10
587.231462219127
 20
65.9503389861357
 40
3.7041666666
  1
±０.８
  7
Font_0
 11
587.231462219127
 21
69.6545056527357
 73
3
  0
TEXT
  8
0
 62
7
  6
BYLAYER
 62
7
 10
587.231462219127
 20
73.6480081900948
 40
3.7041666666
  1
±０.５
  7
Font_0
 11
587.231462219127
 21
77.3521748566948
 73
3
  0
TEXT
  8
0
 62
7
  6
BYLAYER
 62
7
 10
587.148154091934
 20
81.6943913654948
 40
3.7041666666
  1
±０.３
  7
Font_0
 11
587.148154091934
 21
85.3985580320948
 73
3
  0
TEXT
  8
0
 62
7
  6
BYLAYER
 62
7
 10
566.474384233377
 20
66.0887945354948
 40
3.7041666666
  1
±０.３
  7
Font_0
 11
566.474384233377
 21
69.7929612020948
 73
3
  0
TEXT
  8
0
 62
7
  6
BYLAYER
 62
7
 10
587.104375671093
 20
89.6378528558947
 40
3.7041666666
  1
±０.２
  7
Font_0
 11
587.104375671093
 21
93.3420195224947
 73
3
  0
TEXT
  8
0
 62
7
  6
BYLAYER
 62
7
 10
565.127006548747
 20
81.6781003710948
 40
3.7041666666
  1
±０.１５
  7
Font_0
 11
565.127006548747
 21
85.3822670376948
 73
3
  0
TEXT
  8
0
 62
7
  6
BYLAYER
 62
7
 10
567.223032740096
 20
89.6707923000947
 40
3.7041666666
  1
±０.１
  7
Font_0
 11
567.223032740096
 21
93.3749589666947
 73
3
  0
TEXT
  8
0
 62
7
  6
BYLAYER
 62
7
 10
566.613175594973
 20
73.7102734934948
 40
3.7041666666
  1
±０.２
  7
Font_0
 11
566.613175594973
 21
77.4144401600948
 73
3
  0
TEXT
  8
0
 62
7
  6
BYLAYER
 62
7
 10
607.725261508816
 20
97.4060636116948
 40
3.7041666666
  1
±０.２
  7
Font_0
 11
607.725261508816
 21
101.110230278295
 73
3
  0
TEXT
  8
0
 62
7
  6
BYLAYER
 62
7
 10
587.226347100118
 20
97.4146333284948
 40
3.7041666666
  1
±０.１
  7
Font_0
 11
587.226347100118
 21
101.118799995095
 73
3
  0
TEXT
  8
0
 62
7
  6
BYLAYER
 62
7
 10
564.917236684473
 20
97.4443308810948
 40
3.7041666666
  1
±０.０５
  7
Font_0
 11
564.917236684473
 21
101.148497547695
 73
3
  0
TEXT
  8
0
 62
7
  6
BYLAYER
 62
7
 10
607.725261508816
 20
89.1330336306948
 40
3.7041666666
  1
±０.５
  7
Font_0
 11
607.725261508816
 21
92.8372002972948
 73
3
  0
TEXT
  8
0
 62
7
  6
BYLAYER
 62
7
 10
650.065808711902
 20
104.414511811988
 40
7.4083333334
  1
株式会社
  7
Font_0
 11
650.065808711902
 21
111.822845145388
 73
3
  0
INSERT
  8
0
  6
CONTINUOUS
 62
7
  2
SW_NOTE_4
 10
738.813582124156
 20
55.9164383740123
 30
0.0
 41
2
 42
2
  0
TEXT
  8
0
 62
7
  6
BYLAYER
 62
7
 10
496.764029177429
 20
64.082238381087
 40
7
  1
大塚
  7
Font_0
 11
496.764029177429
 21
71.082238381087
 73
3
  0
TEXT
  8
0
 62
7
  6
BYLAYER
 62
7
 10
584.449015022142
 20
49.1830350822948
 40
4.2333333334
  1
25
  7
Font_0
 11
584.449015022142
 21
53.4163684156948
 73
3
  0
TEXT
  8
0
 62
7
  6
BYLAYER
 62
7
 10
608.431918148742
 20
49.7147859088948
 40
4.2333333334
  1
100
  7
Font_0
 11
608.431918148742
 21
53.9481192422948
 73
3
  0
TEXT
  8
0
 62
7
  6
BYLAYER
 62
7
 10
557.743593318742
 20
49.2383659570948
 40
4.2333333334
  1
6.3
  7
Font_0
 11
557.743593318742
 21
53.4716992904948
 73
3
  0
INSERT
  8
0
  6
CONTINUOUS
 62
7
  2
SW_NOTE_5
 10
531.779060765742
 20
48.1448051414948
 30
0.0
 41
2
 42
2
  0
TEXT
  8
0
 62
7
  6
BYLAYER
 62
7
 10
655.154180492693
 20
47.9080597281804
 40
7
  1
1
  7
Font_0
 11
655.154180492693
 21
54.9080597281804
 73
3
  0
TEXT
  8
0
 62
7
  6
BYLAYER
 62
7
 10
782.900092303742
 20
47.4865727303373
 40
7
  1
1/2
  7
Font_0
 11
782.900092303742
 21
54.4865727303373
 73
3
  0
TEXT
  8
0
 62
7
  6
BYLAYER
 62
7
 10
681.520780799178
 20
103.664385665728
 40
10.5833333334
  1
ケンコー・トキナー
  7
Font_0
 11
681.520780799178
 21
114.247718999128
 73
3
  0
LINE
  8
0
  6
CONTINUOUS
 62
7
 10
583.521607257342
 20
111.856305435895
 11
563.188273923942
 21
63.8563054358948
  0
LINE
  8
0
  6
CONTINUOUS
 62
7
 10
624.188273923942
 20
111.856305435895
 11
603.854940590542
 21
63.8563054358948
  0
LINE
  8
$DDT_AUDIT_GENERATED__327_
  6
BYLAYER
 62
7
 10
338.552622970578
 20
272.329176134695
 11
331.552622970578
 21
272.329176134695
  0
LINE
  8
$DDT_AUDIT_GENERATED__327_
  6
BYLAYER
 62
7
 10
338.552622970578
 20
330.329176134695
 11
331.552622970578
 21
330.329176134695
  0
LINE
  8
$DDT_AUDIT_GENERATED__327_
  6
BYLAYER
 62
7
 10
648.552622970578
 20
350.329176134694
 11
338.552622970578
 21
350.329176134694
  0
LINE
  8
$DDT_AUDIT_GENERATED__327_
  6
HIDDEN
 62
7
 10
648.552622970578
 20
348.329176134694
 11
338.552622970578
 21
348.329176134694
  0
LINE
  8
$DDT_AUDIT_GENERATED__327_
  6
BYLAYER
 62
7
 10
644.552622970577
 20
181.329176134694
 11
342.552622970578
 21
181.329176134694
  0
LINE
  8
$DDT_AUDIT_GENERATED__327_
  6
BYLAYER
 62
7
 10
648.552622970577
 20
185.329176134694
 11
648.552622970577
 21
350.329176134694
  0
ARC
  8
$DDT_AUDIT_GENERATED__327_
  6
BYLAYER
 62
7
 10
644.552622970577
 20
185.329176134694
 40
4
 50
270
 51
0
  0
LINE
  8
$DDT_AUDIT_GENERATED__327_
  6
BYLAYER
 62
7
 10
338.552622970578
 20
185.329176134694
 11
338.552622970578
 21
350.329176134694
  0
ARC
  8
$DDT_AUDIT_GENERATED__327_
  6
BYLAYER
 62
7
 10
342.552622970578
 20
185.329176134694
 40
4
 50
180
 51
270
  0
CIRCLE
  8
0
  6
BYLAYER
 62
7
 10
403.052622970578
 20
192.329176134694
 40
1.75
  0
CIRCLE
  8
0
  6
BYLAYER
 62
7
 10
584.052622970578
 20
192.329176134694
 40
1.75
  0
CIRCLE
  8
0
  6
BYLAYER
 62
7
 10
349.552622970578
 20
218.329176134694
 40
1.75
  0
CIRCLE
  8
0
  6
BYLAYER
 62
7
 10
637.552622970577
 20
218.329176134694
 40
1.75
  0
CIRCLE
  8
0
  6
BYLAYER
 62
7
 10
637.552622970577
 20
318.329176134694
 40
1.75
  0
CIRCLE
  8
0
  6
BYLAYER
 62
7
 10
349.552622970578
 20
318.329176134694
 40
1.75
  0
LINE
  8
$DDT_AUDIT_GENERATED__327_
  6
BYLAYER
 62
7
 10
401.052622970578
 20
340.329176134694
 11
416.052622970578
 21
340.329176134694
  0
LINE
  8
$DDT_AUDIT_GENERATED__327_
  6
BYLAYER
 62
7
 10
401.052622970578
 20
335.329176134694
 11
416.052622970578
 21
335.329176134694
  0
ARC
  8
0
  6
BYLAYER
 62
7
 10
401.052622970578
 20
337.829176134694
 40
2.5
 50
90
 51
270
  0
ARC
  8
0
  6
BYLAYER
 62
7
 10
416.052622970578
 20
337.829176134694
 40
2.5
 50
270
 51
90
  0
LINE
  8
$DDT_AUDIT_GENERATED__327_
  6
BYLAYER
 62
7
 10
401.052622970578
 20
332.829176134694
 11
416.052622970578
 21
332.829176134694
  0
LINE
  8
$DDT_AUDIT_GENERATED__327_
  6
BYLAYER
 62
7
 10
401.052622970578
 20
327.829176134694
 11
416.052622970578
 21
327.829176134694
  0
ARC
  8
0
  6
BYLAYER
 62
7
 10
401.052622970578
 20
330.329176134694
 40
2.5
 50
90
 51
270
  0
ARC
  8
0
  6
BYLAYER
 62
7
 10
416.052622970578
 20
330.329176134694
 40
2.5
 50
270
 51
90
  0
ARC
  8
画層44
  6
GEN3A
 62
7
 10
376.151622970577
 20
349.129176134695
 40
1.20100000000002
 50
48.5472420078197
 51
90
  0
LINE
  8
画層43
  6
GEN3A
 62
7
 10
376.902622970578
 20
352.330176134695
 11
376.902622970578
 21
351.482282117831
  0
LINE
  8
画層43
  6
GEN3A
 62
7
 10
376.902622970578
 20
351.090223370826
 11
376.902622970578
 21
350.330176134695
  0
LINE
  8
画層43
  6
GEN3A
 62
7
 10
373.402622970578
 20
352.330176134695
 11
373.402622970578
 21
351.528956607869
  0
LINE
  8
画層43
  6
GEN3A
 62
7
 10
373.402622970578
 20
351.090223370826
 11
373.402622970578
 21
350.330176134695
  0
LINE
  8
画層44
  6
BYLAYER
 62
7
 10
367.152622970578
 20
352.330176134695
 11
383.152622970578
 21
352.330176134695
  0
LINE
  8
画層46
  6
BYBLOCK
 62
7
 10
367.152622970578
 20
350.330176134695
 11
383.152622970578
 21
350.330176134695
  0
LINE
  8
画層44
  6
BYLAYER
 62
7
 10
367.152622970578
 20
352.330176134695
 11
367.152622970578
 21
350.329176134695
  0
LINE
  8
画層44
  6
BYLAYER
 62
7
 10
383.152622970578
 20
350.329176134695
 11
383.152622970578
 21
352.330176134695
  0
LINE
  8
画層44
  6
BYLAYER
 62
7
 10
380.152622970578
 20
350.329176134695
 11
380.152622970578
 21
352.330176134695
  0
LINE
  8
0
  6
BYLAYER
 62
7
 10
369.152622970578
 20
350.330176134695
 11
381.152622970578
 21
350.330176134695
  0
LINE
  8
$DDT_AUDIT_GENERATED__380_
  6
BYLAYER
 62
7
 10
331.552622970578
 20
333.329176134695
 11
331.552622970578
 21
394.467655195774
  0
LINE
  8
$DDT_AUDIT_GENERATED__380_
  6
BYLAYER
 62
7
 10
648.552622970578
 20
353.329176134695
 11
648.552622970578
 21
394.467655195774
  0
LINE
  8
$DDT_AUDIT_GENERATED__380_
  6
BYLAYER
 62
7
 10
331.629759880316
 20
393.467655195773
 11
648.458875785352
 21
393.467655195773
  0
LINE
  8
$DDT_AUDIT_GENERATED__380_
  6
BYLAYER
 62
7
 10
331.629759880316
 20
393.467655195773
 11
337.42531483805
 21
395.020569466388
  0
LINE
  8
$DDT_AUDIT_GENERATED__380_
  6
BYLAYER
 62
7
 10
331.629759880316
 20
393.467655195773
 11
337.42531483805
 21
391.914740925158
  0
LINE
  8
$DDT_AUDIT_GENERATED__380_
  6
BYLAYER
 62
7
 10
648.458875785352
 20
393.467655195773
 11
642.663320827618
 21
391.914740925158
  0
LINE
  8
$DDT_AUDIT_GENERATED__380_
  6
BYLAYER
 62
7
 10
648.458875785352
 20
393.467655195773
 11
642.663320827618
 21
395.020569466388
  0
TEXT
  8
$DDT_AUDIT_GENERATED__380_
 62
7
  6
BYLAYER
 62
7
 10
483.052622970578
 20
394.967655195774
 40
8
  1
317
  7
Font_0
 72
1
 11
489.052622970578
 21
398.967655195774
 73
2
  0
LINE
  8
0
  6
BYLAYER
 62
7
 10
345.483742173979
 20
169.358534394654
 11
361.621503767176
 21
169.358534394654
  0
ARC
  8
0
  6
BYLAYER
 62
7
 10
361.621503767176
 20
170.358534394653
 40
1
 50
270
 51
355.914383220022
  0
LINE
  8
0
  6
BYLAYER
 62
7
 10
363.407668809152
 20
181.329176134694
 11
362.618962467007
 21
170.287287344665
  0
ARC
  8
0
  6
BYLAYER
 62
7
 10
345.483742173979
 20
170.358534394653
 40
1
 50
184.085616779978
 51
270
  0
LINE
  8
0
  6
BYLAYER
 62
7
 10
343.697577132003
 20
181.329176134694
 11
344.486283474148
 21
170.287287344665
  0
LINE
  8
0
  6
BYLAYER
 62
7
 10
621.483742173979
 20
169.329176134695
 11
637.621503767176
 21
169.329176134695
  0
ARC
  8
0
  6
BYLAYER
 62
7
 10
637.621503767176
 20
170.329176134695
 40
1
 50
270
 51
355.914383220022
  0
LINE
  8
0
  6
BYLAYER
 62
7
 10
639.40976582772
 20
181.329176134694
 11
638.618962467007
 21
170.257929084707
  0
ARC
  8
0
  6
BYLAYER
 62
7
 10
621.483742173979
 20
170.329176134695
 40
1
 50
184.085616779978
 51
270
  0
LINE
  8
0
  6
BYLAYER
 62
7
 10
619.695480113435
 20
181.329176134694
 11
620.486283474148
 21
170.257929084707
  0
LINE
  8
$DDT_AUDIT_GENERATED__327_
  6
BYLAYER
 62
7
 10
648.552622970578
 20
428.11095831762
 11
648.552622970578
 21
538.11095831762
  0
LINE
  8
$DDT_AUDIT_GENERATED__327_
  6
BYLAYER
 62
7
 10
338.552622970578
 20
428.11095831762
 11
338.552622970578
 21
538.11095831762
  0
LINE
  8
0
  6
HIDDEN
 62
7
 10
338.552622970577
 20
430.11095831762
 11
648.552622970578
 21
430.110958317619
  0
LINE
  8
0
  6
BYLAYER
 62
7
 10
338.552622970577
 20
428.11095831762
 11
648.552622970578
 21
428.110958317619
  0
LINE
  8
0
  6
HIDDEN
 62
7
 10
338.552622970577
 20
536.11095831762
 11
648.552622970578
 21
536.11095831762
  0
LINE
  8
0
  6
BYLAYER
 62
7
 10
338.552622970577
 20
538.11095831762
 11
648.552622970578
 21
538.11095831762
  0
LINE
  8
$DDT_AUDIT_GENERATED__327_
  6
BYLAYER
 62
7
 10
401.052622970577
 20
523.150493761331
 11
416.052622970577
 21
523.150493761331
  0
LINE
  8
$DDT_AUDIT_GENERATED__327_
  6
BYLAYER
 62
7
 10
401.052622970577
 20
518.150493761331
 11
416.052622970577
 21
518.150493761331
  0
ARC
  8
0
  6
BYLAYER
 62
7
 10
401.052622970577
 20
520.650493761331
 40
2.5
 50
90
 51
270
  0
ARC
  8
0
  6
BYLAYER
 62
7
 10
416.052622970577
 20
520.650493761331
 40
2.49999999999997
 50
270
 51
90
  0
LINE
  8
$DDT_AUDIT_GENERATED__327_
  6
BYLAYER
 62
7
 10
429.052622970577
 20
523.150493761331
 11
444.052622970577
 21
523.150493761331
  0
LINE
  8
$DDT_AUDIT_GENERATED__327_
  6
BYLAYER
 62
7
 10
429.052622970577
 20
518.150493761331
 11
444.052622970577
 21
518.150493761331
  0
ARC
  8
0
  6
BYLAYER
 62
7
 10
429.052622970577
 20
520.650493761331
 40
2.5
 50
90
 51
270
  0
ARC
  8
0
  6
BYLAYER
 62
7
 10
444.052622970577
 20
520.650493761331
 40
2.5
 50
270
 51
90
  0
LINE
  8
$DDT_AUDIT_GENERATED__327_
  6
BYLAYER
 62
7
 10
401.052622970577
 20
515.650493761331
 11
416.052622970577
 21
515.650493761331
  0
LINE
  8
$DDT_AUDIT_GENERATED__327_
  6
BYLAYER
 62
7
 10
401.052622970577
 20
510.650493761331
 11
416.052622970577
 21
510.650493761331
  0
ARC
  8
0
  6
BYLAYER
 62
7
 10
401.052622970577
 20
513.150493761331
 40
2.5
 50
90
 51
270
  0
ARC
  8
0
  6
BYLAYER
 62
7
 10
416.052622970577
 20
513.150493761331
 40
2.49999999999997
 50
270
 51
90
  0
LINE
  8
$DDT_AUDIT_GENERATED__327_
  6
BYLAYER
 62
7
 10
429.052622970577
 20
515.650493761331
 11
444.052622970577
 21
515.650493761331
  0
LINE
  8
$DDT_AUDIT_GENERATED__327_
  6
BYLAYER
 62
7
 10
429.052622970577
 20
510.650493761331
 11
444.052622970577
 21
510.650493761331
  0
ARC
  8
0
  6
BYLAYER
 62
7
 10
429.052622970577
 20
513.150493761331
 40
2.5
 50
90
 51
270
  0
ARC
  8
0
  6
BYLAYER
 62
7
 10
444.052622970577
 20
513.150493761331
 40
2.5
 50
270
 51
90
  0
LINE
  8
$DDT_AUDIT_GENERATED__327_
  6
BYLAYER
 62
7
 10
401.052622970577
 20
508.150493761331
 11
416.052622970577
 21
508.150493761331
  0
LINE
  8
$DDT_AUDIT_GENERATED__327_
  6
BYLAYER
 62
7
 10
401.052622970577
 20
503.150493761331
 11
416.052622970577
 21
503.150493761331
  0
ARC
  8
0
  6
BYLAYER
 62
7
 10
401.052622970577
 20
505.650493761331
 40
2.5
 50
90
 51
270
  0
ARC
  8
0
  6
BYLAYER
 62
7
 10
416.052622970577
 20
505.650493761331
 40
2.49999999999997
 50
270
 51
90
  0
LINE
  8
$DDT_AUDIT_GENERATED__327_
  6
BYLAYER
 62
7
 10
429.052622970577
 20
508.150493761331
 11
444.052622970577
 21
508.150493761331
  0
LINE
  8
$DDT_AUDIT_GENERATED__327_
  6
BYLAYER
 62
7
 10
429.052622970577
 20
503.150493761331
 11
444.052622970577
 21
503.150493761331
  0
ARC
  8
0
  6
BYLAYER
 62
7
 10
429.052622970577
 20
505.650493761331
 40
2.5
 50
90
 51
270
  0
ARC
  8
0
  6
BYLAYER
 62
7
 10
444.052622970577
 20
505.650493761331
 40
2.5
 50
270
 51
90
  0
LINE
  8
$DDT_AUDIT_GENERATED__327_
  6
BYLAYER
 62
7
 10
401.052622970577
 20
500.650493761331
 11
416.052622970577
 21
500.650493761331
  0
LINE
  8
$DDT_AUDIT_GENERATED__327_
  6
BYLAYER
 62
7
 10
401.052622970577
 20
495.650493761331
 11
416.052622970577
 21
495.650493761331
  0
ARC
  8
0
  6
BYLAYER
 62
7
 10
401.052622970577
 20
498.150493761331
 40
2.5
 50
90
 51
270
  0
ARC
  8
0
  6
BYLAYER
 62
7
 10
416.052622970577
 20
498.150493761331
 40
2.49999999999997
 50
270
 51
90
  0
LINE
  8
$DDT_AUDIT_GENERATED__327_
  6
BYLAYER
 62
7
 10
429.052622970577
 20
500.650493761331
 11
444.052622970577
 21
500.650493761331
  0
LINE
  8
$DDT_AUDIT_GENERATED__327_
  6
BYLAYER
 62
7
 10
429.052622970577
 20
495.650493761331
 11
444.052622970577
 21
495.650493761331
  0
ARC
  8
0
  6
BYLAYER
 62
7
 10
429.052622970577
 20
498.150493761331
 40
2.5
 50
90
 51
270
  0
ARC
  8
0
  6
BYLAYER
 62
7
 10
444.052622970577
 20
498.150493761331
 40
2.5
 50
270
 51
90
  0
LINE
  8
$DDT_AUDIT_GENERATED__327_
  6
BYLAYER
 62
7
 10
401.052622970577
 20
493.150493761331
 11
416.052622970577
 21
493.150493761331
  0
LINE
  8
$DDT_AUDIT_GENERATED__327_
  6
BYLAYER
 62
7
 10
401.052622970577
 20
488.150493761331
 11
416.052622970577
 21
488.150493761331
  0
ARC
  8
0
  6
BYLAYER
 62
7
 10
401.052622970577
 20
490.650493761331
 40
2.5
 50
90
 51
270
  0
ARC
  8
0
  6
BYLAYER
 62
7
 10
416.052622970577
 20
490.650493761331
 40
2.49999999999997
 50
270
 51
90
  0
LINE
  8
$DDT_AUDIT_GENERATED__327_
  6
BYLAYER
 62
7
 10
429.052622970577
 20
493.150493761331
 11
444.052622970577
 21
493.150493761331
  0
LINE
  8
$DDT_AUDIT_GENERATED__327_
  6
BYLAYER
 62
7
 10
429.052622970577
 20
488.150493761331
 11
444.052622970577
 21
488.150493761331
  0
ARC
  8
0
  6
BYLAYER
 62
7
 10
429.052622970577
 20
490.650493761331
 40
2.5
 50
90
 51
270
  0
ARC
  8
0
  6
BYLAYER
 62
7
 10
444.052622970577
 20
490.650493761331
 40
2.5
 50
270
 51
90
  0
LINE
  8
$DDT_AUDIT_GENERATED__327_
  6
BYLAYER
 62
7
 10
401.052622970577
 20
485.650493761331
 11
416.052622970577
 21
485.650493761331
  0
LINE
  8
$DDT_AUDIT_GENERATED__327_
  6
BYLAYER
 62
7
 10
401.052622970577
 20
480.650493761331
 11
416.052622970577
 21
480.650493761331
  0
ARC
  8
0
  6
BYLAYER
 62
7
 10
401.052622970577
 20
483.150493761331
 40
2.5
 50
90
 51
270
  0
ARC
  8
0
  6
BYLAYER
 62
7
 10
416.052622970577
 20
483.150493761331
 40
2.49999999999997
 50
270
 51
90
  0
LINE
  8
$DDT_AUDIT_GENERATED__327_
  6
BYLAYER
 62
7
 10
429.052622970577
 20
485.650493761331
 11
444.052622970577
 21
485.650493761331
  0
LINE
  8
$DDT_AUDIT_GENERATED__327_
  6
BYLAYER
 62
7
 10
429.052622970577
 20
480.650493761331
 11
444.052622970577
 21
480.650493761331
  0
ARC
  8
0
  6
BYLAYER
 62
7
 10
429.052622970577
 20
483.150493761331
 40
2.5
 50
90
 51
270
  0
ARC
  8
0
  6
BYLAYER
 62
7
 10
444.052622970577
 20
483.150493761331
 40
2.5
 50
270
 51
90
  0
LINE
  8
$DDT_AUDIT_GENERATED__327_
  6
BYLAYER
 62
7
 10
401.052622970577
 20
478.150493761331
 11
416.052622970577
 21
478.150493761331
  0
LINE
  8
$DDT_AUDIT_GENERATED__327_
  6
BYLAYER
 62
7
 10
401.052622970577
 20
473.150493761331
 11
416.052622970577
 21
473.150493761331
  0
ARC
  8
0
  6
BYLAYER
 62
7
 10
401.052622970577
 20
475.650493761331
 40
2.5
 50
90
 51
270
  0
ARC
  8
0
  6
BYLAYER
 62
7
 10
416.052622970577
 20
475.650493761331
 40
2.49999999999997
 50
270
 51
90
  0
LINE
  8
$DDT_AUDIT_GENERATED__327_
  6
BYLAYER
 62
7
 10
429.052622970577
 20
478.150493761331
 11
444.052622970577
 21
478.150493761331
  0
LINE
  8
$DDT_AUDIT_GENERATED__327_
  6
BYLAYER
 62
7
 10
429.052622970577
 20
473.150493761331
 11
444.052622970577
 21
473.150493761331
  0
ARC
  8
0
  6
BYLAYER
 62
7
 10
429.052622970577
 20
475.650493761331
 40
2.5
 50
90
 51
270
  0
ARC
  8
0
  6
BYLAYER
 62
7
 10
444.052622970577
 20
475.650493761331
 40
2.5
 50
270
 51
90
  0
LINE
  8
$DDT_AUDIT_GENERATED__327_
  6
BYLAYER
 62
7
 10
401.052622970577
 20
470.650493761331
 11
416.052622970577
 21
470.650493761331
  0
LINE
  8
$DDT_AUDIT_GENERATED__327_
  6
BYLAYER
 62
7
 10
401.052622970577
 20
465.650493761331
 11
416.052622970577
 21
465.650493761331
  0
ARC
  8
0
  6
BYLAYER
 62
7
 10
401.052622970577
 20
468.150493761331
 40
2.5
 50
90
 51
270
  0
ARC
  8
0
  6
BYLAYER
 62
7
 10
416.052622970577
 20
468.150493761331
 40
2.49999999999997
 50
270
 51
90
  0
LINE
  8
$DDT_AUDIT_GENERATED__327_
  6
BYLAYER
 62
7
 10
429.052622970577
 20
470.650493761331
 11
444.052622970577
 21
470.650493761331
  0
LINE
  8
$DDT_AUDIT_GENERATED__327_
  6
BYLAYER
 62
7
 10
429.052622970577
 20
465.650493761331
 11
444.052622970577
 21
465.650493761331
  0
ARC
  8
0
  6
BYLAYER
 62
7
 10
429.052622970577
 20
468.150493761331
 40
2.5
 50
90
 51
270
  0
ARC
  8
0
  6
BYLAYER
 62
7
 10
444.052622970577
 20
468.150493761331
 40
2.5
 50
270
 51
90
  0
LINE
  8
$DDT_AUDIT_GENERATED__327_
  6
BYLAYER
 62
7
 10
401.052622970577
 20
463.150493761331
 11
416.052622970577
 21
463.150493761331
  0
LINE
  8
$DDT_AUDIT_GENERATED__327_
  6
BYLAYER
 62
7
 10
401.052622970577
 20
458.150493761331
 11
416.052622970577
 21
458.150493761331
  0
ARC
  8
0
  6
BYLAYER
 62
7
 10
401.052622970577
 20
460.650493761331
 40
2.5
 50
90
 51
270
  0
ARC
  8
0
  6
BYLAYER
 62
7
 10
416.052622970577
 20
460.650493761331
 40
2.49999999999997
 50
270
 51
90
  0
LINE
  8
$DDT_AUDIT_GENERATED__327_
  6
BYLAYER
 62
7
 10
429.052622970577
 20
463.150493761331
 11
444.052622970577
 21
463.150493761331
  0
LINE
  8
$DDT_AUDIT_GENERATED__327_
  6
BYLAYER
 62
7
 10
429.052622970577
 20
458.150493761331
 11
444.052622970577
 21
458.150493761331
  0
ARC
  8
0
  6
BYLAYER
 62
7
 10
429.052622970577
 20
460.650493761331
 40
2.5
 50
90
 51
270
  0
ARC
  8
0
  6
BYLAYER
 62
7
 10
444.052622970577
 20
460.650493761331
 40
2.5
 50
270
 51
90
  0
LINE
  8
$DDT_AUDIT_GENERATED__327_
  6
BYLAYER
 62
7
 10
401.052622970577
 20
455.650493761331
 11
416.052622970577
 21
455.650493761331
  0
LINE
  8
$DDT_AUDIT_GENERATED__327_
  6
BYLAYER
 62
7
 10
401.052622970577
 20
450.650493761331
 11
416.052622970577
 21
450.650493761331
  0
ARC
  8
0
  6
BYLAYER
 62
7
 10
401.052622970577
 20
453.150493761331
 40
2.5
 50
90
 51
270
  0
ARC
  8
0
  6
BYLAYER
 62
7
 10
416.052622970577
 20
453.150493761331
 40
2.49999999999997
 50
270
 51
90
  0
LINE
  8
$DDT_AUDIT_GENERATED__327_
  6
BYLAYER
 62
7
 10
429.052622970577
 20
455.650493761331
 11
444.052622970577
 21
455.650493761331
  0
LINE
  8
$DDT_AUDIT_GENERATED__327_
  6
BYLAYER
 62
7
 10
429.052622970577
 20
450.650493761331
 11
444.052622970577
 21
450.650493761331
  0
ARC
  8
0
  6
BYLAYER
 62
7
 10
429.052622970577
 20
453.150493761331
 40
2.5
 50
90
 51
270
  0
ARC
  8
0
  6
BYLAYER
 62
7
 10
444.052622970577
 20
453.150493761331
 40
2.5
 50
270
 51
90
  0
LINE
  8
$DDT_AUDIT_GENERATED__327_
  6
BYLAYER
 62
7
 10
401.052622970577
 20
448.150493761331
 11
416.052622970577
 21
448.150493761331
  0
LINE
  8
$DDT_AUDIT_GENERATED__327_
  6
BYLAYER
 62
7
 10
401.052622970577
 20
443.150493761331
 11
416.052622970577
 21
443.150493761331
  0
ARC
  8
0
  6
BYLAYER
 62
7
 10
401.052622970577
 20
445.650493761331
 40
2.5
 50
90
 51
270
  0
ARC
  8
0
  6
BYLAYER
 62
7
 10
416.052622970577
 20
445.650493761331
 40
2.49999999999997
 50
270
 51
90
  0
LINE
  8
$DDT_AUDIT_GENERATED__327_
  6
BYLAYER
 62
7
 10
429.052622970577
 20
448.150493761331
 11
444.052622970577
 21
448.150493761331
  0
LINE
  8
$DDT_AUDIT_GENERATED__327_
  6
BYLAYER
 62
7
 10
429.052622970577
 20
443.150493761331
 11
444.052622970577
 21
443.150493761331
  0
ARC
  8
0
  6
BYLAYER
 62
7
 10
429.052622970577
 20
445.650493761331
 40
2.5
 50
90
 51
270
  0
ARC
  8
0
  6
BYLAYER
 62
7
 10
444.052622970577
 20
445.650493761331
 40
2.5
 50
270
 51
90
  0
CIRCLE
  8
0
  6
BYLAYER
 62
7
 10
374.152622970578
 20
508.11095831762
 40
1.5
  0
CIRCLE
  8
0
  6
BYLAYER
 62
7
 10
374.152622970578
 20
508.11095831762
 40
1.09999999999999
  0
CIRCLE
  8
0
  6
BYLAYER
 62
7
 10
374.152622970578
 20
458.11095831762
 40
1.5
  0
CIRCLE
  8
0
  6
BYLAYER
 62
7
 10
374.152622970578
 20
458.11095831762
 40
1.09999999999999
  0
LINE
  8
画層43
  6
BYBLOCK
 62
7
 10
380.152622970578
 20
513.11095831762
 11
368.152622970578
 21
513.11095831762
  0
LINE
  8
0
  6
BYLAYER
 62
7
 10
382.152622970578
 20
511.11095831762
 11
380.152622970578
 21
513.11095831762
  0
LINE
  8
0
  6
BYLAYER
 62
7
 10
366.152622970578
 20
511.11095831762
 11
368.152622970578
 21
513.11095831762
  0
LINE
  8
画層43
  6
BYBLOCK
 62
7
 10
380.152622970578
 20
453.11095831762
 11
368.152622970579
 21
453.110958317619
  0
LINE
  8
0
  6
BYLAYER
 62
7
 10
366.152622970579
 20
455.110958317619
 11
368.152622970579
 21
453.110958317619
  0
LINE
  8
0
  6
BYLAYER
 62
7
 10
382.152622970578
 20
511.11095831762
 11
382.152622970578
 21
455.11095831762
  0
LINE
  8
0
  6
BYLAYER
 62
7
 10
380.152622970578
 20
453.11095831762
 11
382.152622970578
 21
455.11095831762
  0
LINE
  8
0
  6
BYLAYER
 62
7
 10
366.152622970578
 20
511.11095831762
 11
366.152622970579
 21
455.110958317619
  0
CIRCLE
  8
0
  6
BYLAYER
 62
7
 10
374.152622970578
 20
508.11095831762
 40
2
  0
CIRCLE
  8
0
  6
BYLAYER
 62
7
 10
374.152622970578
 20
458.11095831762
 40
2
  0
LINE
  8
0
  6
BYBLOCK
 62
7
 10
331.552622970578
 20
272.329176134695
 11
338.552622970578
 21
272.329176134695
  0
LINE
  8
0
  6
BYBLOCK
 62
7
 10
331.552622970578
 20
330.329176134695
 11
338.552622970578
 21
330.329176134695
  0
LINE
  8
0
  6
BYLAYER
 62
7
 10
331.552622970578
 20
330.329176134695
 11
331.552622970578
 21
272.329176134695
  0
LINE
  8
$DDT_AUDIT_GENERATED__327_
  6
BYLAYER
 62
7
 10
338.552622970578
 20
454.11095831762
 11
331.552622970578
 21
454.11095831762
  0
LINE
  8
$DDT_AUDIT_GENERATED__327_
  6
BYLAYER
 62
7
 10
338.552622970578
 20
512.11095831762
 11
331.552622970578
 21
512.11095831762
  0
LINE
  8
0
  6
BYBLOCK
 62
7
 10
331.552622970578
 20
454.110958317621
 11
338.552622970578
 21
454.110958317621
  0
LINE
  8
0
  6
BYBLOCK
 62
7
 10
331.552622970578
 20
512.11095831762
 11
338.552622970578
 21
512.110958317621
  0
LINE
  8
0
  6
BYLAYER
 62
7
 10
331.552622970578
 20
512.11095831762
 11
331.552622970578
 21
454.110958317621
  0
POLYLINE
  8
0
  6
BYLAYER
 62
7
 66
1
 70
1
  0
VERTEX
  8
0
 10
338.052622970578
 20
318.092632101986
 30
0
  0
VERTEX
  8
0
 10
338.048596323521
 20
318.178419888163
 30
0
  0
VERTEX
  8
0
 10
338.036532596239
 20
318.263862237203
 30
0
  0
VERTEX
  8
0
 10
338.016480365103
 20
318.348615102923
 30
0
  0
VERTEX
  8
0
 10
337.98852037337
 20
318.432337215446
 30
0
  0
VERTEX
  8
0
 10
337.952765206059
 20
318.514691455374
 30
0
  0
VERTEX
  8
0
 10
337.90935883661
 20
318.595346211249
 30
0
  0
VERTEX
  8
0
 10
337.858476047151
 20
318.673976714836
 30
0
  0
VERTEX
  8
0
 10
337.800321724717
 20
318.750266348849
 30
0
  0
VERTEX
  8
0
 10
337.73513003624
 20
318.823907921857
 30
0
  0
VERTEX
  8
0
 10
337.66316348564
 20
318.894604905239
 30
0
  0
VERTEX
  8
0
 10
337.584711856815
 20
318.962072627193
 30
0
  0
VERTEX
  8
0
 10
337.500091046788
 20
319.026039419015
 30
0
  0
VERTEX
  8
0
 10
337.409641793692
 20
319.086247709012
 30
0
  0
VERTEX
  8
0
 10
337.313728304747
 20
319.14245505965
 30
0
  0
VERTEX
  8
0
 10
337.21273678972
 20
319.194435143766
 30
0
  0
VERTEX
  8
0
 10
337.107073905799
 20
319.241978655908
 30
0
  0
VERTEX
  8
0
 10
336.997165120123
 20
319.284894155131
 30
0
  0
VERTEX
  8
0
 10
336.883452996581
 20
319.323008835868
 30
0
  0
VERTEX
  8
0
 10
336.766395413761
 20
319.356169223751
 30
0
  0
VERTEX
  8
0
 10
336.646463721234
 20
319.384241793602
 30
0
  0
VERTEX
  8
0
 10
336.524140841596
 20
319.407113507091
 30
0
  0
VERTEX
  8
0
 10
336.399919325911
 20
319.4246922679
 30
0
  0
VERTEX
  8
0
 10
336.27429937038
 20
319.436907292563
 30
0
  0
VERTEX
  8
0
 10
336.147786802225
 20
319.443709395487
 30
0
  0
VERTEX
  8
0
 10
336.020891042908
 20
319.445071187004
 30
0
  0
VERTEX
  8
0
 10
335.894123056864
 20
319.440987183661
 30
0
  0
VERTEX
  8
0
 10
335.767993294031
 20
319.431473830297
 30
0
  0
VERTEX
  8
0
 10
335.643009634447
 20
319.41656943383
 30
0
  0
VERTEX
  8
0
 10
335.519675343198
 20
319.396334009002
 30
0
  0
VERTEX
  8
0
 10
335.398487043943
 20
319.370849036729
 30
0
  0
VERTEX
  8
0
 10
335.279932719191
 20
319.340217135997
 30
0
  0
VERTEX
  8
0
 10
335.164489745366
 20
319.304561650662
 30
0
  0
VERTEX
  8
0
 10
335.052622970578
 20
319.264026152776
 30
0
  0
VERTEX
  8
0
 10
334.944782842845
 20
319.218773864485
 30
0
  0
VERTEX
  8
0
 10
334.841403596302
 20
319.16898700078
 30
0
  0
VERTEX
  8
0
 10
334.742901502687
 20
319.114866035791
 30
0
  0
VERTEX
  8
0
 10
334.649673195165
 20
319.056628895542
 30
0
  0
VERTEX
  8
0
 10
334.562094071226
 20
318.994510080441
 30
0
  0
VERTEX
  8
0
 10
334.480516781092
 20
318.928759721034
 30
0
  0
VERTEX
  8
0
 10
334.405269807718
 20
318.859642570811
 30
0
  0
VERTEX
  8
0
 10
334.336656144108
 20
318.787436940141
 30
0
  0
VERTEX
  8
0
 10
334.274952073268
 20
318.712433575615
 30
0
  0
VERTEX
  8
0
 10
334.220406055713
 20
318.63493448931
 30
0
  0
VERTEX
  8
0
 10
334.173237729006
 20
318.555251742693
 30
0
  0
VERTEX
  8
0
 10
334.133637023349
 20
318.473706190062
 30
0
  0
VERTEX
  8
0
 10
334.101763396807
 20
318.390626186576
 30
0
  0
VERTEX
  8
0
 10
334.077745193225
 20
318.306346266087
 30
0
  0
VERTEX
  8
0
 10
334.061679125431
 20
318.221205794087
 30
0
  0
VERTEX
  8
0
 10
334.053629885811
 20
318.135547601209
 30
0
  0
VERTEX
  8
0
 10
334.053629885811
 20
318.049716602762
 30
0
  0
VERTEX
  8
0
 10
334.061679125431
 20
317.964058409884
 30
0
  0
VERTEX
  8
0
 10
334.077745193225
 20
317.878917937885
 30
0
  0
VERTEX
  8
0
 10
334.101763396807
 20
317.794638017396
 30
0
  0
VERTEX
  8
0
 10
334.133637023349
 20
317.71155801391
 30
0
  0
VERTEX
  8
0
 10
334.173237729006
 20
317.630012461278
 30
0
  0
VERTEX
  8
0
 10
334.220406055713
 20
317.550329714662
 30
0
  0
VERTEX
  8
0
 10
334.274952073268
 20
317.472830628357
 30
0
  0
VERTEX
  8
0
 10
334.336656144108
 20
317.397827263831
 30
0
  0
VERTEX
  8
0
 10
334.405269807718
 20
317.325621633161
 30
0
  0
VERTEX
  8
0
 10
334.480516781092
 20
317.256504482938
 30
0
  0
VERTEX
  8
0
 10
334.562094071226
 20
317.19075412353
 30
0
  0
VERTEX
  8
0
 10
334.649673195165
 20
317.12863530843
 30
0
  0
VERTEX
  8
0
 10
334.742901502687
 20
317.07039816818
 30
0
  0
VERTEX
  8
0
 10
334.841403596302
 20
317.016277203191
 30
0
  0
VERTEX
  8
0
 10
334.944782842845
 20
316.966490339487
 30
0
  0
VERTEX
  8
0
 10
335.052622970578
 20
316.921238051195
 30
0
  0
VERTEX
  8
0
 10
335.164489745366
 20
316.88070255331
 30
0
  0
VERTEX
  8
0
 10
335.279932719191
 20
316.845047067974
 30
0
  0
VERTEX
  8
0
 10
335.398487043943
 20
316.814415167243
 30
0
  0
VERTEX
  8
0
 10
335.519675343198
 20
316.78893019497
 30
0
  0
VERTEX
  8
0
 10
335.643009634447
 20
316.768694770142
 30
0
  0
VERTEX
  8
0
 10
335.767993294031
 20
316.753790373674
 30
0
  0
VERTEX
  8
0
 10
335.894123056864
 20
316.744277020311
 30
0
  0
VERTEX
  8
0
 10
336.020891042908
 20
316.740193016968
 30
0
  0
VERTEX
  8
0
 10
336.147786802225
 20
316.741554808485
 30
0
  0
VERTEX
  8
0
 10
336.27429937038
 20
316.748356911409
 30
0
  0
VERTEX
  8
0
 10
336.399919325911
 20
316.760571936072
 30
0
  0
VERTEX
  8
0
 10
336.524140841596
 20
316.77815069688
 30
0
  0
VERTEX
  8
0
 10
336.646463721234
 20
316.801022410369
 30
0
  0
VERTEX
  8
0
 10
336.766395413761
 20
316.829094980221
 30
0
  0
VERTEX
  8
0
 10
336.883452996581
 20
316.862255368104
 30
0
  0
VERTEX
  8
0
 10
336.997165120123
 20
316.900370048841
 30
0
  0
VERTEX
  8
0
 10
337.107073905799
 20
316.943285548064
 30
0
  0
VERTEX
  8
0
 10
337.21273678972
 20
316.990829060205
 30
0
  0
VERTEX
  8
0
 10
337.313728304747
 20
317.042809144321
 30
0
  0
VERTEX
  8
0
 10
337.409641793692
 20
317.099016494959
 30
0
  0
VERTEX
  8
0
 10
337.500091046788
 20
317.159224784957
 30
0
  0
VERTEX
  8
0
 10
337.584711856815
 20
317.223191576779
 30
0
  0
VERTEX
  8
0
 10
337.66316348564
 20
317.290659298733
 30
0
  0
VERTEX
  8
0
 10
337.73513003624
 20
317.361356282114
 30
0
  0
VERTEX
  8
0
 10
337.800321724717
 20
317.434997855123
 30
0
  0
VERTEX
  8
0
 10
337.858476047151
 20
317.511287489136
 30
0
  0
VERTEX
  8
0
 10
337.90935883661
 20
317.589917992723
 30
0
  0
VERTEX
  8
0
 10
337.952765206059
 20
317.670572748598
 30
0
  0
VERTEX
  8
0
 10
337.98852037337
 20
317.752926988526
 30
0
  0
VERTEX
  8
0
 10
338.016480365103
 20
317.836649101049
 30
0
  0
VERTEX
  8
0
 10
338.036532596239
 20
317.921401966769
 30
0
  0
VERTEX
  8
0
 10
338.048596323521
 20
318.006844315809
 30
0
  0
VERTEX
  8
0
 10
338.052622970578
 20
318.092632101986
 30
0
  0
SEQEND
  8
0
  0
POLYLINE
  8
0
 62
7
  6
BYLAYER
 10
0.0
 20
0.0
 30
0.0
 66
1
 40
0.4
 41
0.4
  0
VERTEX
  8
0
 10
337.702622970578
  20
318.092632101986
  0
VERTEX
  8
0
 10
337.702048063876
  20
318.127365515764
  0
VERTEX
  8
0
 10
337.70032131694
  20
318.158626901148
  0
VERTEX
  8
0
 10
337.697439689519
  20
318.186946445474
  0
VERTEX
  8
0
 10
337.693400141364
  20
318.212854336079
  0
VERTEX
  8
0
 10
337.688199632226
  20
318.2368807603
  0
VERTEX
  8
0
 10
337.681835121856
  20
318.259555905475
  0
VERTEX
  8
0
 10
337.674303570004
  20
318.281409958939
  0
VERTEX
  8
0
 10
337.665601936422
  20
318.30297310803
  0
VERTEX
  8
0
 10
337.65572718086
  20
318.324775540085
  0
VERTEX
  8
0
 10
337.644705225601
  20
318.347218882743
  0
VERTEX
  8
0
 10
337.632677843054
  20
318.37019052485
  0
VERTEX
  8
0
 10
337.619815768158
  20
318.393449295556
  0
VERTEX
  8
0
 10
337.606289735855
  20
318.416754024011
  0
VERTEX
  8
0
 10
337.592270481086
  20
318.439863539362
  0
VERTEX
  8
0
 10
337.57792873879
  20
318.46253667076
  0
VERTEX
  8
0
 10
337.563435243908
  20
318.484532247353
  0
VERTEX
  8
0
 10
337.548960731382
  20
318.505609098291
  0
VERTEX
  8
0
 10
337.534675936151
  20
318.525526052723
  0
VERTEX
  8
0
 10
337.52067288226
  20
318.544127894766
  0
VERTEX
  8
0
 10
337.506728750173
  20
318.561603228413
  0
VERTEX
  8
0
 10
337.492542009456
  20
318.578226612624
  0
VERTEX
  8
0
 10
337.477811129676
  20
318.594272606359
  0
VERTEX
  8
0
 10
337.462234580401
  20
318.61001576858
  0
VERTEX
  8
0
 10
337.445510831198
  20
318.625730658246
  0
VERTEX
  8
0
 10
337.427338351634
  20
318.64169183432
  0
VERTEX
  8
0
 10
337.407415611275
  20
318.65817385576
  0
VERTEX
  8
0
 10
337.385441079689
  20
318.675451281528
  0
VERTEX
  8
0
 10
337.361232982304
  20
318.693706276739
  0
VERTEX
  8
0
 10
337.335088567984
  20
318.712751431129
  0
VERTEX
  8
0
 10
337.307424841456
  20
318.732306940587
  0
VERTEX
  8
0
 10
337.278658807446
  20
318.752093001003
  0
VERTEX
  8
0
 10
337.249207470678
  20
318.771829808266
  0
VERTEX
  8
0
 10
337.21948783588
  20
318.791237558268
  0
VERTEX
  8
0
 10
337.189916907776
  20
318.810036446898
  0
VERTEX
  8
0
 10
337.160911691093
  20
318.827946670045
  0
VERTEX
  8
0
 10
337.132889190556
  20
318.8446884236
  0
VERTEX
  8
0
 10
337.106117739808
  20
318.86006227408
  0
VERTEX
  8
0
 10
337.080270988163
  20
318.874190270514
  0
VERTEX
  8
0
 10
337.054873913849
  20
318.887274832557
  0
VERTEX
  8
0
 10
337.029451495098
  20
318.899518379865
  0
VERTEX
  8
0
 10
337.003528710139
  20
318.911123332094
  0
VERTEX
  8
0
 10
336.976630537203
  20
318.9222921089
  0
VERTEX
  8
0
 10
336.94828195452
  20
318.933227129938
  0
VERTEX
  8
0
 10
336.91800794032
  20
318.944130814866
  0
VERTEX
  8
0
 10
336.885333472833
  20
318.955205583337
  0
VERTEX
  8
0
 10
336.849959447732
  20
318.966593559875
  0
VERTEX
  8
0
 10
336.812290430462
  20
318.978195688463
  0
VERTEX
  8
0
 10
336.772906903912
  20
318.98985261795
  0
VERTEX
  8
0
 10
336.732389350969
  20
319.001404997187
  0
VERTEX
  8
0
 10
336.691318254522
  20
319.012693475023
  0
VERTEX
  8
0
 10
336.65027409746
  20
319.023558700307
  0
VERTEX
  8
0
 10
336.609837362669
  20
319.03384132189
  0
VERTEX
  8
0
 10
336.570588533038
  20
319.04338198862
  0
VERTEX
  8
0
 10
336.533108091456
  20
319.052021349348
  0
VERTEX
  8
0
 10
336.49776481992
  20
319.05963857699
  0
VERTEX
  8
0
 10
336.464080696868
  20
319.066266940731
  0
VERTEX
  8
0
 10
336.431365999849
  20
319.071978233822
  0
VERTEX
  8
0
 10
336.39893100641
  20
319.076844249515
  0
VERTEX
  8
0
 10
336.366085994098
  20
319.080936781062
  0
VERTEX
  8
0
 10
336.332141240462
  20
319.084327621713
  0
VERTEX
  8
0
 10
336.296407023049
  20
319.087088564721
  0
VERTEX
  8
0
 10
336.258193619408
  20
319.089291403337
  0
VERTEX
  8
0
 10
336.216811307086
  20
319.091007930812
  0
VERTEX
  8
0
 10
336.171810203356
  20
319.092292579316
  0
VERTEX
  8
0
 10
336.123699784385
  20
319.093130336689
  0
VERTEX
  8
0
 10
336.07322936607
  20
319.093488829686
  0
VERTEX
  8
0
 10
336.021148264302
  20
319.093335685067
  0
VERTEX
  8
0
 10
335.968205794975
  20
319.092638529588
  0
VERTEX
  8
0
 10
335.915151273984
  20
319.091364990006
  0
VERTEX
  8
0
 10
335.862734017222
  20
319.089482693078
  0
VERTEX
  8
0
 10
335.811703340582
  20
319.086959265562
  0
VERTEX
  8
0
 10
335.762808559958
  20
319.083762334216
  0
VERTEX
  8
0
 10
335.71657355771
  20
319.079843711759
  0
VERTEX
  8
0
 10
335.67262048206
  20
319.075091954774
  0
VERTEX
  8
0
 10
335.630346047697
  20
319.069379805802
  0
VERTEX
  8
0
 10
335.589146969311
  20
319.06258000739
  0
VERTEX
  8
0
 10
335.548419961589
  20
319.05456530208
  0
VERTEX
  8
0
 10
335.507561739221
  20
319.045208432416
  0
VERTEX
  8
0
 10
335.465969016896
  20
319.034382140944
  0
VERTEX
  8
0
 10
335.423038509302
  20
319.021959170207
  0
VERTEX
  8
0
 10
335.378166931128
  20
319.007812262749
  0
VERTEX
  8
0
 10
335.330970434028
  20
318.991883640919
  0
VERTEX
  8
0
 10
335.281942917511
  20
318.974393446284
  0
VERTEX
  8
0
 10
335.231797718054
  20
318.955631300217
  0
VERTEX
  8
0
 10
335.181248172129
  20
318.935886824088
  0
VERTEX
  8
0
 10
335.131007616213
  20
318.91544963927
  0
VERTEX
  8
0
 10
335.08178938678
  20
318.894609367135
  0
VERTEX
  8
0
 10
335.034306820306
  20
318.873655629055
  0
VERTEX
  8
0
 10
334.989273253265
  20
318.852878046401
  0
VERTEX
  8
0
 10
334.947402022131
  20
318.832566240545
  0
VERTEX
  8
0
 10
334.909211658328
  20
318.812918513703
  0
VERTEX
  8
0
 10
334.87444147307
  20
318.793767891464
  0
VERTEX
  8
0
 10
334.842635972518
  20
318.774856080261
  0
VERTEX
  8
0
 10
334.813339662834
  20
318.755924786526
  0
VERTEX
  8
0
 10
334.78609705018
  20
318.736715716691
  0
VERTEX
  8
0
 10
334.760452640718
  20
318.716970577191
  0
VERTEX
  8
0
 10
334.73595094061
  20
318.696431074456
  0
VERTEX
  8
0
 10
334.712136456016
  20
318.67483891492
  0
VERTEX
  8
0
 10
334.6885536931
  20
318.651935805016
  0
VERTEX
  8
0
 10
334.664866425128
  20
318.627570818931
  0
VERTEX
  8
0
 10
334.64121549379
  20
318.602022501872
  0
VERTEX
  8
0
 10
334.617861007884
  20
318.575676766801
  0
VERTEX
  8
0
 10
334.595063076204
  20
318.548919526681
  0
VERTEX
  8
0
 10
334.573081807546
  20
318.522136694474
  0
VERTEX
  8
0
 10
334.552177310707
  20
318.495714183142
  0
VERTEX
  8
0
 10
334.532609694482
  20
318.470037905646
  0
VERTEX
  8
0
 10
334.514639067668
  20
318.44549377495
  0
VERTEX
  8
0
 10
334.498525539059
  20
318.422467704015
  0
VERTEX
  8
0
 10
334.484451966362
  20
318.401220376225
  0
VERTEX
  8
0
 10
334.47229220292
  20
318.381511556657
  0
VERTEX
  8
0
 10
334.461842850985
  20
318.362975780806
  0
VERTEX
  8
0
 10
334.452900512809
  20
318.345247584169
  0
VERTEX
  8
0
 10
334.445261790645
  20
318.327961502244
  0
VERTEX
  8
0
 10
334.438723286745
  20
318.310752070527
  0
VERTEX
  8
0
 10
334.433081603361
  20
318.293253824517
  0
VERTEX
  8
0
 10
334.428133342747
  20
318.275101299709
  0
VERTEX
  8
0
 10
334.423675107154
  20
318.255929031601
  0
VERTEX
  8
0
 10
334.419543094729
  20
318.235485057511
  0
VERTEX
  8
0
 10
334.415731887198
  20
318.213971422039
  0
VERTEX
  8
0
 10
334.412275662182
  20
318.191703671606
  0
VERTEX
  8
0
 10
334.409208597301
  20
318.168997352635
  0
VERTEX
  8
0
 10
334.406564870174
  20
318.146168011547
  0
VERTEX
  8
0
 10
334.404378658422
  20
318.123531194763
  0
VERTEX
  8
0
 10
334.402684139666
  20
318.101402448704
  0
VERTEX
  8
0
 10
334.401515491525
  20
318.080097319793
  0
VERTEX
  8
0
 10
334.40090689162
  20
318.05993135445
  0
VERTEX
  8
0
 10
334.40090024148
  20
318.04111157245
  0
VERTEX
  8
0
 10
334.401568338264
  20
318.02341088698
  0
VERTEX
  8
0
 10
334.402991703041
  20
318.006493684577
  0
VERTEX
  8
0
 10
334.405250856879
  20
317.990024351782
  0
VERTEX
  8
0
 10
334.408426320848
  20
317.973667275133
  0
VERTEX
  8
0
 10
334.412598616014
  20
317.957086841169
  0
VERTEX
  8
0
 10
334.417848263447
  20
317.93994743643
  0
VERTEX
  8
0
 10
334.424255784215
  20
317.921913447454
  0
VERTEX
  8
0
 10
334.431901699387
  20
317.902649260782
  0
VERTEX
  8
0
 10
334.44082456293
  20
317.881931157759
  0
VERTEX
  8
0
 10
334.450895060413
  20
317.859982998973
  0
VERTEX
  8
0
 10
334.461941910303
  20
317.837140539815
  0
VERTEX
  8
0
 10
334.473793831067
  20
317.813739535679
  0
VERTEX
  8
0
 10
334.486279541174
  20
317.790115741959
  0
VERTEX
  8
0
 10
334.49922775909
  20
317.766604914048
  0
VERTEX
  8
0
 10
334.512467203284
  20
317.743542807341
  0
VERTEX
  8
0
 10
334.525826592223
  20
317.721265177229
  0
VERTEX
  8
0
 10
334.539134644374
  20
317.700107779108
  0
VERTEX
  8
0
 10
334.552298559316
  20
317.680301756098
  0
VERTEX
  8
0
 10
334.565539461073
  20
317.661659802234
  0
VERTEX
  8
0
 10
334.57915695478
  20
317.643889999276
  0
VERTEX
  8
0
 10
334.59345064557
  20
317.626700428986
  0
VERTEX
  8
0
 10
334.608720138579
  20
317.609799173126
  0
VERTEX
  8
0
 10
334.625265038941
  20
317.592894313457
  0
VERTEX
  8
0
 10
334.643384951791
  20
317.575693931741
  0
VERTEX
  8
0
 10
334.663379482263
  20
317.55790610974
  0
VERTEX
  8
0
 10
334.685548235493
  20
317.539238929215
  0
VERTEX
  8
0
 10
334.710069690373
  20
317.519499758304
  0
VERTEX
  8
0
 10
334.736637820838
  20
317.498893110649
  0
VERTEX
  8
0
 10
334.764825474581
  20
317.477722786269
  0
VERTEX
  8
0
 10
334.794205499294
  20
317.456292585183
  0
VERTEX
  8
0
 10
334.82435074267
  20
317.43490630741
  0
VERTEX
  8
0
 10
334.854834052404
  20
317.413867752968
  0
VERTEX
  8
0
 10
334.885228276186
  20
317.393480721876
  0
VERTEX
  8
0
 10
334.915106261711
  20
317.374049014152
  0
VERTEX
  8
0
 10
334.944040856672
  20
317.355876429816
  0
VERTEX
  8
0
 10
334.971758333383
  20
317.339180130461
  0
VERTEX
  8
0
 10
334.99859866265
  20
317.323830723974
  0
VERTEX
  8
0
 10
335.025055239902
  20
317.30961217982
  0
VERTEX
  8
0
 10
335.051621460564
  20
317.29630846746
  0
VERTEX
  8
0
 10
335.078790720064
  20
317.283703556357
  0
VERTEX
  8
0
 10
335.107056413831
  20
317.271581415976
  0
VERTEX
  8
0
 10
335.136911937292
  20
317.259726015777
  0
VERTEX
  8
0
 10
335.168850685875
  20
317.247921325225
  0
VERTEX
  8
0
 10
335.203366055006
  20
317.235951313782
  0
VERTEX
  8
0
 10
335.240766641976
  20
317.223664433391
  0
VERTEX
  8
0
 10
335.280621851522
  20
317.211167065909
  0
VERTEX
  8
0
 10
335.322316290242
  20
317.198630075674
  0
VERTEX
  8
0
 10
335.365234564735
  20
317.186224327025
  0
VERTEX
  8
0
 10
335.408761281601
  20
317.174120684299
  0
VERTEX
  8
0
 10
335.452281047438
  20
317.162490011834
  0
VERTEX
  8
0
 10
335.495178468845
  20
317.151503173968
  0
VERTEX
  8
0
 10
335.536838152422
  20
317.141331035039
  0
VERTEX
  8
0
 10
335.576644704766
  20
317.132144459384
  0
VERTEX
  8
0
 10
335.614201802616
  20
317.124074018977
  0
VERTEX
  8
0
 10
335.649989403256
  20
317.117089116338
  0
VERTEX
  8
0
 10
335.684706534112
  20
317.11111886162
  0
VERTEX
  8
0
 10
335.719052222606
  20
317.106092364979
  0
VERTEX
  8
0
 10
335.753725496163
  20
317.10193873657
  0
VERTEX
  8
0
 10
335.789425382207
  20
317.098587086546
  0
VERTEX
  8
0
 10
335.826850908161
  20
317.095966525064
  0
VERTEX
  8
0
 10
335.86670110145
  20
317.094006162278
  0
VERTEX
  8
0
 10
335.909674989497
  20
317.092635108343
  0
VERTEX
  8
0
 10
335.956227130988
  20
317.091796827627
  0
VERTEX
  8
0
 10
336.005834209657
  20
317.09149220136
  0
VERTEX
  8
0
 10
336.057728440499
  20
317.091736464981
  0
VERTEX
  8
0
 10
336.111142038509
  20
317.092544853934
  0
VERTEX
  8
0
 10
336.165307218682
  20
317.093932603659
  0
VERTEX
  8
0
 10
336.219456196014
  20
317.0959149496
  0
VERTEX
  8
0
 10
336.272821185499
  20
317.098507127198
  0
VERTEX
  8
0
 10
336.324634402134
  20
317.101724371894
  0
VERTEX
  8
0
 10
336.374128060912
  20
317.105581919131
  0
VERTEX
  8
0
 10
336.420765322454
  20
317.110114829893
  0
VERTEX
  8
0
 10
336.464933129871
  20
317.115437467334
  0
VERTEX
  8
0
 10
336.5072493719
  20
317.121684020151
  0
VERTEX
  8
0
 10
336.548331937278
  20
317.12898867704
  0
VERTEX
  8
0
 10
336.58879871474
  20
317.137485626699
  0
VERTEX
  8
0
 10
336.629267593022
  20
317.147309057822
  0
VERTEX
  8
0
 10
336.670356460861
  20
317.158593159108
  0
VERTEX
  8
0
 10
336.712683206994
  20
317.171472119253
  0
VERTEX
  8
0
 10
336.756865720155
  20
317.186080126953
  0
VERTEX
  8
0
 10
336.803302163973
  20
317.202479642237
  0
VERTEX
  8
0
 10
336.851511801635
  20
317.220446210468
  0
VERTEX
  8
0
 10
336.900794171219
  20
317.239683648338
  0
VERTEX
  8
0
 10
336.950448810805
  20
317.259895772541
  0
VERTEX
  8
0
 10
336.999775258471
  20
317.28078639977
  0
VERTEX
  8
0
 10
337.048073052296
  20
317.302059346721
  0
VERTEX
  8
0
 10
337.094641730358
  20
317.323418430086
  0
VERTEX
  8
0
 10
337.138780830736
  20
317.344567466558
  0
VERTEX
  8
0
 10
337.179789891509
  20
317.365210272833
  0
VERTEX
  8
0
 10
337.217162857565
  20
317.385147806963
  0
VERTEX
  8
0
 10
337.251171301035
  20
317.404569592442
  0
VERTEX
  8
0
 10
337.28228120086
  20
317.423762294125
  0
VERTEX
  8
0
 10
337.310958535978
  20
317.443012576864
  0
VERTEX
  8
0
 10
337.337669285332
  20
317.462607105513
  0
VERTEX
  8
0
 10
337.362879427861
  20
317.482832544926
  0
VERTEX
  8
0
 10
337.387054942507
  20
317.503975559957
  0
VERTEX
  8
0
 10
337.410661808209
  20
317.52632281546
  0
VERTEX
  8
0
 10
337.434166003907
  20
317.550160976287
  0
VERTEX
  8
0
 10
337.457913011641
  20
317.575676218523
  0
VERTEX
  8
0
 10
337.481766325834
  20
317.602652763165
  0
VERTEX
  8
0
 10
337.505468944012
  20
317.630774342441
  0
VERTEX
  8
0
 10
337.528763863697
  20
317.65972468858
  0
VERTEX
  8
0
 10
337.551394082411
  20
317.68918753381
  0
VERTEX
  8
0
 10
337.573102597679
  20
317.718846610357
  0
VERTEX
  8
0
 10
337.593632407024
  20
317.748385650451
  0
VERTEX
  8
0
 10
337.612726507968
  20
317.777488386319
  0
VERTEX
  8
0
 10
337.630127898036
  20
317.80583855019
  0
VERTEX
  8
0
 10
337.645626844927
  20
317.833281317361
  0
VERTEX
  8
0
 10
337.659202697059
  20
317.860307635421
  0
VERTEX
  8
0
 10
337.670882073025
  20
317.887569895027
  0
VERTEX
  8
0
 10
337.680691591418
  20
317.915720486837
  0
VERTEX
  8
0
 10
337.688657870832
  20
317.94541180151
  0
VERTEX
  8
0
 10
337.694807529862
  20
317.977296229703
  0
VERTEX
  8
0
 10
337.6991671871
  20
318.012026162074
  0
VERTEX
  8
0
 10
337.70176346114
  20
318.050253989283
  0
VERTEX
  8
0
 10
337.702622970578
  20
318.092632101986
  0
SEQEND
100
AcDbEntity
  8
0
  0
POLYLINE
  8
0
  6
BYLAYER
 62
7
 66
1
 70
1
  0
VERTEX
  8
0
 10
338.052622970578
 20
467.34750235033
 30
0
  0
VERTEX
  8
0
 10
338.048596323521
 20
467.433290136506
 30
0
  0
VERTEX
  8
0
 10
338.036532596239
 20
467.518732485547
 30
0
  0
VERTEX
  8
0
 10
338.016480365103
 20
467.603485351267
 30
0
  0
VERTEX
  8
0
 10
337.98852037337
 20
467.68720746379
 30
0
  0
VERTEX
  8
0
 10
337.952765206059
 20
467.769561703718
 30
0
  0
VERTEX
  8
0
 10
337.90935883661
 20
467.850216459593
 30
0
  0
VERTEX
  8
0
 10
337.858476047151
 20
467.92884696318
 30
0
  0
VERTEX
  8
0
 10
337.800321724717
 20
468.005136597193
 30
0
  0
VERTEX
  8
0
 10
337.73513003624
 20
468.078778170201
 30
0
  0
VERTEX
  8
0
 10
337.66316348564
 20
468.149475153583
 30
0
  0
VERTEX
  8
0
 10
337.584711856815
 20
468.216942875537
 30
0
  0
VERTEX
  8
0
 10
337.500091046788
 20
468.280909667359
 30
0
  0
VERTEX
  8
0
 10
337.409641793692
 20
468.341117957356
 30
0
  0
VERTEX
  8
0
 10
337.313728304747
 20
468.397325307994
 30
0
  0
VERTEX
  8
0
 10
337.21273678972
 20
468.44930539211
 30
0
  0
VERTEX
  8
0
 10
337.107073905799
 20
468.496848904252
 30
0
  0
VERTEX
  8
0
 10
336.997165120123
 20
468.539764403475
 30
0
  0
VERTEX
  8
0
 10
336.883452996581
 20
468.577879084212
 30
0
  0
VERTEX
  8
0
 10
336.766395413761
 20
468.611039472095
 30
0
  0
VERTEX
  8
0
 10
336.646463721234
 20
468.639112041947
 30
0
  0
VERTEX
  8
0
 10
336.524140841596
 20
468.661983755435
 30
0
  0
VERTEX
  8
0
 10
336.399919325911
 20
468.679562516244
 30
0
  0
VERTEX
  8
0
 10
336.27429937038
 20
468.691777540907
 30
0
  0
VERTEX
  8
0
 10
336.147786802225
 20
468.698579643831
 30
0
  0
VERTEX
  8
0
 10
336.020891042908
 20
468.699941435348
 30
0
  0
VERTEX
  8
0
 10
335.894123056864
 20
468.695857432005
 30
0
  0
VERTEX
  8
0
 10
335.767993294031
 20
468.686344078641
 30
0
  0
VERTEX
  8
0
 10
335.643009634447
 20
468.671439682174
 30
0
  0
VERTEX
  8
0
 10
335.519675343198
 20
468.651204257346
 30
0
  0
VERTEX
  8
0
 10
335.398487043943
 20
468.625719285073
 30
0
  0
VERTEX
  8
0
 10
335.279932719191
 20
468.595087384341
 30
0
  0
VERTEX
  8
0
 10
335.164489745366
 20
468.559431899006
 30
0
  0
VERTEX
  8
0
 10
335.052622970578
 20
468.518896401121
 30
0
  0
VERTEX
  8
0
 10
334.944782842845
 20
468.473644112829
 30
0
  0
VERTEX
  8
0
 10
334.841403596302
 20
468.423857249125
 30
0
  0
VERTEX
  8
0
 10
334.742901502687
 20
468.369736284135
 30
0
  0
VERTEX
  8
0
 10
334.649673195165
 20
468.311499143886
 30
0
  0
VERTEX
  8
0
 10
334.562094071226
 20
468.249380328786
 30
0
  0
VERTEX
  8
0
 10
334.480516781092
 20
468.183629969378
 30
0
  0
VERTEX
  8
0
 10
334.405269807718
 20
468.114512819155
 30
0
  0
VERTEX
  8
0
 10
334.336656144108
 20
468.042307188485
 30
0
  0
VERTEX
  8
0
 10
334.274952073268
 20
467.967303823959
 30
0
  0
VERTEX
  8
0
 10
334.220406055713
 20
467.889804737654
 30
0
  0
VERTEX
  8
0
 10
334.173237729006
 20
467.810121991037
 30
0
  0
VERTEX
  8
0
 10
334.133637023349
 20
467.728576438406
 30
0
  0
VERTEX
  8
0
 10
334.101763396807
 20
467.64549643492
 30
0
  0
VERTEX
  8
0
 10
334.077745193225
 20
467.561216514431
 30
0
  0
VERTEX
  8
0
 10
334.061679125431
 20
467.476076042431
 30
0
  0
VERTEX
  8
0
 10
334.053629885811
 20
467.390417849553
 30
0
  0
VERTEX
  8
0
 10
334.053629885811
 20
467.304586851106
 30
0
  0
VERTEX
  8
0
 10
334.061679125431
 20
467.218928658228
 30
0
  0
VERTEX
  8
0
 10
334.077745193225
 20
467.133788186229
 30
0
  0
VERTEX
  8
0
 10
334.101763396807
 20
467.049508265739
 30
0
  0
VERTEX
  8
0
 10
334.133637023349
 20
466.966428262253
 30
0
  0
VERTEX
  8
0
 10
334.173237729006
 20
466.884882709622
 30
0
  0
VERTEX
  8
0
 10
334.220406055713
 20
466.805199963006
 30
0
  0
VERTEX
  8
0
 10
334.274952073268
 20
466.7277008767
 30
0
  0
VERTEX
  8
0
 10
334.336656144108
 20
466.652697512174
 30
0
  0
VERTEX
  8
0
 10
334.405269807718
 20
466.580491881505
 30
0
  0
VERTEX
  8
0
 10
334.480516781092
 20
466.511374731281
 30
0
  0
VERTEX
  8
0
 10
334.562094071226
 20
466.445624371874
 30
0
  0
VERTEX
  8
0
 10
334.649673195165
 20
466.383505556773
 30
0
  0
VERTEX
  8
0
 10
334.742901502687
 20
466.325268416524
 30
0
  0
VERTEX
  8
0
 10
334.841403596302
 20
466.271147451535
 30
0
  0
VERTEX
  8
0
 10
334.944782842845
 20
466.22136058783
 30
0
  0
VERTEX
  8
0
 10
335.052622970578
 20
466.176108299539
 30
0
  0
VERTEX
  8
0
 10
335.164489745366
 20
466.135572801654
 30
0
  0
VERTEX
  8
0
 10
335.279932719191
 20
466.099917316318
 30
0
  0
VERTEX
  8
0
 10
335.398487043943
 20
466.069285415587
 30
0
  0
VERTEX
  8
0
 10
335.519675343198
 20
466.043800443313
 30
0
  0
VERTEX
  8
0
 10
335.643009634447
 20
466.023565018486
 30
0
  0
VERTEX
  8
0
 10
335.767993294031
 20
466.008660622018
 30
0
  0
VERTEX
  8
0
 10
335.894123056864
 20
465.999147268655
 30
0
  0
VERTEX
  8
0
 10
336.020891042908
 20
465.995063265311
 30
0
  0
VERTEX
  8
0
 10
336.147786802225
 20
465.996425056829
 30
0
  0
VERTEX
  8
0
 10
336.27429937038
 20
466.003227159753
 30
0
  0
VERTEX
  8
0
 10
336.399919325911
 20
466.015442184415
 30
0
  0
VERTEX
  8
0
 10
336.524140841596
 20
466.033020945224
 30
0
  0
VERTEX
  8
0
 10
336.646463721234
 20
466.055892658713
 30
0
  0
VERTEX
  8
0
 10
336.766395413761
 20
466.083965228564
 30
0
  0
VERTEX
  8
0
 10
336.883452996581
 20
466.117125616448
 30
0
  0
VERTEX
  8
0
 10
336.997165120123
 20
466.155240297184
 30
0
  0
VERTEX
  8
0
 10
337.107073905799
 20
466.198155796408
 30
0
  0
VERTEX
  8
0
 10
337.21273678972
 20
466.245699308549
 30
0
  0
VERTEX
  8
0
 10
337.313728304747
 20
466.297679392665
 30
0
  0
VERTEX
  8
0
 10
337.409641793692
 20
466.353886743303
 30
0
  0
VERTEX
  8
0
 10
337.500091046788
 20
466.4140950333
 30
0
  0
VERTEX
  8
0
 10
337.584711856815
 20
466.478061825123
 30
0
  0
VERTEX
  8
0
 10
337.66316348564
 20
466.545529547077
 30
0
  0
VERTEX
  8
0
 10
337.73513003624
 20
466.616226530458
 30
0
  0
VERTEX
  8
0
 10
337.800321724717
 20
466.689868103467
 30
0
  0
VERTEX
  8
0
 10
337.858476047151
 20
466.76615773748
 30
0
  0
VERTEX
  8
0
 10
337.90935883661
 20
466.844788241066
 30
0
  0
VERTEX
  8
0
 10
337.952765206059
 20
466.925442996942
 30
0
  0
VERTEX
  8
0
 10
337.98852037337
 20
467.00779723687
 30
0
  0
VERTEX
  8
0
 10
338.016480365103
 20
467.091519349393
 30
0
  0
VERTEX
  8
0
 10
338.036532596239
 20
467.176272215113
 30
0
  0
VERTEX
  8
0
 10
338.048596323521
 20
467.261714564153
 30
0
  0
VERTEX
  8
0
 10
338.052622970578
 20
467.34750235033
 30
0
  0
SEQEND
  8
0
  0
POLYLINE
  8
0
 62
7
  6
BYLAYER
 10
0.0
 20
0.0
 30
0.0
 66
1
 40
0.4
 41
0.4
  0
VERTEX
  8
0
 10
337.702622970578
  20
467.34750235033
  0
VERTEX
  8
0
 10
337.702048063876
  20
467.312768936551
  0
VERTEX
  8
0
 10
337.70032131694
  20
467.281507551168
  0
VERTEX
  8
0
 10
337.697439689519
  20
467.253188006842
  0
VERTEX
  8
0
 10
337.693400141364
  20
467.227280116236
  0
VERTEX
  8
0
 10
337.688199632226
  20
467.203253692015
  0
VERTEX
  8
0
 10
337.681835121856
  20
467.180578546841
  0
VERTEX
  8
0
 10
337.674303570004
  20
467.158724493376
  0
VERTEX
  8
0
 10
337.665601936422
  20
467.137161344285
  0
VERTEX
  8
0
 10
337.65572718086
  20
467.11535891223
  0
VERTEX
  8
0
 10
337.644705225601
  20
467.092915569573
  0
VERTEX
  8
0
 10
337.632677843054
  20
467.069943927465
  0
VERTEX
  8
0
 10
337.619815768158
  20
467.046685156759
  0
VERTEX
  8
0
 10
337.606289735855
  20
467.023380428305
  0
VERTEX
  8
0
 10
337.592270481086
  20
467.000270912953
  0
VERTEX
  8
0
 10
337.57792873879
  20
466.977597781555
  0
VERTEX
  8
0
 10
337.563435243908
  20
466.955602204961
  0
VERTEX
  8
0
 10
337.548960731382
  20
466.934525354023
  0
VERTEX
  8
0
 10
337.534675936151
  20
466.914608399592
  0
VERTEX
  8
0
 10
337.52067288226
  20
466.896006557548
  0
VERTEX
  8
0
 10
337.506728750173
  20
466.878531223902
  0
VERTEX
  8
0
 10
337.492542009456
  20
466.861907839691
  0
VERTEX
  8
0
 10
337.477811129676
  20
466.845861845955
  0
VERTEX
  8
0
 10
337.462234580401
  20
466.830118683735
  0
VERTEX
  8
0
 10
337.445510831198
  20
466.814403794068
  0
VERTEX
  8
0
 10
337.427338351634
  20
466.798442617995
  0
VERTEX
  8
0
 10
337.407415611275
  20
466.781960596555
  0
VERTEX
  8
0
 10
337.385441079689
  20
466.764683170787
  0
VERTEX
  8
0
 10
337.361232982304
  20
466.746428175575
  0
VERTEX
  8
0
 10
337.335088567984
  20
466.727383021186
  0
VERTEX
  8
0
 10
337.307424841456
  20
466.707827511728
  0
VERTEX
  8
0
 10
337.278658807446
  20
466.688041451312
  0
VERTEX
  8
0
 10
337.249207470678
  20
466.668304644049
  0
VERTEX
  8
0
 10
337.21948783588
  20
466.648896894047
  0
VERTEX
  8
0
 10
337.189916907776
  20
466.630098005417
  0
VERTEX
  8
0
 10
337.160911691093
  20
466.61218778227
  0
VERTEX
  8
0
 10
337.132889190556
  20
466.595446028715
  0
VERTEX
  8
0
 10
337.106117739808
  20
466.580072178235
  0
VERTEX
  8
0
 10
337.080270988163
  20
466.565944181801
  0
VERTEX
  8
0
 10
337.054873913849
  20
466.552859619758
  0
VERTEX
  8
0
 10
337.029451495098
  20
466.54061607245
  0
VERTEX
  8
0
 10
337.003528710139
  20
466.529011120221
  0
VERTEX
  8
0
 10
336.976630537203
  20
466.517842343416
  0
VERTEX
  8
0
 10
336.94828195452
  20
466.506907322377
  0
VERTEX
  8
0
 10
336.91800794032
  20
466.49600363745
  0
VERTEX
  8
0
 10
336.885333472833
  20
466.484928868978
  0
VERTEX
  8
0
 10
336.849959447732
  20
466.47354089244
  0
VERTEX
  8
0
 10
336.812290430462
  20
466.461938763852
  0
VERTEX
  8
0
 10
336.772906903912
  20
466.450281834365
  0
VERTEX
  8
0
 10
336.732389350969
  20
466.438729455128
  0
VERTEX
  8
0
 10
336.691318254522
  20
466.427440977293
  0
VERTEX
  8
0
 10
336.65027409746
  20
466.416575752008
  0
VERTEX
  8
0
 10
336.609837362669
  20
466.406293130426
  0
VERTEX
  8
0
 10
336.570588533038
  20
466.396752463695
  0
VERTEX
  8
0
 10
336.533108091456
  20
466.388113102967
  0
VERTEX
  8
0
 10
336.49776481992
  20
466.380495875325
  0
VERTEX
  8
0
 10
336.464080696868
  20
466.373867511584
  0
VERTEX
  8
0
 10
336.431365999849
  20
466.368156218492
  0
VERTEX
  8
0
 10
336.39893100641
  20
466.363290202799
  0
VERTEX
  8
0
 10
336.366085994098
  20
466.359197671253
  0
VERTEX
  8
0
 10
336.332141240462
  20
466.355806830601
  0
VERTEX
  8
0
 10
336.296407023049
  20
466.353045887593
  0
VERTEX
  8
0
 10
336.258193619408
  20
466.350843048978
  0
VERTEX
  8
0
 10
336.216811307086
  20
466.349126521503
  0
VERTEX
  8
0
 10
336.171810203356
  20
466.347841872999
  0
VERTEX
  8
0
 10
336.123699784385
  20
466.347004115626
  0
VERTEX
  8
0
 10
336.07322936607
  20
466.346645622629
  0
VERTEX
  8
0
 10
336.021148264302
  20
466.346798767248
  0
VERTEX
  8
0
 10
335.968205794975
  20
466.347495922727
  0
VERTEX
  8
0
 10
335.915151273984
  20
466.34876946231
  0
VERTEX
  8
0
 10
335.862734017222
  20
466.350651759237
  0
VERTEX
  8
0
 10
335.811703340582
  20
466.353175186753
  0
VERTEX
  8
0
 10
335.762808559958
  20
466.3563721181
  0
VERTEX
  8
0
 10
335.71657355771
  20
466.360290740556
  0
VERTEX
  8
0
 10
335.67262048206
  20
466.365042497542
  0
VERTEX
  8
0
 10
335.630346047697
  20
466.370754646513
  0
VERTEX
  8
0
 10
335.589146969311
  20
466.377554444926
  0
VERTEX
  8
0
 10
335.548419961589
  20
466.385569150236
  0
VERTEX
  8
0
 10
335.507561739221
  20
466.394926019899
  0
VERTEX
  8
0
 10
335.465969016896
  20
466.405752311372
  0
VERTEX
  8
0
 10
335.423038509302
  20
466.418175282109
  0
VERTEX
  8
0
 10
335.378166931128
  20
466.432322189567
  0
VERTEX
  8
0
 10
335.330970434028
  20
466.448250811396
  0
VERTEX
  8
0
 10
335.281942917511
  20
466.465741006031
  0
VERTEX
  8
0
 10
335.231797718054
  20
466.484503152099
  0
VERTEX
  8
0
 10
335.181248172129
  20
466.504247628227
  0
VERTEX
  8
0
 10
335.131007616213
  20
466.524684813045
  0
VERTEX
  8
0
 10
335.08178938678
  20
466.54552508518
  0
VERTEX
  8
0
 10
335.034306820306
  20
466.56647882326
  0
VERTEX
  8
0
 10
334.989273253265
  20
466.587256405914
  0
VERTEX
  8
0
 10
334.947402022131
  20
466.60756821177
  0
VERTEX
  8
0
 10
334.909211658328
  20
466.627215938612
  0
VERTEX
  8
0
 10
334.87444147307
  20
466.646366560851
  0
VERTEX
  8
0
 10
334.842635972518
  20
466.665278372054
  0
VERTEX
  8
0
 10
334.813339662834
  20
466.684209665789
  0
VERTEX
  8
0
 10
334.78609705018
  20
466.703418735624
  0
VERTEX
  8
0
 10
334.760452640718
  20
466.723163875125
  0
VERTEX
  8
0
 10
334.73595094061
  20
466.743703377859
  0
VERTEX
  8
0
 10
334.712136456016
  20
466.765295537395
  0
VERTEX
  8
0
 10
334.6885536931
  20
466.788198647299
  0
VERTEX
  8
0
 10
334.664866425128
  20
466.812563633385
  0
VERTEX
  8
0
 10
334.64121549379
  20
466.838111950444
  0
VERTEX
  8
0
 10
334.617861007884
  20
466.864457685514
  0
VERTEX
  8
0
 10
334.595063076204
  20
466.891214925634
  0
VERTEX
  8
0
 10
334.573081807546
  20
466.917997757842
  0
VERTEX
  8
0
 10
334.552177310707
  20
466.944420269174
  0
VERTEX
  8
0
 10
334.532609694482
  20
466.970096546669
  0
VERTEX
  8
0
 10
334.514639067668
  20
466.994640677366
  0
VERTEX
  8
0
 10
334.498525539059
  20
467.017666748301
  0
VERTEX
  8
0
 10
334.484451966362
  20
467.03891407609
  0
VERTEX
  8
0
 10
334.47229220292
  20
467.058622895658
  0
VERTEX
  8
0
 10
334.461842850985
  20
467.07715867151
  0
VERTEX
  8
0
 10
334.452900512809
  20
467.094886868146
  0
VERTEX
  8
0
 10
334.445261790645
  20
467.112172950071
  0
VERTEX
  8
0
 10
334.438723286745
  20
467.129382381788
  0
VERTEX
  8
0
 10
334.433081603361
  20
467.146880627798
  0
VERTEX
  8
0
 10
334.428133342747
  20
467.165033152606
  0
VERTEX
  8
0
 10
334.423675107154
  20
467.184205420714
  0
VERTEX
  8
0
 10
334.419543094729
  20
467.204649394804
  0
VERTEX
  8
0
 10
334.415731887198
  20
467.226163030276
  0
VERTEX
  8
0
 10
334.412275662182
  20
467.248430780709
  0
VERTEX
  8
0
 10
334.409208597301
  20
467.27113709968
  0
VERTEX
  8
0
 10
334.406564870174
  20
467.293966440768
  0
VERTEX
  8
0
 10
334.404378658422
  20
467.316603257552
  0
VERTEX
  8
0
 10
334.402684139666
  20
467.338732003611
  0
VERTEX
  8
0
 10
334.401515491525
  20
467.360037132522
  0
VERTEX
  8
0
 10
334.40090689162
  20
467.380203097865
  0
VERTEX
  8
0
 10
334.40090024148
  20
467.399022879865
  0
VERTEX
  8
0
 10
334.401568338264
  20
467.416723565336
  0
VERTEX
  8
0
 10
334.402991703041
  20
467.433640767738
  0
VERTEX
  8
0
 10
334.405250856879
  20
467.450110100534
  0
VERTEX
  8
0
 10
334.408426320848
  20
467.466467177183
  0
VERTEX
  8
0
 10
334.412598616014
  20
467.483047611146
  0
VERTEX
  8
0
 10
334.417848263447
  20
467.500187015885
  0
VERTEX
  8
0
 10
334.424255784215
  20
467.518221004861
  0
VERTEX
  8
0
 10
334.431901699387
  20
467.537485191534
  0
VERTEX
  8
0
 10
334.44082456293
  20
467.558203294555
  0
VERTEX
  8
0
 10
334.450895060413
  20
467.580151453342
  0
VERTEX
  8
0
 10
334.461941910303
  20
467.602993912501
  0
VERTEX
  8
0
 10
334.473793831067
  20
467.626394916636
  0
VERTEX
  8
0
 10
334.486279541174
  20
467.650018710356
  0
VERTEX
  8
0
 10
334.49922775909
  20
467.673529538267
  0
VERTEX
  8
0
 10
334.512467203284
  20
467.696591644974
  0
VERTEX
  8
0
 10
334.525826592223
  20
467.718869275085
  0
VERTEX
  8
0
 10
334.539134644374
  20
467.740026673207
  0
VERTEX
  8
0
 10
334.552298559316
  20
467.759832696216
  0
VERTEX
  8
0
 10
334.565539461073
  20
467.778474650081
  0
VERTEX
  8
0
 10
334.57915695478
  20
467.796244453039
  0
VERTEX
  8
0
 10
334.59345064557
  20
467.813434023329
  0
VERTEX
  8
0
 10
334.608720138579
  20
467.830335279189
  0
VERTEX
  8
0
 10
334.625265038941
  20
467.847240138858
  0
VERTEX
  8
0
 10
334.643384951791
  20
467.864440520573
  0
VERTEX
  8
0
 10
334.663379482263
  20
467.882228342575
  0
VERTEX
  8
0
 10
334.685548235493
  20
467.9008955231
  0
VERTEX
  8
0
 10
334.710069690373
  20
467.920634694011
  0
VERTEX
  8
0
 10
334.736637820838
  20
467.941241341666
  0
VERTEX
  8
0
 10
334.764825474581
  20
467.962411666046
  0
VERTEX
  8
0
 10
334.794205499294
  20
467.983841867132
  0
VERTEX
  8
0
 10
334.82435074267
  20
468.005228144905
  0
VERTEX
  8
0
 10
334.854834052404
  20
468.026266699347
  0
VERTEX
  8
0
 10
334.885228276186
  20
468.046653730439
  0
VERTEX
  8
0
 10
334.915106261711
  20
468.066085438163
  0
VERTEX
  8
0
 10
334.944040856672
  20
468.084258022498
  0
VERTEX
  8
0
 10
334.971758333383
  20
468.100954321854
  0
VERTEX
  8
0
 10
334.99859866265
  20
468.116303728341
  0
VERTEX
  8
0
 10
335.025055239902
  20
468.130522272495
  0
VERTEX
  8
0
 10
335.051621460564
  20
468.143825984855
  0
VERTEX
  8
0
 10
335.078790720064
  20
468.156430895957
  0
VERTEX
  8
0
 10
335.107056413831
  20
468.168553036339
  0
VERTEX
  8
0
 10
335.136911937292
  20
468.180408436537
  0
VERTEX
  8
0
 10
335.168850685875
  20
468.192213127089
  0
VERTEX
  8
0
 10
335.203366055006
  20
468.204183138532
  0
VERTEX
  8
0
 10
335.240766641976
  20
468.216470018924
  0
VERTEX
  8
0
 10
335.280621851522
  20
468.228967386406
  0
VERTEX
  8
0
 10
335.322316290242
  20
468.241504376641
  0
VERTEX
  8
0
 10
335.365234564735
  20
468.25391012529
  0
VERTEX
  8
0
 10
335.408761281601
  20
468.266013768016
  0
VERTEX
  8
0
 10
335.452281047438
  20
468.277644440481
  0
VERTEX
  8
0
 10
335.495178468845
  20
468.288631278347
  0
VERTEX
  8
0
 10
335.536838152422
  20
468.298803417276
  0
VERTEX
  8
0
 10
335.576644704766
  20
468.307989992931
  0
VERTEX
  8
0
 10
335.614201802616
  20
468.316060433338
  0
VERTEX
  8
0
 10
335.649989403256
  20
468.323045335977
  0
VERTEX
  8
0
 10
335.684706534112
  20
468.329015590695
  0
VERTEX
  8
0
 10
335.719052222606
  20
468.334042087336
  0
VERTEX
  8
0
 10
335.753725496163
  20
468.338195715745
  0
VERTEX
  8
0
 10
335.789425382207
  20
468.341547365768
  0
VERTEX
  8
0
 10
335.826850908161
  20
468.34416792725
  0
VERTEX
  8
0
 10
335.86670110145
  20
468.346128290037
  0
VERTEX
  8
0
 10
335.909674989497
  20
468.347499343972
  0
VERTEX
  8
0
 10
335.956227130988
  20
468.348337624687
  0
VERTEX
  8
0
 10
336.005834209657
  20
468.348642250955
  0
VERTEX
  8
0
 10
336.057728440499
  20
468.348397987334
  0
VERTEX
  8
0
 10
336.111142038509
  20
468.347589598381
  0
VERTEX
  8
0
 10
336.165307218682
  20
468.346201848655
  0
VERTEX
  8
0
 10
336.219456196014
  20
468.344219502715
  0
VERTEX
  8
0
 10
336.272821185499
  20
468.341627325117
  0
VERTEX
  8
0
 10
336.324634402134
  20
468.338410080421
  0
VERTEX
  8
0
 10
336.374128060912
  20
468.334552533184
  0
VERTEX
  8
0
 10
336.420765322454
  20
468.330019622422
  0
VERTEX
  8
0
 10
336.464933129871
  20
468.324696984981
  0
VERTEX
  8
0
 10
336.5072493719
  20
468.318450432164
  0
VERTEX
  8
0
 10
336.548331937278
  20
468.311145775275
  0
VERTEX
  8
0
 10
336.58879871474
  20
468.302648825617
  0
VERTEX
  8
0
 10
336.629267593022
  20
468.292825394493
  0
VERTEX
  8
0
 10
336.670356460861
  20
468.281541293207
  0
VERTEX
  8
0
 10
336.712683206994
  20
468.268662333063
  0
VERTEX
  8
0
 10
336.756865720155
  20
468.254054325363
  0
VERTEX
  8
0
 10
336.803302163973
  20
468.237654810078
  0
VERTEX
  8
0
 10
336.851511801635
  20
468.219688241848
  0
VERTEX
  8
0
 10
336.900794171219
  20
468.200450803978
  0
VERTEX
  8
0
 10
336.950448810805
  20
468.180238679775
  0
VERTEX
  8
0
 10
336.999775258471
  20
468.159348052545
  0
VERTEX
  8
0
 10
337.048073052296
  20
468.138075105595
  0
VERTEX
  8
0
 10
337.094641730358
  20
468.11671602223
  0
VERTEX
  8
0
 10
337.138780830736
  20
468.095566985758
  0
VERTEX
  8
0
 10
337.179789891509
  20
468.074924179483
  0
VERTEX
  8
0
 10
337.217162857565
  20
468.054986645353
  0
VERTEX
  8
0
 10
337.251171301035
  20
468.035564859873
  0
VERTEX
  8
0
 10
337.28228120086
  20
468.016372158191
  0
VERTEX
  8
0
 10
337.310958535978
  20
467.997121875452
  0
VERTEX
  8
0
 10
337.337669285332
  20
467.977527346803
  0
VERTEX
  8
0
 10
337.362879427861
  20
467.957301907389
  0
VERTEX
  8
0
 10
337.387054942507
  20
467.936158892358
  0
VERTEX
  8
0
 10
337.410661808209
  20
467.913811636856
  0
VERTEX
  8
0
 10
337.434166003907
  20
467.889973476028
  0
VERTEX
  8
0
 10
337.457913011641
  20
467.864458233793
  0
VERTEX
  8
0
 10
337.481766325834
  20
467.837481689151
  0
VERTEX
  8
0
 10
337.505468944012
  20
467.809360109874
  0
VERTEX
  8
0
 10
337.528763863697
  20
467.780409763735
  0
VERTEX
  8
0
 10
337.551394082411
  20
467.750946918506
  0
VERTEX
  8
0
 10
337.573102597679
  20
467.721287841958
  0
VERTEX
  8
0
 10
337.593632407024
  20
467.691748801864
  0
VERTEX
  8
0
 10
337.612726507968
  20
467.662646065996
  0
VERTEX
  8
0
 10
337.630127898036
  20
467.634295902126
  0
VERTEX
  8
0
 10
337.645626844927
  20
467.606853134954
  0
VERTEX
  8
0
 10
337.659202697059
  20
467.579826816895
  0
VERTEX
  8
0
 10
337.670882073025
  20
467.552564557289
  0
VERTEX
  8
0
 10
337.680691591418
  20
467.524413965478
  0
VERTEX
  8
0
 10
337.688657870832
  20
467.494722650806
  0
VERTEX
  8
0
 10
337.694807529862
  20
467.462838222613
  0
VERTEX
  8
0
 10
337.6991671871
  20
467.428108290241
  0
VERTEX
  8
0
 10
337.70176346114
  20
467.389880463033
  0
VERTEX
  8
0
 10
337.702622970578
  20
467.34750235033
  0
SEQEND
100
AcDbEntity
  8
0
  0
LINE
  8
$DDT_AUDIT_GENERATED__380_
  6
BYLAYER
 62
7
 10
338.552622970578
 20
349.329176134695
 11
338.552622970578
 21
373.560677131896
  0
LINE
  8
$DDT_AUDIT_GENERATED__380_
  6
BYLAYER
 62
7
 10
648.552622970578
 20
351.329176134695
 11
648.552622970578
 21
373.736466813869
  0
LINE
  8
$DDT_AUDIT_GENERATED__380_
  6
BYLAYER
 62
7
 10
338.744886532581
 20
372.736466813869
 11
648.522976025463
 21
372.736466813869
  0
LINE
  8
$DDT_AUDIT_GENERATED__380_
  6
BYLAYER
 62
7
 10
338.744886532581
 20
372.736466813869
 11
344.540441490316
 21
374.289381084484
  0
LINE
  8
$DDT_AUDIT_GENERATED__380_
  6
BYLAYER
 62
7
 10
338.744886532581
 20
372.736466813869
 11
344.540441490316
 21
371.183552543254
  0
LINE
  8
$DDT_AUDIT_GENERATED__380_
  6
BYLAYER
 62
7
 10
648.522976025463
 20
372.736466813869
 11
642.727421067729
 21
371.183552543254
  0
LINE
  8
$DDT_AUDIT_GENERATED__380_
  6
BYLAYER
 62
7
 10
648.522976025463
 20
372.736466813869
 11
642.727421067729
 21
374.289381084484
  0
TEXT
  8
$DDT_AUDIT_GENERATED__380_
 62
7
  6
BYLAYER
 62
7
 10
485.977489668286
 20
374.236466813869
 40
8
  1
310
  7
Font_0
 72
1
 11
491.977489668286
 21
378.236466813869
 73
2
  0
LINE
  8
0
  6
BYLAYER
 62
7
 10
324.859834263581
 20
217.233343803091
 11
324.859834263581
 21
198.943929456909
  0
LINE
  8
0
  6
BYLAYER
 62
7
 10
324.859834263581
 20
217.233343803091
 11
338.552622970578
 21
218.669239087158
  0
LINE
  8
0
  6
BYLAYER
 62
7
 10
324.859834263581
 20
198.943929456909
 11
338.552622970578
 21
197.518075122301
  0
LINE
  8
$DDT_AUDIT_GENERATED__380_
  6
BYLAYER
 62
7
 10
649.552622970578
 20
350.329176134695
 11
671.560232445431
 21
350.329176134695
  0
LINE
  8
$DDT_AUDIT_GENERATED__380_
  6
BYLAYER
 62
7
 10
645.552622970578
 20
181.329176134695
 11
671.560232445431
 21
181.329176134695
  0
LINE
  8
$DDT_AUDIT_GENERATED__380_
  6
BYLAYER
 62
7
 10
670.560232445431
 20
350.324846055673
 11
670.560232445431
 21
181.581392588432
  0
LINE
  8
$DDT_AUDIT_GENERATED__380_
  6
BYLAYER
 62
7
 10
670.560232445431
 20
350.324846055673
 11
672.113146716046
 21
344.529291097938
  0
LINE
  8
$DDT_AUDIT_GENERATED__380_
  6
BYLAYER
 62
7
 10
670.560232445431
 20
350.324846055673
 11
669.007318174816
 21
344.529291097938
  0
LINE
  8
$DDT_AUDIT_GENERATED__380_
  6
BYLAYER
 62
7
 10
670.560232445431
 20
181.581392588432
 11
669.007318174816
 21
187.376947546167
  0
LINE
  8
$DDT_AUDIT_GENERATED__380_
  6
BYLAYER
 62
7
 10
670.560232445431
 20
181.581392588432
 11
672.113146716046
 21
187.376947546167
  0
TEXT
  8
$DDT_AUDIT_GENERATED__380_
 62
7
  6
BYLAYER
 62
7
 10
669.060232445431
 20
259.829176134694
 40
8
  1
169
  7
Font_0
 50
90
 72
1
 11
665.060232445431
 21
265.829176134694
 73
2
  0
LINE
  8
$DDT_AUDIT_GENERATED__380_
  6
BYLAYER
 62
7
 10
322.944911201693
 20
301.329176134695
 11
310.944911201693
 21
301.329176134695
  0
LINE
  8
$DDT_AUDIT_GENERATED__380_
  6
BYLAYER
 62
7
 10
344.483742173979
 20
169.358534394654
 11
310.944911201693
 21
169.358534394654
  0
LINE
  8
$DDT_AUDIT_GENERATED__380_
  6
BYLAYER
 62
7
 10
311.944911201693
 20
301.183556762445
 11
311.944911201693
 21
169.354458070748
  0
LINE
  8
$DDT_AUDIT_GENERATED__380_
  6
BYLAYER
 62
7
 10
311.944911201693
 20
301.183556762445
 11
313.497825472309
 21
295.38800180471
  0
LINE
  8
$DDT_AUDIT_GENERATED__380_
  6
BYLAYER
 62
7
 10
311.944911201693
 20
301.183556762445
 11
310.391996931078
 21
295.38800180471
  0
LINE
  8
$DDT_AUDIT_GENERATED__380_
  6
BYLAYER
 62
7
 10
311.944911201693
 20
169.354458070748
 11
310.391996931078
 21
175.150013028482
  0
LINE
  8
$DDT_AUDIT_GENERATED__380_
  6
BYLAYER
 62
7
 10
311.944911201693
 20
169.354458070748
 11
313.497825472308
 21
175.150013028482
  0
TEXT
  8
$DDT_AUDIT_GENERATED__380_
 62
7
  6
BYLAYER
 62
7
 10
310.444911201693
 20
229.343855264674
 40
8
  1
132
  7
Font_0
 50
90
 72
1
 11
306.444911201693
 21
235.343855264674
 73
2
  0
LINE
  8
$DDT_AUDIT_GENERATED__327_
  6
GEN3
 62
7
 10
344.876079215201
 20
301.329176134695
 11
323.944911201693
 21
301.329176134695
  0
LINE
  8
$DDT_AUDIT_GENERATED__380_
  6
BYLAYER
 62
7
 10
353.552622970578
 20
168.358534394653
 11
353.552622970578
 21
132.615390498221
  0
LINE
  8
$DDT_AUDIT_GENERATED__380_
  6
BYLAYER
 62
7
 10
629.552622970578
 20
168.329176134695
 11
629.552622970578
 21
132.615390498221
  0
LINE
  8
$DDT_AUDIT_GENERATED__380_
  6
BYLAYER
 62
7
 10
353.60791148726
 20
133.615390498221
 11
629.572490922483
 21
133.615390498221
  0
LINE
  8
$DDT_AUDIT_GENERATED__380_
  6
BYLAYER
 62
7
 10
353.60791148726
 20
133.615390498221
 11
359.403466444994
 21
135.168304768836
  0
LINE
  8
$DDT_AUDIT_GENERATED__380_
  6
BYLAYER
 62
7
 10
353.60791148726
 20
133.615390498221
 11
359.403466444994
 21
132.062476227606
  0
LINE
  8
$DDT_AUDIT_GENERATED__380_
  6
BYLAYER
 62
7
 10
629.572490922483
 20
133.615390498221
 11
623.776935964748
 21
132.062476227606
  0
LINE
  8
$DDT_AUDIT_GENERATED__380_
  6
BYLAYER
 62
7
 10
629.572490922483
 20
133.615390498221
 11
623.776935964748
 21
135.168304768836
  0
TEXT
  8
$DDT_AUDIT_GENERATED__380_
 62
7
  6
BYLAYER
 62
7
 10
484.154953355024
 20
135.115390498221
 40
8
  1
276
  7
Font_0
 72
1
 11
490.154953355024
 21
139.115390498221
 73
2
  0
LINE
  8
$DDT_AUDIT_GENERATED__380_
  6
BYLAYER
 62
7
 10
509.089887194941
 20
147.767269741066
 11
589.323887194941
 21
147.767269741066
  0
LINE
  8
$DDT_AUDIT_GENERATED__380_
  6
BYLAYER
 62
7
 10
589.323887194941
 20
147.767269741066
 11
625.545689204225
 21
166.281132728889
  0
LINE
  8
$DDT_AUDIT_GENERATED__380_
  6
CONTINUOUS
 62
7
 10
625.545689204225
 20
166.281132728889
 11
629.552622970578
 21
168.329176134695
  0
LINE
  8
$DDT_AUDIT_GENERATED__380_
  6
CONTINUOUS
 62
7
 10
626.094460775896
 20
165.207478071811
 11
629.552622970578
 21
168.329176134695
  0
LINE
  8
$DDT_AUDIT_GENERATED__380_
  6
CONTINUOUS
 62
7
 10
629.552622970578
 20
168.329176134695
 11
624.996917632555
 21
167.354787385966
  0
TEXT
  8
$DDT_AUDIT_GENERATED__380_
 62
7
  6
BYLAYER
 62
7
 10
509.089887194941
 20
149.517269741066
 40
6.3
  1
使用ネジ：M3×１０ｍｍ
  7
Font_0
  0
LINE
  8
$DDT_AUDIT_GENERATED__327_
  6
BYLAYER
 62
7
 10
251.237368890811
 20
348.329176134694
 11
137.237368890811
 21
348.329176134694
  0
LINE
  8
$DDT_AUDIT_GENERATED__327_
  6
BYLAYER
 62
7
 10
250.237368890811
 20
183.329176134694
 11
138.237368890811
 21
183.329176134694
  0
LINE
  8
0
  6
BYLAYER
 62
7
 10
252.237368890811
 20
347.329176134694
 11
252.237368890811
 21
185.329176134694
  0
LINE
  8
0
  6
BYLAYER
 62
7
 10
251.237368890811
 20
348.329176134694
 11
252.237368890811
 21
347.329176134694
  0
ARC
  8
0
  6
BYLAYER
 62
7
 10
250.237368890811
 20
185.329176134694
 40
2
 50
270
 51
0
  0
LINE
  8
0
  6
BYLAYER
 62
7
 10
136.237368890811
 20
347.329176134694
 11
136.237368890811
 21
185.329176134694
  0
LINE
  8
0
  6
BYLAYER
 62
7
 10
137.237368890811
 20
348.329176134694
 11
136.237368890811
 21
347.329176134694
  0
ARC
  8
0
  6
BYLAYER
 62
7
 10
138.237368890811
 20
185.329176134694
 40
2
 50
180
 51
270
  0
CIRCLE
  8
0
  6
BYBLOCK
 62
7
 10
194.237368890811
 20
301.329176134694
 40
30
  0
CIRCLE
  8
0
  6
BYLAYER
 62
7
 10
194.237368890811
 20
301.329176134694
 40
29.5
  0
CIRCLE
  8
0
  6
BYLAYER
 62
7
 10
146.237368890811
 20
328.329176134694
 40
1.5
  0
CIRCLE
  8
0
  6
BYLAYER
 62
7
 10
146.237368890811
 20
313.329176134694
 40
1.5
  0
CIRCLE
  8
0
  6
BYLAYER
 62
7
 10
146.237368890811
 20
298.329176134694
 40
1.5
  0
CIRCLE
  8
0
  6
BYLAYER
 62
7
 10
223.237368890811
 20
208.08863663
 40
11.0127256655893
  0
CIRCLE
  8
0
  6
BYLAYER
 62
7
 10
223.237368890811
 20
208.08863663
 40
9.14470717309118
  0
LINE
  8
$DDT_AUDIT_GENERATED__327_
  6
BYLAYER
 62
7
 10
254.237368890811
 20
181.329176134694
 11
254.237368890811
 21
348.329176134694
  0
ARC
  8
$DDT_AUDIT_GENERATED__327_
  6
BYLAYER
 62
7
 10
252.237368890811
 20
348.329176134694
 40
2
 50
0
 51
90
  0
LINE
  8
$DDT_AUDIT_GENERATED__327_
  6
BYLAYER
 62
7
 10
252.237368890811
 20
181.329176134694
 11
252.237368890811
 21
348.329176134694
  0
LINE
  8
$DDT_AUDIT_GENERATED__327_
  6
BYLAYER
 62
7
 10
134.237368890811
 20
181.329176134694
 11
134.237368890811
 21
348.329176134694
  0
ARC
  8
$DDT_AUDIT_GENERATED__327_
  6
BYLAYER
 62
7
 10
136.237368890811
 20
348.329176134694
 40
2
 50
90
 51
180
  0
LINE
  8
$DDT_AUDIT_GENERATED__327_
  6
BYLAYER
 62
7
 10
136.237368890811
 20
181.329176134694
 11
136.237368890811
 21
348.329176134694
  0
LINE
  8
$DDT_AUDIT_GENERATED__327_
  6
BYLAYER
 62
7
 10
252.237368890811
 20
350.329176134694
 11
136.237368890811
 21
350.329176134694
  0
LINE
  8
$DDT_AUDIT_GENERATED__327_
  6
BYLAYER
 62
7
 10
252.237368890811
 20
348.329176134694
 11
136.237368890811
 21
348.329176134694
  0
LINE
  8
$DDT_AUDIT_GENERATED__327_
  6
BYLAYER
 62
7
 10
254.237368890811
 20
181.329176134694
 11
252.237368890811
 21
181.329176134694
  0
LINE
  8
$DDT_AUDIT_GENERATED__327_
  6
BYLAYER
 62
7
 10
136.237368890811
 20
181.329176134694
 11
134.237368890811
 21
181.329176134694
  0
LINE
  8
0
  6
BYLAYER
 62
7
 10
164.237368890811
 20
351.629176134694
 11
164.237368890811
 21
350.329176134694
  0
ARC
  8
0
  6
BYLAYER
 62
7
 10
164.937368890811
 20
351.629176134694
 40
0.7
 50
90
 51
180
  0
LINE
  8
0
  6
BYLAYER
 62
7
 10
166.237368890811
 20
352.329176134694
 11
166.237368890811
 21
350.329176134694
  0
LINE
  8
0
  6
BYLAYER
 62
7
 10
224.237368890811
 20
351.629176134694
 11
224.237368890811
 21
350.329176134694
  0
ARC
  8
0
  6
BYLAYER
 62
7
 10
223.537368890811
 20
351.629176134694
 40
0.699999999999996
 50
0
 51
90
  0
LINE
  8
0
  6
BYLAYER
 62
7
 10
222.237368890811
 20
352.329176134694
 11
222.237368890811
 21
350.329176134694
  0
LINE
  8
0
  6
BYLAYER
 62
7
 10
164.937368890811
 20
352.329176134694
 11
223.537368890811
 21
352.329176134694
  0
LINE
  8
0
  6
BYLAYER
 62
7
 10
166.237368890811
 20
350.329176134694
 11
226.237368890811
 21
350.329176134694
  0
LINE
  8
$DDT_AUDIT_GENERATED__380_
  6
BYLAYER
 62
7
 10
134.237368890811
 20
351.329176134694
 11
134.237368890811
 21
374.79864982934
  0
LINE
  8
$DDT_AUDIT_GENERATED__380_
  6
BYLAYER
 62
7
 10
254.237368890811
 20
351.329176134694
 11
254.237368890811
 21
375.661502204582
  0
LINE
  8
$DDT_AUDIT_GENERATED__380_
  6
BYLAYER
 62
7
 10
134.330727214576
 20
372.736466813869
 11
254.17981354032
 21
372.736466813869
  0
LINE
  8
$DDT_AUDIT_GENERATED__380_
  6
BYLAYER
 62
7
 10
134.330727214576
 20
372.736466813869
 11
140.126282172311
 21
374.289381084484
  0
LINE
  8
$DDT_AUDIT_GENERATED__380_
  6
BYLAYER
 62
7
 10
134.330727214576
 20
372.736466813869
 11
140.126282172311
 21
371.183552543254
  0
LINE
  8
$DDT_AUDIT_GENERATED__380_
  6
BYLAYER
 62
7
 10
254.17981354032
 20
372.736466813869
 11
248.384258582586
 21
371.183552543254
  0
LINE
  8
$DDT_AUDIT_GENERATED__380_
  6
BYLAYER
 62
7
 10
254.17981354032
 20
372.736466813869
 11
248.384258582586
 21
374.289381084484
  0
TEXT
  8
$DDT_AUDIT_GENERATED__380_
 62
7
  6
BYLAYER
 62
7
 10
188.237368890811
 20
374.236466813869
 40
8
  1
120
  7
Font_0
 72
1
 11
194.237368890811
 21
378.236466813869
 73
2
  0
LINE
  8
0
  6
BYLAYER
 62
7
 10
138.325891756033
 20
183.329176134694
 11
158.325891756033
 21
183.329176134694
  0
LINE
  8
0
  6
BYLAYER
 62
7
 10
140.257010959435
 20
169.329176134694
 11
156.394772552632
 21
169.329176134694
  0
LINE
  8
0
  6
BYLAYER
 62
7
 10
230.496787877245
 20
183.329176134694
 11
250.496787877245
 21
183.329176134694
  0
LINE
  8
0
  6
GEN3A
 62
7
 10
213.989165816954
 20
323.909400185584
 11
216.413570550294
 21
326.333804918923
  0
LINE
  8
0
  6
GEN3A
 62
7
 10
216.8175929417
 20
321.080973060837
 11
219.24199767504
 21
323.505377794177
  0
LINE
  8
0
  6
GEN3
 62
7
 10
214.999356987921
 20
327.748018481297
 11
216.767123940887
 21
329.515785434263
  0
ARC
  8
0
  6
BYLAYER
 62
7
 10
217.12067733148
 20
329.16223204367
 40
0.5
 50
44.9999999999908
 51
135.000000000009
  0
LINE
  8
0
  6
GEN3
 62
7
 10
220.656211237413
 20
322.091164231804
 11
222.423978190379
 21
323.85893118477
  0
ARC
  8
0
  6
BYLAYER
 62
7
 10
222.070424799786
 20
324.212484575364
 40
0.5
 50
315.000000000009
 51
44.9999999999908
  0
LINE
  8
0
  6
BYLAYER
 62
7
 10
214.999356987921
 20
327.748018481297
 11
220.656211237413
 21
322.091164231804
  0
LINE
  8
0
  6
BYLAYER
 62
7
 10
217.474230722074
 20
329.515785434263
 11
221.363318018599
 21
325.626698137737
  0
LINE
  8
0
  6
BYLAYER
 62
7
 10
221.363318018599
 20
325.626698137737
 11
222.423978190379
 21
324.566037965957
  0
LINE
  8
0
  6
BYLAYER
 62
7
 10
222.423978190379
 20
324.566037965957
 11
220.899383134013
 21
323.037928380679
  0
LINE
  8
0
  6
BYLAYER
 62
7
 10
221.893648104489
 20
325.096368051847
 11
220.674657289634
 21
323.985774322117
  0
LINE
  8
0
  6
BYLAYER
 62
7
 10
221.363318018599
 20
325.626698137737
 11
220.624718975254
 21
324.983507548154
  0
LINE
  8
0
  6
BYLAYER
 62
7
 10
220.799575581116
 20
326.190440575221
 11
220.375022830461
 21
325.831580305499
  0
CIRCLE
  8
0
  6
BYLAYER
 62
7
 10
194.237368890811
 20
301.329176134694
 40
12.5
  0
CIRCLE
  8
0
  6
BYLAYER
 62
7
 10
194.237368890811
 20
301.329176134694
 40
13
  0
TEXT
  8
0
 62
7
  6
BYLAYER
 62
7
 10
151.049685048895
 20
325.30136672178
 40
4
  1
POWER
  7
Font_0
 11
151.049685048895
 21
329.30136672178
 73
3
  0
TEXT
  8
0
 62
7
  6
BYLAYER
 62
7
 10
150.795289185372
 20
310.779568300196
 40
4
  1
STATUS
  7
Font_0
 11
150.795289185372
 21
314.779568300196
 73
3
  0
TEXT
  8
0
 62
7
  6
BYLAYER
 62
7
 10
150.626272824972
 20
295.751193501204
 40
4
  1
STOP
  7
Font_0
 11
150.626272824972
 21
299.751193501204
 73
3
  0
LINE
  8
0
  6
BYLAYER
 62
7
 10
249.239305350329
 20
183.329176134694
 11
229.239305350329
 21
183.329176134694
  0
LINE
  8
0
  6
BYLAYER
 62
7
 10
247.308186146927
 20
169.329176134694
 11
231.17042455373
 21
169.329176134694
  0
ARC
  8
0
  6
BYLAYER
 62
7
 10
231.17042455373
 20
170.329176134694
 40
1
 50
184.085616779978
 51
270
  0
LINE
  8
0
  6
BYLAYER
 62
7
 10
229.239305350329
 20
183.329176134694
 11
230.172965853899
 21
170.257929084706
  0
ARC
  8
0
  6
BYLAYER
 62
7
 10
247.308186146927
 20
170.329176134694
 40
1
 50
270
 51
355.914383220022
  0
LINE
  8
0
  6
BYLAYER
 62
7
 10
249.239305350329
 20
183.329176134694
 11
248.305644846758
 21
170.257929084706
  0
LINE
  8
0
  6
BYLAYER
 62
7
 10
159.239305350329
 20
183.329176134694
 11
139.239305350329
 21
183.329176134694
  0
LINE
  8
0
  6
BYLAYER
 62
7
 10
157.308186146927
 20
169.329176134694
 11
141.17042455373
 21
169.329176134694
  0
ARC
  8
0
  6
BYLAYER
 62
7
 10
141.17042455373
 20
170.329176134694
 40
1
 50
184.085616779978
 51
270
  0
LINE
  8
0
  6
BYLAYER
 62
7
 10
139.239305350329
 20
183.329176134694
 11
140.172965853899
 21
170.257929084706
  0
ARC
  8
0
  6
BYLAYER
 62
7
 10
157.308186146927
 20
170.329176134694
 40
1
 50
270
 51
355.914383220022
  0
LINE
  8
0
  6
BYLAYER
 62
7
 10
159.239305350329
 20
183.329176134694
 11
158.305644846758
 21
170.257929084706
  0
LINE
  8
$DDT_AUDIT_GENERATED__380_
  6
BYLAYER
 62
7
 10
149.239305350329
 20
168.329176134694
 11
149.239305350329
 21
131.61042617381
  0
LINE
  8
$DDT_AUDIT_GENERATED__380_
  6
BYLAYER
 62
7
 10
239.239305350329
 20
168.329176134694
 11
239.239305350329
 21
131.583157145051
  0
LINE
  8
$DDT_AUDIT_GENERATED__380_
  6
BYLAYER
 62
7
 10
149.221470023138
 20
133.615390498221
 11
239.271917424012
 21
133.615390498221
  0
LINE
  8
$DDT_AUDIT_GENERATED__380_
  6
BYLAYER
 62
7
 10
149.221470023138
 20
133.615390498221
 11
155.017024980873
 21
135.168304768836
  0
LINE
  8
$DDT_AUDIT_GENERATED__380_
  6
BYLAYER
 62
7
 10
149.221470023138
 20
133.615390498221
 11
155.017024980873
 21
132.062476227606
  0
LINE
  8
$DDT_AUDIT_GENERATED__380_
  6
BYLAYER
 62
7
 10
239.271917424012
 20
133.615390498221
 11
233.476362466278
 21
132.062476227606
  0
LINE
  8
$DDT_AUDIT_GENERATED__380_
  6
BYLAYER
 62
7
 10
239.271917424012
 20
133.615390498221
 11
233.476362466278
 21
135.168304768836
  0
TEXT
  8
$DDT_AUDIT_GENERATED__380_
 62
7
  6
BYLAYER
 62
7
 10
190.349027070606
 20
135.115390498221
 40
8
  1
90
  7
Font_0
 72
1
 11
194.349027070606
 21
139.115390498221
 73
2
  0
TEXT
  8
0
 62
7
  6
BYLAYER
 62
7
 10
219.839158263049
 20
328.984366127903
 40
7
  1
KTL-400
  7
Font_1
 11
219.839158263049
 21
335.984366127903
 73
3
  0
TEXT
  8
0
 62
7
  6
BYLAYER
 62
7
 10
201.738163148436
 20
337.806187313206
 40
6
  1
TECHNO LIGHT
  7
Font_1
 11
201.738163148436
 21
343.806187313206
 73
3
  0
TEXT
  8
0
 62
7
  6
BYLAYER
 62
7
 10
206.007544753542
 20
225.876336865051
 40
4
  1
LUMINOUS INDICATOR
  7
Font_0
 11
206.007544753542
 21
229.876336865051
 73
3
  0
CIRCLE
  8
0
  6
BYLAYER
 62
7
 10
223.23736889081
 20
220.088636630001
 40
0.5
  0
CIRCLE
  8
0
  6
BYLAYER
 62
7
 10
217.245748076127
 20
218.485774698386
 40
0.5
  0
CIRCLE
  8
0
  6
BYLAYER
 62
7
 10
212.849904021258
 20
214.097011916536
 40
0.5
  0
CIRCLE
  8
0
  6
BYLAYER
 62
7
 10
211.237397991752
 20
208.115064300686
 40
0.5
  0
CIRCLE
  8
0
  6
BYLAYER
 62
7
 10
212.827060638549
 20
202.11992805168
 40
0.5
  0
TEXT
  8
0
 62
7
  6
BYLAYER
 62
7
 10
210.857780283161
 20
191.940359497527
 40
4
  1
MIN
  7
Font_0
 11
210.857780283161
 21
195.940359497527
 73
3
  0
TEXT
  8
0
 62
7
  6
BYLAYER
 62
7
 10
230.385400740727
 20
191.962137148501
 40
4
  1
MAX
  7
Font_0
 11
230.385400740727
 21
195.962137148501
 73
3
  0
CIRCLE
  8
0
  6
BYLAYER
 62
7
 10
223.23736889081
 20
220.088636630001
 40
0.5
  0
CIRCLE
  8
0
  6
BYLAYER
 62
7
 10
229.228989705492
 20
218.485774698386
 40
0.5
  0
CIRCLE
  8
0
  6
BYLAYER
 62
7
 10
233.624833760361
 20
214.097011916536
 40
0.5
  0
CIRCLE
  8
0
  6
BYLAYER
 62
7
 10
235.237339789867
 20
208.115064300686
 40
0.5
  0
CIRCLE
  8
0
  6
BYLAYER
 62
7
 10
233.64767714307
 20
202.11992805168
 40
0.5
  0
TEXT
  8
0
 62
7
  6
BYLAYER
 62
7
 10
151.365536285615
 20
192.89032656689
 40
4
  1
LIGHT STOP
  7
Font_0
 11
151.365536285615
 21
196.89032656689
 73
3
  0
LINE
  8
シリズムカグ_
  6
CONTINUOUS
 62
7
 10
171.251914213888
 20
337.62380296297
 11
171.251914213888
 21
339.927290610603
  0
LINE
  8
シリズムカグ_
  6
CONTINUOUS
 62
7
 10
170.190090000516
 20
338.402858763661
 11
170.190090000516
 21
338.932601177369
  0
LINE
  8
シリズムカグ_
  6
CONTINUOUS
 62
7
 10
170.190090000516
 20
340.132397451612
 11
170.190090000516
 21
339.727214987147
  0
POLYLINE
  8
シリズムカグ_
 62
7
  6
CONTINUOUS
 10
0.0
 20
0.0
 30
0.0
 66
1
 40
0.2
 41
0.2
  0
VERTEX
  8
シリズムカグ_
 10
171.251914213888
  20
339.927290610603
  0
VERTEX
  8
シリズムカグ_
 10
171.236841823683
  20
340.157161935686
  0
VERTEX
  8
シリズムカグ_
 10
171.202236494704
  20
340.378000547771
  0
VERTEX
  8
シリズムカグ_
 10
171.130130310522
  20
340.584468323329
  0
VERTEX
  8
シリズムカグ_
 10
171.009635283967
  20
340.75958922919
  0
VERTEX
  8
シリズムカグ_
 10
170.84636584436
  20
340.901515884258
  0
VERTEX
  8
シリズムカグ_
 10
170.644136686632
  20
341.000184721868
  0
VERTEX
  8
シリズムカグ_
 10
170.435677270808
  20
341.05753914686
  0
VERTEX
  8
シリズムカグ_
 10
170.244818069325
  20
341.088138591293
  0
VERTEX
  8
シリズムカグ_
 10
170.08280209115
  20
341.101257161276
  0
SEQEND
100
AcDbEntity
  8
シリズムカグ_
  0
ARC
  8
シリズムカグ_
  6
CONTINUOUS
 62
7
 10
170.009100858658
 20
340.132397451612
 40
0.180989141858163
 50
0
 51
90
  0
LINE
  8
シリズムカグ_
  6
CONTINUOUS
 62
7
 10
167.090743312147
 20
337.62380296297
 11
171.251914213888
 21
337.62380296297
  0
LINE
  8
シリズムカグ_
  6
CONTINUOUS
 62
7
 10
167.090743311345
 20
337.62380296297
 11
167.090743312147
 21
337.62380296297
  0
LINE
  8
シリズムカグ_
  6
CONTINUOUS
 62
7
 10
167.090743312147
 20
338.402858763661
 11
170.190090000516
 21
338.402858763661
  0
LINE
  8
シリズムカグ_
  6
CONTINUOUS
 62
7
 10
170.190090000516
 20
338.932601177369
 11
167.090743312147
 21
338.932601177369
  0
LINE
  8
シリズムカグ_
  6
CONTINUOUS
 62
7
 10
167.090743312147
 20
338.932601177369
 11
167.090743312147
 21
338.402858763661
  0
LINE
  8
シリズムカグ_
  6
CONTINUOUS
 62
7
 10
170.190090000516
 20
339.727214987147
 11
167.090743312147
 21
339.727214987147
  0
POLYLINE
  8
シリズムカグ_
 62
7
  6
CONTINUOUS
 10
0.0
 20
0.0
 30
0.0
 66
1
 40
0.2
 41
0.2
  0
VERTEX
  8
シリズムカグ_
 10
167.090743312147
  20
337.62380296297
  0
VERTEX
  8
シリズムカグ_
 10
166.861562532512
  20
337.631001408603
  0
VERTEX
  8
シリズムカグ_
 10
166.633100426957
  20
337.655272794386
  0
VERTEX
  8
シリズムカグ_
 10
166.435888169985
  20
337.697987881934
  0
VERTEX
  8
シリズムカグ_
 10
166.279945962706
  20
337.755065918049
  0
VERTEX
  8
シリズムカグ_
 10
166.162322357715
  20
337.821034899727
  0
VERTEX
  8
シリズムカグ_
 10
166.068340130315
  20
337.896602807615
  0
VERTEX
  8
シリズムカグ_
 10
165.997744997877
  20
337.981401388259
  0
VERTEX
  8
シリズムカグ_
 10
165.945328982494
  20
338.071015118537
  0
VERTEX
  8
シリズムカグ_
 10
165.909775941507
  20
338.176097339867
  0
VERTEX
  8
シリズムカグ_
 10
165.890049424599
  20
338.293955675286
  0
VERTEX
  8
シリズムカグ_
 10
165.886333991904
  20
338.418416772747
  0
SEQEND
100
AcDbEntity
  8
シリズムカグ_
  0
LINE
  8
シリズムカグ_
  6
CONTINUOUS
 62
7
 10
165.886333991904
 20
338.932601177369
 11
165.886333991904
 21
338.402858763661
  0
POLYLINE
  8
シリズムカグ_
 62
7
  6
CONTINUOUS
 10
0.0
 20
0.0
 30
0.0
 66
1
 40
0.2
 41
0.2
  0
VERTEX
  8
シリズムカグ_
 10
167.090743312147
  20
339.727214987147
  0
VERTEX
  8
シリズムカグ_
 10
166.861562532512
  20
339.720016541513
  0
VERTEX
  8
シリズムカグ_
 10
166.633100426957
  20
339.695745155731
  0
VERTEX
  8
シリズムカグ_
 10
166.435888169985
  20
339.653030068182
  0
VERTEX
  8
シリズムカグ_
 10
166.279945962706
  20
339.595952032067
  0
VERTEX
  8
シリズムカグ_
 10
166.162322357715
  20
339.52998305039
  0
VERTEX
  8
シリズムカグ_
 10
166.068340130315
  20
339.454415142502
  0
VERTEX
  8
シリズムカグ_
 10
165.997744997877
  20
339.369616561857
  0
VERTEX
  8
シリズムカグ_
 10
165.945328982494
  20
339.280002831579
  0
VERTEX
  8
シリズムカグ_
 10
165.909775941507
  20
339.174920610249
  0
VERTEX
  8
シリズムカグ_
 10
165.890049424599
  20
339.05706227483
  0
VERTEX
  8
シリズムカグ_
 10
165.886333991904
  20
338.932601177369
  0
SEQEND
100
AcDbEntity
  8
シリズムカグ_
  0
LINE
  8
シリズムカグ_
  6
CONTINUOUS
 62
7
 10
165.966627852559
 20
340.31338659347
 11
170.009100858658
 21
340.31338659347
  0
LINE
  8
シリズムカグ_
  6
CONTINUOUS
 62
7
 10
165.966627852559
 20
341.101257161276
 11
165.966627852559
 21
340.31338659347
  0
LINE
  8
シリズムカグ_
  6
CONTINUOUS
 62
7
 10
170.08280209115
 20
341.101257161276
 11
165.966627852559
 21
341.101257161276
  0
LINE
  8
シリズムカグ_
  6
CONTINUOUS
 62
7
 10
165.32741286225
 20
340.0515201385
 11
165.32741286225
 21
337.62380296297
  0
LINE
  8
シリズムカグ_
  6
CONTINUOUS
 62
7
 10
165.32741286225
 20
337.62380296297
 11
164.267532561707
 21
337.62380296297
  0
LINE
  8
シリズムカグ_
  6
CONTINUOUS
 62
7
 10
164.267532561707
 20
337.62380296297
 11
164.267532561707
 21
339.993139670518
  0
ARC
  8
シリズムカグ_
  6
CONTINUOUS
 62
7
 10
164.277675839473
 20
340.0515201385
 40
1.04973702277704
 50
0
 51
90
  0
ARC
  8
シリズムカグ_
  6
CONTINUOUS
 62
7
 10
164.050345591478
 20
339.993139670518
 40
0.217186970229818
 50
0
 51
90
  0
LINE
  8
シリズムカグ_
  6
CONTINUOUS
 62
7
 10
164.050345591478
 20
340.210326640747
 11
161.208332979968
 21
340.210326640747
  0
LINE
  8
シリズムカグ_
  6
CONTINUOUS
 62
7
 10
161.208332979968
 20
340.210326640747
 11
161.208332979968
 21
337.62380296297
  0
LINE
  8
シリズムカグ_
  6
CONTINUOUS
 62
7
 10
161.208332979968
 20
337.62380296297
 11
160.148452679425
 21
337.62380296297
  0
LINE
  8
シリズムカグ_
  6
CONTINUOUS
 62
7
 10
160.148452679425
 20
337.62380296297
 11
160.148452679425
 21
341.101257161276
  0
LINE
  8
シリズムカグ_
  6
CONTINUOUS
 62
7
 10
160.148452679425
 20
341.101257161276
 11
164.277675839473
 21
341.101257161276
  0
LINE
  8
シリズムカグ_
  6
CONTINUOUS
 62
7
 10
159.531810420403
 20
337.62380296297
 11
159.531810420403
 21
341.101257161276
  0
LINE
  8
シリズムカグ_
  6
CONTINUOUS
 62
7
 10
159.531810420403
 20
341.348895743769
 11
159.531810420403
 21
342.144689371759
  0
LINE
  8
シリズムカグ_
  6
CONTINUOUS
 62
7
 10
158.476731016853
 20
337.62380296297
 11
159.531810420403
 21
337.62380296297
  0
LINE
  8
シリズムカグ_
  6
CONTINUOUS
 62
7
 10
158.476731016853
 20
341.101257161276
 11
158.476731016853
 21
337.62380296297
  0
LINE
  8
シリズムカグ_
  6
CONTINUOUS
 62
7
 10
159.531810420403
 20
341.101257161276
 11
158.476731016853
 21
341.101257161276
  0
LINE
  8
シリズムカグ_
  6
CONTINUOUS
 62
7
 10
158.476731016853
 20
341.348895743769
 11
159.531810420403
 21
341.348895743769
  0
LINE
  8
シリズムカグ_
  6
CONTINUOUS
 62
7
 10
159.531810420403
 20
342.144689371759
 11
158.476731016853
 21
342.144689371759
  0
LINE
  8
シリズムカグ_
  6
CONTINUOUS
 62
7
 10
158.476731016853
 20
342.144689371759
 11
158.476731016853
 21
341.348895743769
  0
LINE
  8
シリズムカグ_
  6
CONTINUOUS
 62
7
 10
155.993371300222
 20
337.62380296297
 11
157.805490300693
 21
337.62380296297
  0
LINE
  8
シリズムカグ_
  6
CONTINUOUS
 62
7
 10
157.749284492454
 20
341.101257161276
 11
156.087199708092
 21
341.101257161276
  0
LINE
  8
シリズムカグ_
  6
CONTINUOUS
 62
7
 10
155.149910914348
 20
339.364712971794
 11
157.805490300693
 21
337.62380296297
  0
LINE
  8
シリズムカグ_
  6
CONTINUOUS
 62
7
 10
157.749284492454
 20
341.101257161276
 11
155.149910914348
 21
339.364712971794
  0
LINE
  8
シリズムカグ_
  6
CONTINUOUS
 62
7
 10
155.993371300222
 20
337.62380296297
 11
153.825092572972
 21
339.26055661879
  0
LINE
  8
シリズムカグ_
  6
CONTINUOUS
 62
7
 10
156.087199708092
 20
341.101257161276
 11
153.823114727044
 21
339.471271904421
  0
LINE
  8
シリズムカグ_
  6
CONTINUOUS
 62
7
 10
153.651073552814
 20
337.62380296297
 11
153.651073552814
 21
339.173884568083
  0
ARC
  8
シリズムカグ_
  6
CONTINUOUS
 62
7
 10
153.759667037929
 20
339.173884568083
 40
0.108593485114852
 50
52.9521908437077
 51
180
  0
ARC
  8
シリズムカグ_
  6
CONTINUOUS
 62
7
 10
153.759667037929
 20
339.559402124864
 40
0.108593485114852
 50
180
 51
305.751288374722
  0
LINE
  8
シリズムカグ_
  6
CONTINUOUS
 62
7
 10
152.595407766708
 20
337.62380296297
 11
153.651073552814
 21
337.62380296297
  0
LINE
  8
シリズムカグ_
  6
CONTINUOUS
 62
7
 10
153.651073552814
 20
339.559402124864
 11
153.651073552814
 21
342.144689371759
  0
LINE
  8
シリズムカグ_
  6
CONTINUOUS
 62
7
 10
153.651073552814
 20
342.144689371759
 11
152.595407766708
 21
342.144689371759
  0
LINE
  8
シリズムカグ_
  6
CONTINUOUS
 62
7
 10
152.595407766708
 20
342.144689371759
 11
152.595407766708
 21
337.62380296297
  0
LINE
  8
シリズムカグ_
  6
CONTINUOUS
 62
7
 10
152.049959507949
 20
338.818331299233
 11
152.049959507949
 21
339.914415997239
  0
ARC
  8
シリズムカグ_
  6
CONTINUOUS
 62
7
 10
150.855431171686
 20
338.818331299233
 40
1.19452833626326
 50
270
 51
0
  0
ARC
  8
シリズムカグ_
  6
CONTINUOUS
 62
7
 10
150.77302338407
 20
338.681836266414
 40
0.162890227672278
 50
270
 51
0
  0
LINE
  8
シリズムカグ_
  6
CONTINUOUS
 62
7
 10
150.935913611742
 20
338.681836266414
 11
150.935913611742
 21
340.057653010596
  0
ARC
  8
シリズムカグ_
  6
CONTINUOUS
 62
7
 10
150.77302338407
 20
340.057653010596
 40
0.162890227672278
 50
0
 51
90
  0
ARC
  8
シリズムカグ_
  6
CONTINUOUS
 62
7
 10
150.855431171686
 20
339.914415997239
 40
1.19452833626326
 50
-8.52032946536999E-14
 51
89.9999999999999
  0
LINE
  8
シリズムカグ_
  6
CONTINUOUS
 62
7
 10
147.896910236668
 20
337.62380296297
 11
150.855431171686
 21
337.62380296297
  0
LINE
  8
シリズムカグ_
  6
CONTINUOUS
 62
7
 10
147.836829040857
 20
338.518946038741
 11
150.77302338407
 21
338.518946038741
  0
LINE
  8
シリズムカグ_
  6
CONTINUOUS
 62
7
 10
143.477595888808
 20
337.62380296297
 11
144.665946507441
 21
337.62380296297
  0
ARC
  8
シリズムカグ_
  6
CONTINUOUS
 62
7
 10
147.836829040857
 20
338.681836266414
 40
0.162890227672278
 50
180
 51
270
  0
LINE
  8
シリズムカグ_
  6
CONTINUOUS
 62
7
 10
141.251903321905
 20
342.144689371759
 11
141.251903321905
 21
341.149415642796
  0
ARC
  8
シリズムカグ_
  6
CONTINUOUS
 62
7
 10
147.896910236668
 20
338.818331299233
 40
1.19452833626326
 50
180
 51
270
  0
LINE
  8
シリズムカグ_
  6
CONTINUOUS
 62
7
 10
150.77302338407
 20
340.220543238269
 11
147.836829040857
 21
340.220543238269
  0
LINE
  8
シリズムカグ_
  6
CONTINUOUS
 62
7
 10
147.673938813185
 20
340.057653010596
 11
147.673938813185
 21
338.681836266414
  0
ARC
  8
シリズムカグ_
  6
CONTINUOUS
 62
7
 10
147.836829040857
 20
340.057653010596
 40
0.162890227672278
 50
90
 51
180
  0
LINE
  8
シリズムカグ_
  6
CONTINUOUS
 62
7
 10
150.855431171686
 20
341.108944333503
 11
147.896910236668
 21
341.108944333503
  0
LINE
  8
シリズムカグ_
  6
CONTINUOUS
 62
7
 10
146.702381900404
 20
339.914415997239
 11
146.702381900404
 21
338.818331299233
  0
ARC
  8
シリズムカグ_
  6
CONTINUOUS
 62
7
 10
147.896910236668
 20
339.914415997239
 40
1.19452833626326
 50
89.9999999999999
 51
180
  0
LINE
  8
シリズムカグ_
  6
CONTINUOUS
 62
7
 10
146.927205133364
 20
341.149415642796
 11
146.927205133364
 21
342.144689371759
  0
LINE
  8
シリズムカグ_
  6
CONTINUOUS
 62
7
 10
141.251903321905
 20
341.149415642796
 11
143.477595888808
 21
341.149415642796
  0
LINE
  8
シリズムカグ_
  6
CONTINUOUS
 62
7
 10
143.477595888808
 20
341.149415642796
 11
143.477595888808
 21
337.62380296297
  0
LINE
  8
シリズムカグ_
  6
CONTINUOUS
 62
7
 10
144.665946507441
 20
337.62380296297
 11
144.665946507441
 21
341.149415642796
  0
LINE
  8
シリズムカグ_
  6
CONTINUOUS
 62
7
 10
144.665946507441
 20
341.149415642796
 11
146.927205133364
 21
341.149415642796
  0
LINE
  8
シリズムカグ_
  6
CONTINUOUS
 62
7
 10
146.927205133364
 20
342.144689371759
 11
141.251903321905
 21
342.144689371759
  0
LINE
  8
0
  6
CENTER
 62
7
 10
158.536395949505
 20
301.329176134694
 11
230.632229053306
 21
301.329176134694
  0
LINE
  8
0
  6
CENTER
 62
7
 10
194.237368890811
 20
254.487399581554
 11
194.237368890811
 21
342.74287704554
  0
LINE
  8
0
  6
CENTER
 62
7
 10
223.237368890811
 20
208.08863663
 11
239.697076344747
 21
208.08863663
  0
LINE
  8
0
  6
CENTER
 62
7
 10
223.237368890811
 20
208.08863663
 11
205.080728360334
 21
208.08863663
  0
LINE
  8
0
  6
CENTER
 62
7
 10
223.237368890812
 20
193.505108211017
 11
223.23736889081
 21
223.494234713166
  0
LINE
  8
0
  6
CENTER
 62
7
 10
318.690858709734
 20
208.08863663
 11
346.305427905323
 21
208.08863663
  0
LINE
  8
0
  6
CENTER
 62
7
 10
318.781091715668
 20
483.11095831762
 11
348.302046506372
 21
483.11095831762
  0
LINE
  8
0
  6
CENTER
 62
7
 10
673.261672584765
 20
483.11095831762
 11
353.296598384434
 21
483.11095831762
  0
POINT
  8
0
 62
7
 10
338.552622970577
 20
538.11095831762
  0
POINT
  8
0
 62
7
 10
338.552622970578
 20
483.11095831762
  0
LINE
  8
0
  6
CENTER
 62
7
 10
629.552622970578
 20
169.329176134695
 11
629.552622970578
 21
190.333836318812
  0
LINE
  8
0
  6
CENTER
 62
7
 10
353.552622970578
 20
169.358534394654
 11
353.552622970578
 21
188.803569386311
  0
LINE
  8
0
  6
CENTER
 62
7
 10
239.239305350329
 20
169.329176134694
 11
239.239305350329
 21
191.230979019146
  0
LINE
  8
0
  6
CENTER
 62
7
 10
149.239305350329
 20
168.329176134694
 11
149.239305350329
 21
189.90130841218
  0
LINE
  8
0
  6
CONTINUOUS
 62
7
 10
242.340951839311
 20
251.039439431594
 11
204.340949335911
 21
251.039439431594
  0
LINE
  8
0
  6
CONTINUOUS
 62
7
 10
204.340949335911
 20
251.039439431594
 11
204.340949335911
 21
233.039439507994
  0
LINE
  8
0
  6
CONTINUOUS
 62
7
 10
204.340949335911
 20
233.039439507994
 11
242.340951839311
 21
233.039439507994
  0
LINE
  8
0
  6
CONTINUOUS
 62
7
 10
242.340951839311
 20
233.039439507994
 11
242.340951839311
 21
251.039439431594
  0
LINE
  8
0
  6
CONTINUOUS
 62
7
 10
221.643030324711
 20
248.739439613394
 11
221.040948906711
 21
248.139438769994
  0
LINE
  8
0
  6
CONTINUOUS
 62
7
 10
221.040948906711
 20
248.139438769994
 11
221.638872900711
 21
247.539439789194
  0
LINE
  8
0
  6
CONTINUOUS
 62
7
 10
221.638872900711
 20
247.539439789194
 11
226.640946844311
 21
247.539439789194
  0
LINE
  8
0
  6
CONTINUOUS
 62
7
 10
226.640946844311
 20
247.539439789194
 11
227.240949550511
 21
248.139438769994
  0
LINE
  8
0
  6
CONTINUOUS
 62
7
 10
220.122493484711
 20
241.811919576794
 11
220.708384791111
 21
241.196103013394
  0
LINE
  8
0
  6
CONTINUOUS
 62
7
 10
220.708384791111
 20
241.196103013394
 11
225.702456811311
 21
241.063099905194
  0
LINE
  8
0
  6
CONTINUOUS
 62
7
 10
226.320296207311
 20
241.646857551594
 11
225.734404900911
 21
242.262674114994
  0
LINE
  8
0
  6
CONTINUOUS
 62
7
 10
218.640945533111
 20
240.913689687194
 11
217.840946892111
 21
235.982318028194
  0
LINE
  8
0
  6
CONTINUOUS
 62
7
 10
219.737983921311
 20
247.676031283394
 11
218.937977829711
 21
242.744660555594
  0
LINE
  8
0
  6
CONTINUOUS
 62
7
 10
225.656434574911
 20
235.829829788994
 11
226.152278164111
 21
235.139439433194
  0
LINE
  8
0
  6
CONTINUOUS
 62
7
 10
220.740332880711
 20
242.395678154394
 11
220.122493484711
 21
241.811919576794
  0
CIRCLE
  8
0
  6
CONTINUOUS
 62
7
 10
228.340948262911
 20
235.539439538994
 40
0.599999999999994
  0
LINE
  8
0
  6
CONTINUOUS
 62
7
 10
225.702456811311
 20
241.063099905194
 11
226.320296207311
 21
241.646857551594
  0
LINE
  8
0
  6
CONTINUOUS
 62
7
 10
226.840950229911
 20
235.637669536594
 11
227.640948870911
 21
240.569040729994
  0
LINE
  8
0
  6
CONTINUOUS
 62
7
 10
225.734404900911
 20
242.262674114994
 11
220.740332880711
 21
242.395678154394
  0
LINE
  8
0
  6
CONTINUOUS
 62
7
 10
220.922492125711
 20
247.483871496594
 11
220.426648536511
 21
248.174260920994
  0
LINE
  8
0
  6
CONTINUOUS
 62
7
 10
227.640948870911
 20
240.569040729994
 11
227.145105281711
 21
241.259431085794
  0
LINE
  8
0
  6
CONTINUOUS
 62
7
 10
219.433821419111
 20
242.054270199794
 11
220.122493484711
 21
242.552499837394
  0
LINE
  8
0
  6
CONTINUOUS
 62
7
 10
229.840948859111
 20
233.039439507994
 11
229.840948859111
 21
251.039439431594
  0
LINE
  8
0
  6
CONTINUOUS
 62
7
 10
219.825461188111
 20
240.721529900394
 11
219.329617598911
 21
241.411919324994
  0
LINE
  8
0
  6
CONTINUOUS
 62
7
 10
217.840946892111
 20
235.982318028194
 11
218.336790481311
 21
235.291928137794
  0
LINE
  8
0
  6
CONTINUOUS
 62
7
 10
219.940945187311
 20
235.739439345194
 11
219.340949931911
 21
235.139439433194
  0
LINE
  8
0
  6
CONTINUOUS
 62
7
 10
227.940946498711
 20
242.418305567794
 11
228.740945139711
 21
247.349677226794
  0
LINE
  8
0
  6
CONTINUOUS
 62
7
 10
219.940945187311
 20
234.539439520994
 11
224.940947869511
 21
234.539439520994
  0
LINE
  8
0
  6
CONTINUOUS
 62
7
 10
224.940947869511
 20
234.539439520994
 11
225.540950575711
 21
235.139439433194
  0
LINE
  8
0
  6
CONTINUOUS
 62
7
 10
218.937977829711
 20
242.744660555594
 11
219.433821419111
 21
242.054270199794
  0
LINE
  8
0
  6
CONTINUOUS
 62
7
 10
227.240949550511
 20
248.139438769994
 11
226.640946844311
 21
248.739439613394
  0
LINE
  8
0
  6
CONTINUOUS
 62
7
 10
219.025462547111
 20
235.790158241394
 11
219.825461188111
 21
240.721529900394
  0
LINE
  8
0
  6
CONTINUOUS
 62
7
 10
216.840944865511
 20
251.039439431594
 11
216.840944865511
 21
233.039439507994
  0
LINE
  8
0
  6
CONTINUOUS
 62
7
 10
224.940947869511
 20
235.739439345194
 11
219.940945187311
 21
235.739439345194
  0
LINE
  8
0
  6
CONTINUOUS
 62
7
 10
219.340949931911
 20
235.139439433194
 11
219.940945187311
 21
234.539439520994
  0
LINE
  8
0
  6
CONTINUOUS
 62
7
 10
228.245101550311
 20
248.040066651394
 11
227.556436935311
 21
247.541837013594
  0
LINE
  8
0
  6
CONTINUOUS
 62
7
 10
226.756430843711
 20
242.610465354594
 11
227.252274432911
 21
241.920074998594
  0
LINE
  8
0
  6
CONTINUOUS
 62
7
 10
227.252274432911
 20
241.920074998594
 11
227.940946498711
 21
242.418305567794
  0
LINE
  8
0
  6
CONTINUOUS
 62
7
 10
226.152278164111
 20
235.139439433194
 11
226.840950229911
 21
235.637669536594
  0
LINE
  8
0
  6
CONTINUOUS
 62
7
 10
220.426648536511
 20
248.174260920994
 11
219.737983921311
 21
247.676031283394
  0
LINE
  8
0
  6
CONTINUOUS
 62
7
 10
220.122493484711
 20
242.552499837394
 11
220.922492125711
 21
247.483871496594
  0
LINE
  8
0
  6
CONTINUOUS
 62
7
 10
218.336790481311
 20
235.291928137794
 11
219.025462547111
 21
235.790158241394
  0
LINE
  8
0
  6
CONTINUOUS
 62
7
 10
225.540950575711
 20
235.139439433194
 11
224.940947869511
 21
235.739439345194
  0
LINE
  8
0
  6
CONTINUOUS
 62
7
 10
228.740945139711
 20
247.349677226794
 11
228.245101550311
 21
248.040066651394
  0
LINE
  8
0
  6
CONTINUOUS
 62
7
 10
227.145105281711
 20
241.259431085794
 11
226.456433215911
 21
240.761200516794
  0
LINE
  8
0
  6
CONTINUOUS
 62
7
 10
226.640946844311
 20
248.739439613394
 11
221.643030324711
 21
248.739439613394
  0
LINE
  8
0
  6
CONTINUOUS
 62
7
 10
219.329617598911
 20
241.411919324994
 11
218.640945533111
 21
240.913689687194
  0
LINE
  8
0
  6
CONTINUOUS
 62
7
 10
227.556436935311
 20
247.541837013594
 11
226.756430843711
 21
242.610465354594
  0
LINE
  8
0
  6
CONTINUOUS
 62
7
 10
226.456433215911
 20
240.761200516794
 11
225.656434574911
 21
235.829829788994
  0
LINE
  8
0
  6
CONTINUOUS
 62
7
 10
213.640946576111
 20
248.739439613394
 11
208.643026331311
 21
248.739439613394
  0
LINE
  8
0
  6
CONTINUOUS
 62
7
 10
208.643026331311
 20
248.739439613394
 11
208.040948638511
 21
248.139438769994
  0
LINE
  8
0
  6
CONTINUOUS
 62
7
 10
208.638876357911
 20
247.539439789194
 11
213.640946576111
 21
247.539439789194
  0
LINE
  8
0
  6
CONTINUOUS
 62
7
 10
213.640946576111
 20
247.539439789194
 11
214.240949282111
 21
248.139438769994
  0
LINE
  8
0
  6
CONTINUOUS
 62
7
 10
214.240949282111
 20
248.139438769994
 11
213.640946576111
 21
248.739439613394
  0
LINE
  8
0
  6
CONTINUOUS
 62
7
 10
207.122493216511
 20
241.811919576794
 11
207.708388248311
 21
241.196103013394
  0
LINE
  8
0
  6
CONTINUOUS
 62
7
 10
212.702456542911
 20
241.063099905194
 11
213.320295938911
 21
241.646857551594
  0
LINE
  8
0
  6
CONTINUOUS
 62
7
 10
213.320295938911
 20
241.646857551594
 11
212.734404632511
 21
242.262674114994
  0
LINE
  8
0
  6
CONTINUOUS
 62
7
 10
206.940948644511
 20
234.539439520994
 11
211.940947601311
 21
234.539439520994
  0
LINE
  8
0
  6
CONTINUOUS
 62
7
 10
211.940947601311
 20
234.539439520994
 11
212.540946582111
 21
235.139439433194
  0
LINE
  8
0
  6
CONTINUOUS
 62
7
 10
212.540946582111
 20
235.139439433194
 11
211.940947601311
 21
235.739439345194
  0
LINE
  8
0
  6
CONTINUOUS
 62
7
 10
206.737979927911
 20
247.676031283394
 11
205.937981286711
 21
242.744660555594
  0
LINE
  8
0
  6
CONTINUOUS
 62
7
 10
213.456432947711
 20
240.761200516794
 11
212.656434306711
 21
235.829829788994
  0
LINE
  8
0
  6
CONTINUOUS
 62
7
 10
212.656434306711
 20
235.829829788994
 11
213.152277895911
 21
235.139439433194
  0
LINE
  8
0
  6
CONTINUOUS
 62
7
 10
215.740948596711
 20
247.349677226794
 11
215.245105007511
 21
248.040066651394
  0
LINE
  8
0
  6
CONTINUOUS
 62
7
 10
214.556432941711
 20
247.541837013594
 11
213.756434300711
 21
242.610465354594
  0
LINE
  8
0
  6
CONTINUOUS
 62
7
 10
213.756434300711
 20
242.610465354594
 11
214.252277889911
 21
241.920074998594
  0
LINE
  8
0
  6
CONTINUOUS
 62
7
 10
214.252277889911
 20
241.920074998594
 11
214.940949955711
 21
242.418305567794
  0
CIRCLE
  8
0
  6
CONTINUOUS
 62
7
 10
215.340948262911
 20
235.539439538994
 40
0.599999999999994
  0
LINE
  8
0
  6
CONTINUOUS
 62
7
 10
214.940949955711
 20
242.418305567794
 11
215.740948596711
 21
247.349677226794
  0
LINE
  8
0
  6
CONTINUOUS
 62
7
 10
212.734404632511
 20
242.262674114994
 11
207.740336337911
 21
242.395678154394
  0
LINE
  8
0
  6
CONTINUOUS
 62
7
 10
207.922495582911
 20
247.483871496594
 11
207.426651993511
 21
248.174260920994
  0
LINE
  8
0
  6
CONTINUOUS
 62
7
 10
205.937981286711
 20
242.744660555594
 11
206.433824876111
 21
242.054270199794
  0
LINE
  8
0
  6
CONTINUOUS
 62
7
 10
216.840944865511
 20
233.039439507994
 11
216.840944865511
 21
251.039439431594
  0
LINE
  8
0
  6
CONTINUOUS
 62
7
 10
206.329617330511
 20
241.411919324994
 11
205.640948990111
 21
240.913689687194
  0
LINE
  8
0
  6
CONTINUOUS
 62
7
 10
205.640948990111
 20
240.913689687194
 11
204.840946623911
 21
235.982318028194
  0
LINE
  8
0
  6
CONTINUOUS
 62
7
 10
206.940948644511
 20
235.739439345194
 11
206.340949663711
 21
235.139439433194
  0
LINE
  8
0
  6
CONTINUOUS
 62
7
 10
207.740336337911
 20
242.395678154394
 11
207.122493216511
 21
241.811919576794
  0
LINE
  8
0
  6
CONTINUOUS
 62
7
 10
214.640948602711
 20
240.569040729994
 11
214.145105013511
 21
241.259431085794
  0
LINE
  8
0
  6
CONTINUOUS
 62
7
 10
207.708388248311
 20
241.196103013394
 11
212.702456542911
 21
241.063099905194
  0
LINE
  8
0
  6
CONTINUOUS
 62
7
 10
214.145105013511
 20
241.259431085794
 11
213.456432947711
 21
240.761200516794
  0
LINE
  8
0
  6
CONTINUOUS
 62
7
 10
213.152277895911
 20
235.139439433194
 11
213.840949961711
 21
235.637669536594
  0
LINE
  8
0
  6
CONTINUOUS
 62
7
 10
208.040948638511
 20
248.139438769994
 11
208.638876357911
 21
247.539439789194
  0
LINE
  8
0
  6
CONTINUOUS
 62
7
 10
211.940947601311
 20
235.739439345194
 11
206.940948644511
 21
235.739439345194
  0
LINE
  8
0
  6
CONTINUOUS
 62
7
 10
207.122493216511
 20
242.552499837394
 11
207.922495582911
 21
247.483871496594
  0
LINE
  8
0
  6
CONTINUOUS
 62
7
 10
215.245105007511
 20
248.040066651394
 11
214.556432941711
 21
247.541837013594
  0
LINE
  8
0
  6
CONTINUOUS
 62
7
 10
204.840946623911
 20
235.982318028194
 11
205.336793938511
 21
235.291928137794
  0
LINE
  8
0
  6
CONTINUOUS
 62
7
 10
206.433824876111
 20
242.054270199794
 11
207.122493216511
 21
242.552499837394
  0
LINE
  8
0
  6
CONTINUOUS
 62
7
 10
206.025462278911
 20
235.790158241394
 11
206.825460919911
 21
240.721529900394
  0
LINE
  8
0
  6
CONTINUOUS
 62
7
 10
213.840949961711
 20
235.637669536594
 11
214.640948602711
 21
240.569040729994
  0
LINE
  8
0
  6
CONTINUOUS
 62
7
 10
206.825460919911
 20
240.721529900394
 11
206.329617330511
 21
241.411919324994
  0
LINE
  8
0
  6
CONTINUOUS
 62
7
 10
207.426651993511
 20
248.174260920994
 11
206.737979927911
 21
247.676031283394
  0
LINE
  8
0
  6
CONTINUOUS
 62
7
 10
206.340949663711
 20
235.139439433194
 11
206.940948644511
 21
234.539439520994
  0
LINE
  8
0
  6
CONTINUOUS
 62
7
 10
205.336793938511
 20
235.291928137794
 11
206.025462278911
 21
235.790158241394
  0
LINE
  8
0
  6
CONTINUOUS
 62
7
 10
229.840948859111
 20
251.039439431594
 11
229.840948859111
 21
233.039439507994
  0
LINE
  8
0
  6
CONTINUOUS
 62
7
 10
239.640950837911
 20
248.739439613394
 11
234.643026867711
 21
248.739439613394
  0
LINE
  8
0
  6
CONTINUOUS
 62
7
 10
234.040945449711
 20
248.139438769994
 11
234.638876894311
 21
247.539439789194
  0
LINE
  8
0
  6
CONTINUOUS
 62
7
 10
234.638876894311
 20
247.539439789194
 11
239.640950837911
 21
247.539439789194
  0
LINE
  8
0
  6
CONTINUOUS
 62
7
 10
239.640950837911
 20
247.539439789194
 11
240.240946093311
 21
248.139438769994
  0
LINE
  8
0
  6
CONTINUOUS
 62
7
 10
240.240946093311
 20
248.139438769994
 11
239.640950837911
 21
248.739439613394
  0
LINE
  8
0
  6
CONTINUOUS
 62
7
 10
233.740336874311
 20
242.395678154394
 11
233.122497478311
 21
241.811919576794
  0
LINE
  8
0
  6
CONTINUOUS
 62
7
 10
233.122497478311
 20
241.811919576794
 11
233.708388784711
 21
241.196103013394
  0
LINE
  8
0
  6
CONTINUOUS
 62
7
 10
233.708388784711
 20
241.196103013394
 11
238.702460804711
 21
241.063099905194
  0
LINE
  8
0
  6
CONTINUOUS
 62
7
 10
238.702460804711
 20
241.063099905194
 11
239.320300200711
 21
241.646857551594
  0
LINE
  8
0
  6
CONTINUOUS
 62
7
 10
239.320300200711
 20
241.646857551594
 11
238.734401443711
 21
242.262674114994
  0
LINE
  8
0
  6
CONTINUOUS
 62
7
 10
232.940949180911
 20
234.539439520994
 11
237.940951863111
 21
234.539439520994
  0
LINE
  8
0
  6
CONTINUOUS
 62
7
 10
237.940951863111
 20
234.539439520994
 11
238.540947118511
 21
235.139439433194
  0
LINE
  8
0
  6
CONTINUOUS
 62
7
 10
238.540947118511
 20
235.139439433194
 11
237.940951863111
 21
235.739439345194
  0
LINE
  8
0
  6
CONTINUOUS
 62
7
 10
233.922496119311
 20
247.483871496594
 11
233.426652529911
 21
248.174260920994
  0
LINE
  8
0
  6
CONTINUOUS
 62
7
 10
233.122497478311
 20
242.552499837394
 11
233.922496119311
 21
247.483871496594
  0
LINE
  8
0
  6
CONTINUOUS
 62
7
 10
239.456437209311
 20
240.761200516794
 11
238.656431117911
 21
235.829829788994
  0
LINE
  8
0
  6
CONTINUOUS
 62
7
 10
232.025459090111
 20
235.790158241394
 11
232.825465181711
 21
240.721529900394
  0
LINE
  8
0
  6
CONTINUOUS
 62
7
 10
231.336794474911
 20
235.291928137794
 11
232.025459090111
 21
235.790158241394
  0
LINE
  8
0
  6
CONTINUOUS
 62
7
 10
232.340946474911
 20
235.139439433194
 11
232.940949180911
 21
234.539439520994
  0
CIRCLE
  8
0
  6
CONTINUOUS
 62
7
 10
241.340948262911
 20
235.539439538994
 40
0.599999999999994
  0
LINE
  8
0
  6
CONTINUOUS
 62
7
 10
240.940950492111
 20
242.418305567794
 11
241.740949133111
 21
247.349677226794
  0
LINE
  8
0
  6
CONTINUOUS
 62
7
 10
241.740949133111
 20
247.349677226794
 11
241.245105543911
 21
248.040066651394
  0
LINE
  8
0
  6
CONTINUOUS
 62
7
 10
241.245105543911
 20
248.040066651394
 11
240.556433478111
 21
247.541837013594
  0
LINE
  8
0
  6
CONTINUOUS
 62
7
 10
239.756434837111
 20
242.610465354594
 11
240.252278426511
 21
241.920074998594
  0
LINE
  8
0
  6
CONTINUOUS
 62
7
 10
240.252278426511
 20
241.920074998594
 11
240.940950492111
 21
242.418305567794
  0
LINE
  8
0
  6
CONTINUOUS
 62
7
 10
240.640945413911
 20
240.569040729994
 11
240.145101824511
 21
241.259431085794
  0
LINE
  8
0
  6
CONTINUOUS
 62
7
 10
240.145101824511
 20
241.259431085794
 11
239.456437209311
 21
240.761200516794
  0
LINE
  8
0
  6
CONTINUOUS
 62
7
 10
230.840950885511
 20
235.982318028194
 11
231.336794474911
 21
235.291928137794
  0
LINE
  8
0
  6
CONTINUOUS
 62
7
 10
238.656431117911
 20
235.829829788994
 11
239.152274707111
 21
235.139439433194
  0
LINE
  8
0
  6
CONTINUOUS
 62
7
 10
234.643026867711
 20
248.739439613394
 11
234.040945449711
 21
248.139438769994
  0
LINE
  8
0
  6
CONTINUOUS
 62
7
 10
232.940949180911
 20
235.739439345194
 11
232.340946474911
 21
235.139439433194
  0
LINE
  8
0
  6
CONTINUOUS
 62
7
 10
231.937981823311
 20
242.744660555594
 11
232.433825412511
 21
242.054270199794
  0
LINE
  8
0
  6
CONTINUOUS
 62
7
 10
232.433825412511
 20
242.054270199794
 11
233.122497478311
 21
242.552499837394
  0
LINE
  8
0
  6
CONTINUOUS
 62
7
 10
232.825465181711
 20
240.721529900394
 11
232.329621592311
 21
241.411919324994
  0
LINE
  8
0
  6
CONTINUOUS
 62
7
 10
231.640949526511
 20
240.913689687194
 11
230.840950885511
 21
235.982318028194
  0
LINE
  8
0
  6
CONTINUOUS
 62
7
 10
239.152274707111
 20
235.139439433194
 11
239.840946772911
 21
235.637669536594
  0
LINE
  8
0
  6
CONTINUOUS
 62
7
 10
237.940951863111
 20
235.739439345194
 11
232.940949180911
 21
235.739439345194
  0
LINE
  8
0
  6
CONTINUOUS
 62
7
 10
233.426652529911
 20
248.174260920994
 11
232.737980464311
 21
247.676031283394
  0
LINE
  8
0
  6
CONTINUOUS
 62
7
 10
238.734401443711
 20
242.262674114994
 11
233.740336874311
 21
242.395678154394
  0
LINE
  8
0
  6
CONTINUOUS
 62
7
 10
239.840946772911
 20
235.637669536594
 11
240.640945413911
 21
240.569040729994
  0
LINE
  8
0
  6
CONTINUOUS
 62
7
 10
232.737980464311
 20
247.676031283394
 11
231.937981823311
 21
242.744660555594
  0
LINE
  8
0
  6
CONTINUOUS
 62
7
 10
240.556433478111
 20
247.541837013594
 11
239.756434837111
 21
242.610465354594
  0
LINE
  8
0
  6
CONTINUOUS
 62
7
 10
232.329621592311
 20
241.411919324994
 11
231.640949526511
 21
240.913689687194
  0
LINE
  8
0
  6
CONTINUOUS
 62
7
 10
155.237369304411
 20
214.329176186894
 11
155.237369304411
 21
202.329176082494
  0
LINE
  8
0
  6
CONTINUOUS
 62
7
 10
167.237368943011
 20
202.329176082494
 11
167.237368943011
 21
214.329176186894
  0
LINE
  8
0
  6
CONTINUOUS
 62
7
 10
167.237368943011
 20
214.329176186894
 11
155.237369304411
 21
214.329176186894
  0
LINE
  8
0
  6
CONTINUOUS
 62
7
 10
155.237369304411
 20
202.329176082494
 11
167.237368943011
 21
202.329176082494
  0
LINE
  8
0
  6
CONTINUOUS
 62
7
 10
168.237370038211
 20
215.329176350694
 11
170.237368503411
 21
217.329176678494
  0
LINE
  8
0
  6
CONTINUOUS
 62
7
 10
168.237370038211
 20
215.329176350694
 11
154.237369373211
 21
215.329176350694
  0
LINE
  8
0
  6
CONTINUOUS
 62
7
 10
154.237369373211
 20
215.329176350694
 11
152.237369278211
 21
217.329176678494
  0
LINE
  8
0
  6
CONTINUOUS
 62
7
 10
170.237368503411
 20
217.329176678494
 11
152.237369278211
 21
217.329176678494
  0
LINE
  8
0
  6
CONTINUOUS
 62
7
 10
168.237370038211
 20
201.329175918694
 11
168.237370038211
 21
215.329176350694
  0
LINE
  8
0
  6
CONTINUOUS
 62
7
 10
154.237369373211
 20
201.329175918694
 11
168.237370038211
 21
201.329175918694
  0
LINE
  8
0
  6
CONTINUOUS
 62
7
 10
154.237369373211
 20
215.329176350694
 11
154.237369373211
 21
201.329175918694
  0
LINE
  8
0
  6
CONTINUOUS
 62
7
 10
168.237370038211
 20
201.329175918694
 11
170.237368503411
 21
199.329175590894
  0
LINE
  8
0
  6
CONTINUOUS
 62
7
 10
170.237368503411
 20
199.329175590894
 11
170.237368503411
 21
217.329176678494
  0
LINE
  8
0
  6
CONTINUOUS
 62
7
 10
154.237369373211
 20
201.329175918694
 11
152.237369278211
 21
199.329175590894
  0
LINE
  8
0
  6
CONTINUOUS
 62
7
 10
152.237369278211
 20
217.329176678494
 11
152.237369278211
 21
199.329175590894
  0
LINE
  8
0
  6
CONTINUOUS
 62
7
 10
152.237369278211
 20
199.329175590894
 11
170.237368503411
 21
199.329175590894
  0
TEXT
  8
0
 62
7
  6
CONTINUOUS
 62
7
 10
666.363503142614
 20
83.4021361698793
 40
8
  1
TSTT-005-100
  7
Font_0
 11
666.363503142614
 21
91.4021361698793
 73
3
  0
TEXT
  8
0
 62
7
  6
CONTINUOUS
 62
7
 10
676.556315337593
 20
64.5846367329954
 40
8
  1
KTL-400
  7
Font_0
 11
676.556315337593
 21
72.5846367329954
 73
3
  0
TEXT
  8
0
 62
7
  6
CONTINUOUS
 62
7
 10
655.854940590642
 20
33.1333202278787
 40
7
  1
富山
  7
Font_0
 11
655.854940590642
 21
40.1333202278787
 73
3
  0
TEXT
  8
0
 62
7
  6
CONTINUOUS
 62
7
 10
715.188273923942
 20
33.1333202278787
 40
7
  1
富山
  7
Font_0
 11
715.188273923942
 21
40.1333202278787
 73
3
  0
TEXT
  8
0
 62
7
  6
CONTINUOUS
 62
7
 10
774.521607257242
 20
33.1333202278787
 40
7
  1
諸星
  7
Font_0
 11
774.521607257242
 21
40.1333202278787
 73
3
  0
TEXT
  8
0
 62
7
  6
CONTINUOUS
 62
7
 10
341.921548210398
 20
64.2520493260929
 40
7
  1
2019/7/5
  7
Font_0
 11
341.921548210398
 21
71.2520493260929
 73
3
  0
ENDSEC
  0
EOF
