  0
SECTION
  2
HEADER
  9
$ACADVER
  1
AC1015
  9
$ACADMAINTVER
 70
     6
  9
$DWGCODEPAGE
  3
ANSI_932
  9
$INSBASE
 10
0.0
 20
0.0
 30
0.0
  9
$EXTMIN
 10
-297.0
 20
-0.283333331347
 30
0.0
  9
$EXTMAX
 10
8.102596369743466
 20
209.7166595458999
 30
0.0
  9
$LIMMIN
 10
-354.629
 20
-43.78333689299999
  9
$LIMMAX
 10
65.37099999999998
 20
253.2166631069999
  9
$ORTHOMODE
 70
     0
  9
$REGENMODE
 70
     1
  9
$FILLMODE
 70
     1
  9
$QTEXTMODE
 70
     0
  9
$MIRRTEXT
 70
     1
  9
$LTSCALE
 40
0.2
  9
$ATTMODE
 70
     1
  9
$TEXTSIZE
 40
3.2
  9
$TRACEWID
 40
1.0
  9
$TEXTSTYLE
  7
KCADTEXTSTANDARD
  9
$CLAYER
  8
0
  9
$CELTYPE
  6
Continuous
  9
$CECOLOR
 62
   134
  9
$CELTSCALE
 40
1.0
  9
$DISPSILH
 70
     0
  9
$DIMSCALE
 40
1.0
  9
$DIMASZ
 40
3.0
  9
$DIMEXO
 40
1.0
  9
$DIMDLI
 40
8.0
  9
$DIMRND
 40
0.0
  9
$DIMDLE
 40
0.0
  9
$DIMEXE
 40
1.0
  9
$DIMTP
 40
0.0
  9
$DIMTM
 40
0.0
  9
$DIMTXT
 40
3.2
  9
$DIMCEN
 40
2.5
  9
$DIMTSZ
 40
0.0
  9
$DIMTOL
 70
     0
  9
$DIMLIM
 70
     0
  9
$DIMTIH
 70
     0
  9
$DIMTOH
 70
     0
  9
$DIMSE1
 70
     0
  9
$DIMSE2
 70
     0
  9
$DIMTAD
 70
     1
  9
$DIMZIN
 70
     8
  9
$DIMBLK
  1

  9
$DIMASO
 70
     1
  9
$DIMSHO
 70
     1
  9
$DIMPOST
  1

  9
$DIMAPOST
  1

  9
$DIMALT
 70
     0
  9
$DIMALTD
 70
     2
  9
$DIMALTF
 40
25.4
  9
$DIMLFAC
 40
1.0
  9
$DIMTOFL
 70
     1
  9
$DIMTVP
 40
0.0
  9
$DIMTIX
 70
     0
  9
$DIMSOXD
 70
     0
  9
$DIMSAH
 70
     1
  9
$DIMBLK1
  1
KCAD_OPEN30
  9
$DIMBLK2
  1
KCAD_OPEN30
  9
$DIMSTYLE
  2
Standard
  9
$DIMCLRD
 70
     0
  9
$DIMCLRE
 70
     0
  9
$DIMCLRT
 70
     0
  9
$DIMTFAC
 40
0.667
  9
$DIMGAP
 40
0.5333000000000001
  9
$DIMJUST
 70
     0
  9
$DIMSD1
 70
     0
  9
$DIMSD2
 70
     0
  9
$DIMTOLJ
 70
     1
  9
$DIMTZIN
 70
     8
  9
$DIMALTZ
 70
     0
  9
$DIMALTTZ
 70
     0
  9
$DIMUPT
 70
     0
  9
$DIMDEC
 70
     3
  9
$DIMTDEC
 70
     3
  9
$DIMALTU
 70
     2
  9
$DIMALTTD
 70
     2
  9
$DIMTXSTY
  7
KCADDIMSTANDARD
  9
$DIMAUNIT
 70
     0
  9
$DIMADEC
 70
     3
  9
$DIMALTRND
 40
0.0
  9
$DIMAZIN
 70
     2
  9
$DIMDSEP
 70
    46
  9
$DIMATFIT
 70
     3
  9
$DIMFRAC
 70
     0
  9
$DIMLDRBLK
  1
KCAD_OPEN
  9
$DIMLUNIT
 70
     2
  9
$DIMLWD
 70
    -2
  9
$DIMLWE
 70
    -2
  9
$DIMTMOVE
 70
     0
  9
$LUNITS
 70
     2
  9
$LUPREC
 70
     4
  9
$SKETCHINC
 40
1.0
  9
$FILLETRAD
 40
5.0
  9
$AUNITS
 70
     0
  9
$AUPREC
 70
     0
  9
$MENU
  1
.
  9
$ELEVATION
 40
0.0
  9
$PELEVATION
 40
0.0
  9
$THICKNESS
 40
0.0
  9
$LIMCHECK
 70
     0
  9
$CHAMFERA
 40
5.0
  9
$CHAMFERB
 40
5.0
  9
$CHAMFERC
 40
5.0
  9
$CHAMFERD
 40
0.7853981633974483
  9
$SKPOLY
 70
     0
  9
$TDCREATE
 40
2453354.092125822
  9
$TDUCREATE
 40
2453353.717125822
  9
$TDUPDATE
 40
2453294.582984664
  9
$TDUUPDATE
 40
2453294.207984664
  9
$TDINDWG
 40
0.045748669
  9
$TDUSRTIMER
 40
0.0457255208
  9
$USRTIMER
 70
     1
  9
$ANGBASE
 50
0.0
  9
$ANGDIR
 70
     0
  9
$PDMODE
 70
     0
  9
$PDSIZE
 40
0.0
  9
$PLINEWID
 40
0.0
  9
$SPLFRAME
 70
     0
  9
$SPLINETYPE
 70
     6
  9
$SPLINESEGS
 70
     8
  9
$HANDSEED
  5
6CD
  9
$SURFTAB1
 70
     6
  9
$SURFTAB2
 70
     6
  9
$SURFTYPE
 70
     6
  9
$SURFU
 70
     6
  9
$SURFV
 70
     6
  9
$UCSBASE
  2

  9
$UCSNAME
  2

  9
$UCSORG
 10
0.0
 20
0.0
 30
0.0
  9
$UCSXDIR
 10
1.0
 20
0.0
 30
0.0
  9
$UCSYDIR
 10
0.0
 20
1.0
 30
0.0
  9
$UCSORTHOREF
  2

  9
$UCSORTHOVIEW
 70
     0
  9
$UCSORGTOP
 10
0.0
 20
0.0
 30
0.0
  9
$UCSORGBOTTOM
 10
0.0
 20
0.0
 30
0.0
  9
$UCSORGLEFT
 10
0.0
 20
0.0
 30
0.0
  9
$UCSORGRIGHT
 10
0.0
 20
0.0
 30
0.0
  9
$UCSORGFRONT
 10
0.0
 20
0.0
 30
0.0
  9
$UCSORGBACK
 10
0.0
 20
0.0
 30
0.0
  9
$PUCSBASE
  2

  9
$PUCSNAME
  2

  9
$PUCSORG
 10
0.0
 20
0.0
 30
0.0
  9
$PUCSXDIR
 10
1.0
 20
0.0
 30
0.0
  9
$PUCSYDIR
 10
0.0
 20
1.0
 30
0.0
  9
$PUCSORTHOREF
  2

  9
$PUCSORTHOVIEW
 70
     0
  9
$PUCSORGTOP
 10
0.0
 20
0.0
 30
0.0
  9
$PUCSORGBOTTOM
 10
0.0
 20
0.0
 30
0.0
  9
$PUCSORGLEFT
 10
0.0
 20
0.0
 30
0.0
  9
$PUCSORGRIGHT
 10
0.0
 20
0.0
 30
0.0
  9
$PUCSORGFRONT
 10
0.0
 20
0.0
 30
0.0
  9
$PUCSORGBACK
 10
0.0
 20
0.0
 30
0.0
  9
$USERI1
 70
     0
  9
$USERI2
 70
     0
  9
$USERI3
 70
     0
  9
$USERI4
 70
   257
  9
$USERI5
 70
     0
  9
$USERR1
 40
0.0
  9
$USERR2
 40
0.0
  9
$USERR3
 40
0.0
  9
$USERR4
 40
0.0
  9
$USERR5
 40
0.0
  9
$WORLDVIEW
 70
     1
  9
$SHADEDGE
 70
     3
  9
$SHADEDIF
 70
    70
  9
$TILEMODE
 70
     1
  9
$MAXACTVP
 70
    48
  9
$PINSBASE
 10
0.0
 20
0.0
 30
0.0
  9
$PLIMCHECK
 70
     0
  9
$PEXTMIN
 10
0.0
 20
0.0
 30
0.0
  9
$PEXTMAX
 10
0.0
 20
0.0
 30
0.0
  9
$PLIMMIN
 10
0.0
 20
0.0
  9
$PLIMMAX
 10
12.0
 20
9.0
  9
$UNITMODE
 70
     0
  9
$VISRETAIN
 70
     1
  9
$PLINEGEN
 70
     0
  9
$PSLTSCALE
 70
     1
  9
$TREEDEPTH
 70
  3020
  9
$CMLSTYLE
  2
Standard
  9
$CMLJUST
 70
     0
  9
$CMLSCALE
 40
20.0
  9
$PROXYGRAPHICS
 70
     1
  9
$MEASUREMENT
 70
     1
  9
$CELWEIGHT
370
    15
  9
$ENDCAPS
280
     0
  9
$JOINSTYLE
280
     0
  9
$LWDISPLAY
290
     0
  9
$INSUNITS
 70
     0
  9
$HYPERLINKBASE
  1

  9
$STYLESHEET
  1

  9
$XEDIT
290
     0
  9
$CEPSNTYPE
380
     0
  9
$PSTYLEMODE
290
     1
  9
$FINGERPRINTGUID
  2
{1989D620-E742-11D2-9219-00105A146177}
  9
$VERSIONGUID
  2
{64861F0C-917F-469A-83B4-979EBEDA19DE}
  9
$EXTNAMES
290
     1
  9
$PSVPSCALE
 40
0.0
  9
$OLESTARTUP
290
     0
  0
ENDSEC
  0
SECTION
  2
CLASSES
  0
CLASS
  1
ACDBDICTIONARYWDFLT
  2
AcDbDictionaryWithDefault
  3
ObjectDBX Classes
 90
        0
280
     0
281
     0
  0
CLASS
  1
ACDBPLACEHOLDER
  2
AcDbPlaceHolder
  3
ObjectDBX Classes
 90
        0
280
     0
281
     0
  0
CLASS
  1
LAYOUT
  2
AcDbLayout
  3
ObjectDBX Classes
 90
        0
280
     0
281
     0
  0
CLASS
  1
DICTIONARYVAR
  2
AcDbDictionaryVar
  3
ObjectDBX Classes
 90
        0
280
     0
281
     0
  0
CLASS
  1
TABLESTYLE
  2
AcDbTableStyle
  3
ObjectDBX Classes
 90
     2047
280
     0
281
     0
  0
ENDSEC
  0
SECTION
  2
TABLES
  0
TABLE
  2
VPORT
  5
8
330
0
100
AcDbSymbolTable
 70
     2
  0
VPORT
  5
97
330
8
100
AcDbSymbolTableRecord
100
AcDbViewportTableRecord
  2
*Active
 70
     0
 10
0.0
 20
0.0
 11
1.0
 21
1.0
 12
-144.4487018151283
 22
104.7166631072764
 13
0.0
 23
0.0
 14
10.0
 24
10.0
 15
10.0
 25
10.0
 16
0.0
 26
0.0
 36
1.0
 17
0.0
 27
0.0
 37
0.0
 40
229.0280734350143
 41
2.20035778175313
 42
50.0
 43
0.0
 44
0.0
 50
0.0
 51
0.0
 71
    16
 72
 20000
 73
     1
 74
     1
 75
     0
 76
     0
 77
     0
 78
     0
281
     0
 65
     0
110
0.0
120
0.0
130
0.0
111
1.0
121
0.0
131
0.0
112
0.0
122
1.0
132
0.0
 79
     0
146
0.0
  0
ENDTAB
  0
TABLE
  2
LTYPE
  5
5
330
0
100
AcDbSymbolTable
 70
     6
  0
LTYPE
  5
14
330
5
100
AcDbSymbolTableRecord
100
AcDbLinetypeTableRecord
  2
ByBlock
 70
     0
  3

 72
    65
 73
     0
 40
0.0
  0
LTYPE
  5
15
330
5
100
AcDbSymbolTableRecord
100
AcDbLinetypeTableRecord
  2
ByLayer
 70
     0
  3

 72
    65
 73
     0
 40
0.0
  0
LTYPE
  5
16
330
5
100
AcDbSymbolTableRecord
100
AcDbLinetypeTableRecord
  2
Continuous
 70
     0
  3
Solid line
 72
    65
 73
     0
 40
0.0
  0
LTYPE
  5
68B
330
5
100
AcDbSymbolTableRecord
100
AcDbLinetypeTableRecord
  2
CENTER
 70
     0
  3
Center ____ _ ____ _ ____ _ ____ _ ____ _ ____
 72
    65
 73
     4
 40
50.8
 49
31.75
 74
     4
 75
     0
340
0
 46
1.0
 50
0.0
 44
0.0
 45
0.0
 49
-6.349999999999999
 74
     4
 75
     0
340
0
 46
1.0
 50
0.0
 44
0.0
 45
0.0
 49
6.349999999999999
 74
     4
 75
     0
340
0
 46
1.0
 50
0.0
 44
0.0
 45
0.0
 49
-6.349999999999999
 74
     4
 75
     0
340
0
 46
1.0
 50
0.0
 44
0.0
 45
0.0
  0
LTYPE
  5
68C
330
5
100
AcDbSymbolTableRecord
100
AcDbLinetypeTableRecord
  2
DASHED
 70
     0
  3
Dashed __ __ __ __ __ __ __ __ __ __ __ __ __ _
 72
    65
 73
     2
 40
19.05
 49
12.7
 74
     4
 75
     0
340
0
 46
1.0
 50
0.0
 44
0.0
 45
0.0
 49
-6.349999999999999
 74
     4
 75
     0
340
0
 46
1.0
 50
0.0
 44
0.0
 45
0.0
  0
LTYPE
  5
68D
330
5
100
AcDbSymbolTableRecord
100
AcDbLinetypeTableRecord
  2
HIDDEN
 70
     0
  3
Hidden __ __ __ __ __ __ __ __ __ __ __ __ __ _
 72
    65
 73
     2
 40
9.524999999999999
 49
6.349999999999999
 74
     4
 75
     0
340
0
 46
1.0
 50
0.0
 44
0.0
 45
0.0
 49
-3.174999999999999
 74
     4
 75
     0
340
0
 46
1.0
 50
0.0
 44
0.0
 45
0.0
  0
LTYPE
  5
68E
330
5
100
AcDbSymbolTableRecord
100
AcDbLinetypeTableRecord
  2
PHANTOM
 70
     0
  3
Phantom ______  __  __  ______  __  __  ______
 72
    65
 73
     6
 40
63.50000000000001
 49
31.75
 74
     4
 75
     0
340
0
 46
1.0
 50
0.0
 44
0.0
 45
0.0
 49
-6.349999999999999
 74
     4
 75
     0
340
0
 46
1.0
 50
0.0
 44
0.0
 45
0.0
 49
6.349999999999999
 74
     4
 75
     0
340
0
 46
1.0
 50
0.0
 44
0.0
 45
0.0
 49
-6.349999999999999
 74
     4
 75
     0
340
0
 46
1.0
 50
0.0
 44
0.0
 45
0.0
 49
6.349999999999999
 74
     4
 75
     0
340
0
 46
1.0
 50
0.0
 44
0.0
 45
0.0
 49
-6.349999999999999
 74
     4
 75
     0
340
0
 46
1.0
 50
0.0
 44
0.0
 45
0.0
  0
LTYPE
  5
68F
330
5
100
AcDbSymbolTableRecord
100
AcDbLinetypeTableRecord
  2
RUPTURE
 70
     0
  3
Rupture line
 72
    65
 73
     4
 40
45.72
 49
25.4
 74
     4
 75
     0
340
0
 46
1.0
 50
0.0
 44
0.0
 45
0.0
 49
-5.08
 74
     4
 75
   131
340
11
 46
5.08
 50
0.0
 44
-5.08
 45
0.0
 49
-10.16
 74
     4
 75
   131
340
11
 46
5.08
 50
180.0
 44
5.08
 45
0.0
 49
-5.08
 74
     4
 75
     0
340
0
 46
1.0
 50
0.0
 44
0.0
 45
0.0
  0
ENDTAB
  0
TABLE
  2
LAYER
  5
2
330
0
100
AcDbSymbolTable
 70
    15
  0
LAYER
  5
10
330
2
100
AcDbSymbolTableRecord
100
AcDbLayerTableRecord
  2
0
 70
     0
 62
     7
  6
Continuous
370
    -3
390
F
  0
LAYER
  5
5C3
330
2
100
AcDbSymbolTableRecord
100
AcDbLayerTableRecord
  2
KCAD_DIMS
 70
     0
 62
   134
  6
Continuous
370
    15
390
F
  0
LAYER
  5
4F
330
2
100
AcDbSymbolTableRecord
100
AcDbLayerTableRecord
  2
DEFPOINTS
 70
     0
 62
     7
  6
Continuous
290
     0
370
    -3
390
F
  0
LAYER
  5
20B
330
2
100
AcDbSymbolTableRecord
100
AcDbLayerTableRecord
  2
KCAD_ASST
 70
     0
 62
   134
  6
Continuous
370
    15
390
F
  0
LAYER
  5
20C
330
2
100
AcDbSymbolTableRecord
100
AcDbLayerTableRecord
  2
KCAD_RASTER
 70
     0
 62
     7
  6
Continuous
370
    30
390
F
  0
LAYER
  5
20D
330
2
100
AcDbSymbolTableRecord
100
AcDbLayerTableRecord
  2
SYBCENTER
 70
     0
 62
   134
  6
CENTER
370
    15
390
F
  0
LAYER
  5
20E
330
2
100
AcDbSymbolTableRecord
100
AcDbLayerTableRecord
  2
SYBHIDE
 70
     0
 62
   134
  6
HIDDEN
370
    15
390
F
  0
LAYER
  5
20F
330
2
100
AcDbSymbolTableRecord
100
AcDbLayerTableRecord
  2
SYBOUTLINE
 70
     0
 62
     7
  6
Continuous
370
    30
390
F
  0
LAYER
  5
210
330
2
100
AcDbSymbolTableRecord
100
AcDbLayerTableRecord
  2
SYBTHREAD
 70
     0
 62
   134
  6
Continuous
370
    15
390
F
  0
LAYER
  5
211
330
2
100
AcDbSymbolTableRecord
100
AcDbLayerTableRecord
  2
SYBTHRHID
 70
     0
 62
   134
  6
HIDDEN
370
    15
390
F
  0
LAYER
  5
282
330
2
100
AcDbSymbolTableRecord
100
AcDbLayerTableRecord
  2
KCAD_UIR_TMP_LAYER_
 70
     0
 62
     7
  6
Continuous
370
    -3
390
F
  0
LAYER
  5
2A8
330
2
100
AcDbSymbolTableRecord
100
AcDbLayerTableRecord
  2
KCAD_CPM_MAX_LAYER
 70
     3
 62
     7
  6
Continuous
370
    -3
390
F
  0
LAYER
  5
2F1
330
2
100
AcDbSymbolTableRecord
100
AcDbLayerTableRecord
  2
1
 70
     0
 62
     7
  6
Continuous
370
    -3
390
F
  0
LAYER
  5
306
330
2
100
AcDbSymbolTableRecord
100
AcDbLayerTableRecord
  2
99
 70
     0
 62
     7
  6
Continuous
370
    -3
390
F
  0
LAYER
  5
38F
330
2
100
AcDbSymbolTableRecord
100
AcDbLayerTableRecord
  2
2
 70
     0
 62
     7
  6
Continuous
370
    -3
390
F
  0
ENDTAB
  0
TABLE
  2
STYLE
  5
3
330
0
100
AcDbSymbolTable
 70
     5
  0
STYLE
  5
11
330
3
100
AcDbSymbolTableRecord
100
AcDbTextStyleTableRecord
  2
Standard
 70
     0
 40
0.0
 41
1.0
 50
0.0
 71
     0
 42
3.2
  3
txt.shx
  4
bigfont.shx
  0
STYLE
  5
17F
330
3
100
AcDbSymbolTableRecord
100
AcDbTextStyleTableRecord
  2

 70
     1
 40
0.0
 41
1.0
 50
0.0
 71
     0
 42
3.2
  3
ltypeshp.shx
  4

  0
STYLE
  5
189
330
3
100
AcDbSymbolTableRecord
100
AcDbTextStyleTableRecord
  2
KCADDIMSTANDARD
 70
     0
 40
0.0
 41
1.0
 50
0.0
 71
     0
 42
3.2
  3
txt.shx
  4
bigfont.shx
  0
STYLE
  5
18A
330
3
100
AcDbSymbolTableRecord
100
AcDbTextStyleTableRecord
  2
KCADTEXTSTANDARD
 70
     0
 40
0.0
 41
1.0
 50
0.0
 71
     0
 42
3.2
  3
txt.shx
  4
bigfont.shx
  0
STYLE
  5
1AD
330
3
100
AcDbSymbolTableRecord
100
AcDbTextStyleTableRecord
  2
KCADTEXT2
 70
     0
 40
0.0
 41
1.0
 50
0.0
 71
     0
 42
3.2
  3
txt.shx
  4
extfont.shx
  0
ENDTAB
  0
TABLE
  2
VIEW
  5
6
330
0
100
AcDbSymbolTable
 70
     0
  0
ENDTAB
  0
TABLE
  2
UCS
  5
7
330
0
100
AcDbSymbolTable
 70
     0
  0
ENDTAB
  0
TABLE
  2
APPID
  5
9
330
0
100
AcDbSymbolTable
 70
     2
  0
APPID
  5
12
330
9
100
AcDbSymbolTableRecord
100
AcDbRegAppTableRecord
  2
ACAD
 70
     0
  0
APPID
  5
68A
330
9
100
AcDbSymbolTableRecord
100
AcDbRegAppTableRecord
  2
Sigma
 70
     0
  0
ENDTAB
  0
TABLE
  2
DIMSTYLE
  5
A
330
0
100
AcDbSymbolTable
 70
     1
100
AcDbDimStyleTable
  0
DIMSTYLE
105
27
330
A
100
AcDbSymbolTableRecord
100
AcDbDimStyleTableRecord
  2
Standard
 70
     0
340
11
  0
ENDTAB
  0
TABLE
  2
BLOCK_RECORD
  5
1
330
0
100
AcDbSymbolTable
 70
    27
  0
BLOCK_RECORD
  5
1F
330
1
100
AcDbSymbolTableRecord
100
AcDbBlockTableRecord
  2
*Model_Space
340
22
  0
BLOCK_RECORD
  5
73
330
1
100
AcDbSymbolTableRecord
100
AcDbBlockTableRecord
  2
*Paper_Space
340
22F
  0
BLOCK_RECORD
  5
5C4
330
1
100
AcDbSymbolTableRecord
100
AcDbBlockTableRecord
  2
KCAD_OPEN
340
0
  0
BLOCK_RECORD
  5
3C
330
1
100
AcDbSymbolTableRecord
100
AcDbBlockTableRecord
  2
KCAD_DOTSMALL
340
0
  0
BLOCK_RECORD
  5
44
330
1
100
AcDbSymbolTableRecord
100
AcDbBlockTableRecord
  2
KCAD_NONE
340
0
  0
BLOCK_RECORD
  5
FC
330
1
100
AcDbSymbolTableRecord
100
AcDbBlockTableRecord
  2
_CLOSED
340
0
  0
BLOCK_RECORD
  5
103
330
1
100
AcDbSymbolTableRecord
100
AcDbBlockTableRecord
  2
_DOT
340
0
  0
BLOCK_RECORD
  5
10B
330
1
100
AcDbSymbolTableRecord
100
AcDbBlockTableRecord
  2
_CLOSEDBLANK
340
0
  0
BLOCK_RECORD
  5
111
330
1
100
AcDbSymbolTableRecord
100
AcDbBlockTableRecord
  2
_OBLIQUE
340
0
  0
BLOCK_RECORD
  5
115
330
1
100
AcDbSymbolTableRecord
100
AcDbBlockTableRecord
  2
_ARCHTICK
340
0
  0
BLOCK_RECORD
  5
11C
330
1
100
AcDbSymbolTableRecord
100
AcDbBlockTableRecord
  2
_OPEN
340
0
  0
BLOCK_RECORD
  5
122
330
1
100
AcDbSymbolTableRecord
100
AcDbBlockTableRecord
  2
_ORIGIN
340
0
  0
BLOCK_RECORD
  5
127
330
1
100
AcDbSymbolTableRecord
100
AcDbBlockTableRecord
  2
_OPEN90
340
0
  0
BLOCK_RECORD
  5
12D
330
1
100
AcDbSymbolTableRecord
100
AcDbBlockTableRecord
  2
_OPEN30
340
0
  0
BLOCK_RECORD
  5
133
330
1
100
AcDbSymbolTableRecord
100
AcDbBlockTableRecord
  2
_DOTBLANK
340
0
  0
BLOCK_RECORD
  5
138
330
1
100
AcDbSymbolTableRecord
100
AcDbBlockTableRecord
  2
_DOTSMALL
340
0
  0
BLOCK_RECORD
  5
13F
330
1
100
AcDbSymbolTableRecord
100
AcDbBlockTableRecord
  2
_BOXFILLED
340
0
  0
BLOCK_RECORD
  5
144
330
1
100
AcDbSymbolTableRecord
100
AcDbBlockTableRecord
  2
_BOXBLANK
340
0
  0
BLOCK_RECORD
  5
14C
330
1
100
AcDbSymbolTableRecord
100
AcDbBlockTableRecord
  2
_DATUMFILLED
340
0
  0
BLOCK_RECORD
  5
150
330
1
100
AcDbSymbolTableRecord
100
AcDbBlockTableRecord
  2
_DATUMBLANK
340
0
  0
BLOCK_RECORD
  5
156
330
1
100
AcDbSymbolTableRecord
100
AcDbBlockTableRecord
  2
_INTEGRAL
340
0
  0
BLOCK_RECORD
  5
1F1
330
1
100
AcDbSymbolTableRecord
100
AcDbBlockTableRecord
  2
_Origin2
340
0
  0
BLOCK_RECORD
  5
1F7
330
1
100
AcDbSymbolTableRecord
100
AcDbBlockTableRecord
  2
KCAD_OPEN30
340
0
  0
BLOCK_RECORD
  5
222
330
1
100
AcDbSymbolTableRecord
100
AcDbBlockTableRecord
  2
_None
340
0
  0
BLOCK_RECORD
  5
283
330
1
100
AcDbSymbolTableRecord
100
AcDbBlockTableRecord
  2
_Small
340
0
  0
BLOCK_RECORD
  5
287
330
1
100
AcDbSymbolTableRecord
100
AcDbBlockTableRecord
  2
KCAD_OPEN_2
340
0
  0
BLOCK_RECORD
  5
28E
330
1
100
AcDbSymbolTableRecord
100
AcDbBlockTableRecord
  2
KCAD_OPEN30_2
340
0
  0
BLOCK_RECORD
  5
2AD
330
1
100
AcDbSymbolTableRecord
100
AcDbBlockTableRecord
  2
KCAD_OPEN30ANG
340
0
  0
BLOCK_RECORD
  5
2B6
330
1
100
AcDbSymbolTableRecord
100
AcDbBlockTableRecord
  2
KCAD_DOTANG
340
0
  0
ENDTAB
  0
ENDSEC
  0
SECTION
  2
BLOCKS
  0
BLOCK
  5
20
330
1F
100
AcDbEntity
  8
0
100
AcDbBlockBegin
  2
*Model_Space
 70
     0
 71
     0
 10
0.0
 20
0.0
 30
0.0
  3
*Model_Space
  1

  0
ENDBLK
  5
21
330
1F
100
AcDbEntity
  8
0
100
AcDbBlockEnd
  0
BLOCK
  5
75
330
73
100
AcDbEntity
 67
     1
  8
0
100
AcDbBlockBegin
  2
*Paper_Space
 70
     0
 71
     0
 10
0.0
 20
0.0
 30
0.0
  3
*Paper_Space
  1

  0
ENDBLK
  5
76
330
73
100
AcDbEntity
 67
     1
  8
0
100
AcDbBlockEnd
  0
BLOCK
  5
692
330
5C4
100
AcDbEntity
  8
KCAD_DIMS
100
AcDbBlockBegin
  2
KCAD_OPEN
 70
     0
 71
     0
 10
0.0
 20
0.0
 30
0.0
  3
KCAD_OPEN
  1

  0
LINE
  5
5FB
330
5C4
100
AcDbEntity
  8
0
  6
Continuous
 62
     0
370
    -2
100
AcDbLine
 10
0.0
 20
0.0
 30
0.0
 11
-1.0
 21
0.0
 31
0.0
  0
LINE
  5
23
330
5C4
100
AcDbEntity
  8
0
  6
Continuous
 62
     0
370
    -2
100
AcDbLine
 10
0.0
 20
0.0
 30
0.0
 11
-1.0
 21
0.158384
 31
0.0
  0
LINE
  5
24
330
5C4
100
AcDbEntity
  8
0
  6
Continuous
 62
     0
370
    -2
100
AcDbLine
 10
0.0
 20
0.0
 30
0.0
 11
-1.0
 21
-0.158384
 31
0.0
  0
ENDBLK
  5
693
330
5C4
100
AcDbEntity
  8
KCAD_DIMS
100
AcDbBlockEnd
  0
BLOCK
  5
694
330
3C
100
AcDbEntity
  8
KCAD_DIMS
100
AcDbBlockBegin
  2
KCAD_DOTSMALL
 70
     0
 71
     0
 10
0.0
 20
0.0
 30
0.0
  3
KCAD_DOTSMALL
  1

  0
LWPOLYLINE
  5
3D
330
3C
100
AcDbEntity
  8
KCAD_DIMS
 62
     0
100
AcDbPolyline
 90
        2
 70
     1
 43
0.5
 10
0.06252
 20
0.0
 42
1.0
 10
-0.06262
 20
0.0
 42
1.0
  0
LINE
  5
41
330
3C
100
AcDbEntity
  8
0
  6
Continuous
 62
     0
370
    -2
100
AcDbLine
 10
0.0
 20
0.0
 30
0.0
 11
-1.0
 21
0.0
 31
0.0
  0
ENDBLK
  5
695
330
3C
100
AcDbEntity
  8
0
100
AcDbBlockEnd
  0
BLOCK
  5
696
330
44
100
AcDbEntity
  8
KCAD_DIMS
100
AcDbBlockBegin
  2
KCAD_NONE
 70
     0
 71
     0
 10
0.0
 20
0.0
 30
0.0
  3
KCAD_NONE
  1

  0
LINE
  5
45
330
44
100
AcDbEntity
  8
0
  6
Continuous
 62
     0
370
    -2
100
AcDbLine
 10
0.0
 20
0.0
 30
0.0
 11
-1.0
 21
0.0
 31
0.0
  0
ENDBLK
  5
697
330
44
100
AcDbEntity
  8
0
100
AcDbBlockEnd
  0
BLOCK
  5
698
330
FC
100
AcDbEntity
  8
0
100
AcDbBlockBegin
  2
_CLOSED
 70
     0
 71
     0
 10
0.0
 20
0.0
 30
0.0
  3
_CLOSED
  1

  0
LINE
  5
FE
330
FC
100
AcDbEntity
  8
0
  6
Continuous
 62
     0
370
    -2
100
AcDbLine
 10
-1.0
 20
0.166667
 30
0.0
 11
0.0
 21
0.0
 31
0.0
  0
LINE
  5
FF
330
FC
100
AcDbEntity
  8
0
  6
Continuous
 62
     0
370
    -2
100
AcDbLine
 10
0.0
 20
0.0
 30
0.0
 11
-1.0
 21
-0.166667
 31
0.0
  0
LINE
  5
100
330
FC
100
AcDbEntity
  8
0
  6
Continuous
 62
     0
370
    -2
100
AcDbLine
 10
-1.0
 20
0.166667
 30
0.0
 11
-1.0
 21
-0.166667
 31
0.0
  0
LINE
  5
101
330
FC
100
AcDbEntity
  8
0
  6
Continuous
 62
     0
370
    -2
100
AcDbLine
 10
0.0
 20
0.0
 30
0.0
 11
-1.0
 21
0.0
 31
0.0
  0
ENDBLK
  5
699
330
FC
100
AcDbEntity
  8
0
100
AcDbBlockEnd
  0
BLOCK
  5
69A
330
103
100
AcDbEntity
  8
0
100
AcDbBlockBegin
  2
_DOT
 70
     0
 71
     0
 10
0.0
 20
0.0
 30
0.0
  3
_DOT
  1

  0
LWPOLYLINE
  5
105
330
103
100
AcDbEntity
  8
0
  6
ByBlock
 62
     0
100
AcDbPolyline
 90
        2
 70
     1
 43
0.5
 10
-0.25
 20
0.0
 42
1.0
 10
0.25
 20
0.0
 42
1.0
  0
LINE
  5
109
330
103
100
AcDbEntity
  8
0
  6
Continuous
 62
     0
370
    -2
100
AcDbLine
 10
-0.5
 20
0.0
 30
0.0
 11
-1.0
 21
0.0
 31
0.0
  0
ENDBLK
  5
69B
330
103
100
AcDbEntity
  8
0
100
AcDbBlockEnd
  0
BLOCK
  5
69C
330
10B
100
AcDbEntity
  8
0
100
AcDbBlockBegin
  2
_CLOSEDBLANK
 70
     0
 71
     0
 10
0.0
 20
0.0
 30
0.0
  3
_CLOSEDBLANK
  1

  0
LINE
  5
10D
330
10B
100
AcDbEntity
  8
0
  6
Continuous
 62
     0
370
    -2
100
AcDbLine
 10
-1.0
 20
0.166667
 30
0.0
 11
0.0
 21
0.0
 31
0.0
  0
LINE
  5
10E
330
10B
100
AcDbEntity
  8
0
  6
Continuous
 62
     0
370
    -2
100
AcDbLine
 10
0.0
 20
0.0
 30
0.0
 11
-1.0
 21
-0.166667
 31
0.0
  0
LINE
  5
10F
330
10B
100
AcDbEntity
  8
0
  6
Continuous
 62
     0
370
    -2
100
AcDbLine
 10
-1.0
 20
0.166667
 30
0.0
 11
-1.0
 21
-0.166667
 31
0.0
  0
ENDBLK
  5
69D
330
10B
100
AcDbEntity
  8
0
100
AcDbBlockEnd
  0
BLOCK
  5
69E
330
111
100
AcDbEntity
  8
0
100
AcDbBlockBegin
  2
_OBLIQUE
 70
     0
 71
     0
 10
0.0
 20
0.0
 30
0.0
  3
_OBLIQUE
  1

  0
LINE
  5
113
330
111
100
AcDbEntity
  8
0
  6
Continuous
 62
     0
370
    -2
100
AcDbLine
 10
-0.5
 20
-0.5
 30
0.0
 11
0.5
 21
0.5
 31
0.0
  0
ENDBLK
  5
69F
330
111
100
AcDbEntity
  8
0
100
AcDbBlockEnd
  0
BLOCK
  5
6A0
330
115
100
AcDbEntity
  8
0
100
AcDbBlockBegin
  2
_ARCHTICK
 70
     0
 71
     0
 10
0.0
 20
0.0
 30
0.0
  3
_ARCHTICK
  1

  0
LWPOLYLINE
  5
117
330
115
100
AcDbEntity
  8
0
  6
ByBlock
 62
     0
100
AcDbPolyline
 90
        2
 70
     0
 43
0.15
 10
-0.5
 20
-0.5
 10
0.5
 20
0.5
  0
ENDBLK
  5
6A1
330
115
100
AcDbEntity
  8
0
100
AcDbBlockEnd
  0
BLOCK
  5
6A2
330
11C
100
AcDbEntity
  8
0
100
AcDbBlockBegin
  2
_OPEN
 70
     0
 71
     0
 10
0.0
 20
0.0
 30
0.0
  3
_OPEN
  1

  0
LINE
  5
11E
330
11C
100
AcDbEntity
  8
0
  6
Continuous
 62
     0
370
    -2
100
AcDbLine
 10
-1.0
 20
0.166667
 30
0.0
 11
0.0
 21
0.0
 31
0.0
  0
LINE
  5
11F
330
11C
100
AcDbEntity
  8
0
  6
Continuous
 62
     0
370
    -2
100
AcDbLine
 10
0.0
 20
0.0
 30
0.0
 11
-1.0
 21
-0.166667
 31
0.0
  0
LINE
  5
120
330
11C
100
AcDbEntity
  8
0
  6
Continuous
 62
     0
370
    -2
100
AcDbLine
 10
0.0
 20
0.0
 30
0.0
 11
-1.0
 21
0.0
 31
0.0
  0
ENDBLK
  5
6A3
330
11C
100
AcDbEntity
  8
0
100
AcDbBlockEnd
  0
BLOCK
  5
6A4
330
122
100
AcDbEntity
  8
0
100
AcDbBlockBegin
  2
_ORIGIN
 70
     0
 71
     0
 10
0.0
 20
0.0
 30
0.0
  3
_ORIGIN
  1

  0
CIRCLE
  5
124
330
122
100
AcDbEntity
  8
0
  6
ByBlock
 62
     0
100
AcDbCircle
 10
0.0
 20
0.0
 30
0.0
 40
0.5
  0
LINE
  5
125
330
122
100
AcDbEntity
  8
0
  6
Continuous
 62
     0
370
    -2
100
AcDbLine
 10
0.0
 20
0.0
 30
0.0
 11
-1.0
 21
0.0
 31
0.0
  0
ENDBLK
  5
6A5
330
122
100
AcDbEntity
  8
0
100
AcDbBlockEnd
  0
BLOCK
  5
6A6
330
127
100
AcDbEntity
  8
0
100
AcDbBlockBegin
  2
_OPEN90
 70
     0
 71
     0
 10
0.0
 20
0.0
 30
0.0
  3
_OPEN90
  1

  0
LINE
  5
129
330
127
100
AcDbEntity
  8
0
  6
Continuous
 62
     0
370
    -2
100
AcDbLine
 10
-0.5
 20
0.5
 30
0.0
 11
0.0
 21
0.0
 31
0.0
  0
LINE
  5
12A
330
127
100
AcDbEntity
  8
0
  6
Continuous
 62
     0
370
    -2
100
AcDbLine
 10
0.0
 20
0.0
 30
0.0
 11
-0.5
 21
-0.5
 31
0.0
  0
LINE
  5
12B
330
127
100
AcDbEntity
  8
0
  6
Continuous
 62
     0
370
    -2
100
AcDbLine
 10
0.0
 20
0.0
 30
0.0
 11
-1.0
 21
0.0
 31
0.0
  0
ENDBLK
  5
6A7
330
127
100
AcDbEntity
  8
0
100
AcDbBlockEnd
  0
BLOCK
  5
6A8
330
12D
100
AcDbEntity
  8
0
100
AcDbBlockBegin
  2
_OPEN30
 70
     0
 71
     0
 10
0.0
 20
0.0
 30
0.0
  3
_OPEN30
  1

  0
LINE
  5
12F
330
12D
100
AcDbEntity
  8
0
  6
Continuous
 62
     0
370
    -2
100
AcDbLine
 10
-1.0
 20
0.267949
 30
0.0
 11
0.0
 21
0.0
 31
0.0
  0
LINE
  5
130
330
12D
100
AcDbEntity
  8
0
  6
Continuous
 62
     0
370
    -2
100
AcDbLine
 10
0.0
 20
0.0
 30
0.0
 11
-1.0
 21
-0.267949
 31
0.0
  0
LINE
  5
131
330
12D
100
AcDbEntity
  8
0
  6
Continuous
 62
     0
370
    -2
100
AcDbLine
 10
0.0
 20
0.0
 30
0.0
 11
-1.0
 21
0.0
 31
0.0
  0
ENDBLK
  5
6A9
330
12D
100
AcDbEntity
  8
0
100
AcDbBlockEnd
  0
BLOCK
  5
6AA
330
133
100
AcDbEntity
  8
0
100
AcDbBlockBegin
  2
_DOTBLANK
 70
     0
 71
     0
 10
0.0
 20
0.0
 30
0.0
  3
_DOTBLANK
  1

  0
CIRCLE
  5
135
330
133
100
AcDbEntity
  8
0
  6
ByBlock
 62
     0
100
AcDbCircle
 10
0.0
 20
0.0
 30
0.0
 40
0.5
  0
LINE
  5
136
330
133
100
AcDbEntity
  8
0
  6
Continuous
 62
     0
370
    -2
100
AcDbLine
 10
-0.5
 20
0.0
 30
0.0
 11
-1.0
 21
0.0
 31
0.0
  0
ENDBLK
  5
6AB
330
133
100
AcDbEntity
  8
0
100
AcDbBlockEnd
  0
BLOCK
  5
6AC
330
138
100
AcDbEntity
  8
0
100
AcDbBlockBegin
  2
_DOTSMALL
 70
     0
 71
     0
 10
0.0
 20
0.0
 30
0.0
  3
_DOTSMALL
  1

  0
LWPOLYLINE
  5
13A
330
138
100
AcDbEntity
  8
0
  6
ByBlock
 62
     0
100
AcDbPolyline
 90
        2
 70
     1
 43
0.5
 10
-0.0625
 20
0.0
 42
1.0
 10
0.0625
 20
0.0
 42
1.0
  0
ENDBLK
  5
6AD
330
138
100
AcDbEntity
  8
0
100
AcDbBlockEnd
  0
BLOCK
  5
6AE
330
13F
100
AcDbEntity
  8
0
100
AcDbBlockBegin
  2
_BOXFILLED
 70
     0
 71
     0
 10
0.0
 20
0.0
 30
0.0
  3
_BOXFILLED
  1

  0
SOLID
  5
141
330
13F
100
AcDbEntity
  8
0
  6
ByBlock
 62
     0
100
AcDbTrace
 10
-0.5
 20
0.5
 30
0.0
 11
0.5
 21
0.5
 31
0.0
 12
-0.5
 22
-0.5
 32
0.0
 13
0.5
 23
-0.5
 33
0.0
  0
LINE
  5
142
330
13F
100
AcDbEntity
  8
0
  6
Continuous
 62
     0
370
    -2
100
AcDbLine
 10
-0.5
 20
0.0
 30
0.0
 11
-1.0
 21
0.0
 31
0.0
  0
ENDBLK
  5
6AF
330
13F
100
AcDbEntity
  8
0
100
AcDbBlockEnd
  0
BLOCK
  5
6B0
330
144
100
AcDbEntity
  8
0
100
AcDbBlockBegin
  2
_BOXBLANK
 70
     0
 71
     0
 10
0.0
 20
0.0
 30
0.0
  3
_BOXBLANK
  1

  0
LINE
  5
146
330
144
100
AcDbEntity
  8
0
  6
Continuous
 62
     0
370
    -2
100
AcDbLine
 10
-0.5
 20
-0.5
 30
0.0
 11
0.5
 21
-0.5
 31
0.0
  0
LINE
  5
147
330
144
100
AcDbEntity
  8
0
  6
Continuous
 62
     0
370
    -2
100
AcDbLine
 10
0.5
 20
-0.5
 30
0.0
 11
0.5
 21
0.5
 31
0.0
  0
LINE
  5
148
330
144
100
AcDbEntity
  8
0
  6
Continuous
 62
     0
370
    -2
100
AcDbLine
 10
0.5
 20
0.5
 30
0.0
 11
-0.5
 21
0.5
 31
0.0
  0
LINE
  5
149
330
144
100
AcDbEntity
  8
0
  6
Continuous
 62
     0
370
    -2
100
AcDbLine
 10
-0.5
 20
0.5
 30
0.0
 11
-0.5
 21
-0.5
 31
0.0
  0
LINE
  5
14A
330
144
100
AcDbEntity
  8
0
  6
Continuous
 62
     0
370
    -2
100
AcDbLine
 10
-0.5
 20
0.0
 30
0.0
 11
-1.0
 21
0.0
 31
0.0
  0
ENDBLK
  5
6B1
330
144
100
AcDbEntity
  8
0
100
AcDbBlockEnd
  0
BLOCK
  5
6B2
330
14C
100
AcDbEntity
  8
0
100
AcDbBlockBegin
  2
_DATUMFILLED
 70
     0
 71
     0
 10
0.0
 20
0.0
 30
0.0
  3
_DATUMFILLED
  1

  0
SOLID
  5
14E
330
14C
100
AcDbEntity
  8
0
  6
ByBlock
 62
     0
100
AcDbTrace
 10
0.0
 20
0.5773500000000001
 30
0.0
 11
-1.0
 21
0.0
 31
0.0
 12
0.0
 22
-0.5773500000000001
 32
0.0
 13
0.0
 23
-0.5773500000000001
 33
0.0
  0
ENDBLK
  5
6B3
330
14C
100
AcDbEntity
  8
0
100
AcDbBlockEnd
  0
BLOCK
  5
6B4
330
150
100
AcDbEntity
  8
0
100
AcDbBlockBegin
  2
_DATUMBLANK
 70
     0
 71
     0
 10
0.0
 20
0.0
 30
0.0
  3
_DATUMBLANK
  1

  0
LINE
  5
152
330
150
100
AcDbEntity
  8
0
  6
Continuous
 62
     0
370
    -2
100
AcDbLine
 10
0.0
 20
0.5773500000000001
 30
0.0
 11
-1.0
 21
0.0
 31
0.0
  0
LINE
  5
153
330
150
100
AcDbEntity
  8
0
  6
Continuous
 62
     0
370
    -2
100
AcDbLine
 10
-1.0
 20
0.0
 30
0.0
 11
0.0
 21
-0.5773500000000001
 31
0.0
  0
LINE
  5
154
330
150
100
AcDbEntity
  8
0
  6
Continuous
 62
     0
370
    -2
100
AcDbLine
 10
0.0
 20
-0.5773500000000001
 30
0.0
 11
0.0
 21
0.5773500000000001
 31
0.0
  0
ENDBLK
  5
6B5
330
150
100
AcDbEntity
  8
0
100
AcDbBlockEnd
  0
BLOCK
  5
6B6
330
156
100
AcDbEntity
  8
0
100
AcDbBlockBegin
  2
_INTEGRAL
 70
     0
 71
     0
 10
0.0
 20
0.0
 30
0.0
  3
_INTEGRAL
  1

  0
ARC
  5
158
330
156
100
AcDbEntity
  8
0
  6
ByBlock
 62
     0
100
AcDbCircle
 10
0.444888
 20
-0.091335
 30
0.0
 40
0.454167
100
AcDbArc
 50
102.0
 51
168.0
  0
ARC
  5
159
330
156
100
AcDbEntity
  8
0
  6
ByBlock
 62
     0
100
AcDbCircle
 10
-0.444888
 20
0.091335
 30
0.0
 40
0.454167
100
AcDbArc
 50
282.0
 51
348.0
  0
ENDBLK
  5
6B7
330
156
100
AcDbEntity
  8
0
100
AcDbBlockEnd
  0
BLOCK
  5
6B8
330
1F1
100
AcDbEntity
  8
0
100
AcDbBlockBegin
  2
_Origin2
 70
     0
 71
     0
 10
0.0
 20
0.0
 30
0.0
  3
_Origin2
  1

  0
CIRCLE
  5
1F2
330
1F1
100
AcDbEntity
  8
0
  6
Continuous
 62
     0
370
    -2
100
AcDbCircle
 10
0.0
 20
0.0
 30
0.0
 40
0.5
  0
CIRCLE
  5
1F3
330
1F1
100
AcDbEntity
  8
0
  6
Continuous
 62
     0
370
    -2
100
AcDbCircle
 10
0.0
 20
0.0
 30
0.0
 40
0.25
  0
LINE
  5
1F4
330
1F1
100
AcDbEntity
  8
0
  6
Continuous
 62
     0
370
    -2
100
AcDbLine
 10
-0.5
 20
0.0
 30
0.0
 11
-1.0
 21
0.0
 31
0.0
  0
ENDBLK
  5
6B9
330
1F1
100
AcDbEntity
  8
0
100
AcDbBlockEnd
  0
BLOCK
  5
6BA
330
1F7
100
AcDbEntity
  8
0
100
AcDbBlockBegin
  2
KCAD_OPEN30
 70
     0
 71
     0
 10
0.0
 20
0.0
 30
0.0
  3
KCAD_OPEN30
  1

  0
LINE
  5
1F8
330
1F7
100
AcDbEntity
  8
0
  6
Continuous
 62
     0
370
    -2
100
AcDbLine
 10
0.0
 20
0.0
 30
0.0
 11
-1.0
 21
0.0
 31
0.0
  0
LINE
  5
1F9
330
1F7
100
AcDbEntity
  8
0
  6
Continuous
 62
     0
370
    -2
100
AcDbLine
 10
0.0
 20
0.0
 30
0.0
 11
-1.0
 21
0.2679491924311227
 31
0.0
  0
LINE
  5
1FA
330
1F7
100
AcDbEntity
  8
0
  6
Continuous
 62
     0
370
    -2
100
AcDbLine
 10
0.0
 20
0.0
 30
0.0
 11
-1.0
 21
-0.2679491924311227
 31
0.0
  0
ENDBLK
  5
6BB
330
1F7
100
AcDbEntity
  8
0
100
AcDbBlockEnd
  0
BLOCK
  5
6BC
330
222
100
AcDbEntity
  8
0
100
AcDbBlockBegin
  2
_None
 70
     0
 71
     0
 10
0.0
 20
0.0
 30
0.0
  3
_None
  1

  0
ENDBLK
  5
6BD
330
222
100
AcDbEntity
  8
0
100
AcDbBlockEnd
  0
BLOCK
  5
6BE
330
283
100
AcDbEntity
  8
0
100
AcDbBlockBegin
  2
_Small
 70
     0
 71
     0
 10
0.0
 20
0.0
 30
0.0
  3
_Small
  1

  0
CIRCLE
  5
284
330
283
100
AcDbEntity
  8
0
  6
ByBlock
 62
     0
370
    -2
100
AcDbCircle
 10
0.0
 20
0.0
 30
0.0
 40
0.25
  0
ENDBLK
  5
6BF
330
283
100
AcDbEntity
  8
0
100
AcDbBlockEnd
  0
BLOCK
  5
6C0
330
287
100
AcDbEntity
  8
0
100
AcDbBlockBegin
  2
KCAD_OPEN_2
 70
     0
 71
     0
 10
0.0
 20
0.0
 30
0.0
  3
KCAD_OPEN_2
  1

  0
LINE
  5
288
330
287
100
AcDbEntity
  8
0
  6
Continuous
 62
     0
370
    -2
100
AcDbLine
 10
0.0
 20
0.0
 30
0.0
 11
-2.0
 21
0.0
 31
0.0
  0
LINE
  5
289
330
287
100
AcDbEntity
  8
0
  6
Continuous
 62
     0
370
    -2
100
AcDbLine
 10
0.0
 20
0.0
 30
0.0
 11
-2.0
 21
0.3167688806490725
 31
0.0
  0
LINE
  5
28A
330
287
100
AcDbEntity
  8
0
  6
Continuous
 62
     0
370
    -2
100
AcDbLine
 10
0.0
 20
0.0
 30
0.0
 11
-2.0
 21
-0.3167688806490725
 31
0.0
  0
LINE
  5
28B
330
287
100
AcDbEntity
  8
0
  6
Continuous
 62
     0
370
    -2
100
AcDbLine
 10
-2.0
 20
0.0
 30
0.0
 11
-4.0
 21
0.0
 31
0.0
  0
ENDBLK
  5
6C1
330
287
100
AcDbEntity
  8
0
100
AcDbBlockEnd
  0
BLOCK
  5
6C2
330
28E
100
AcDbEntity
  8
0
100
AcDbBlockBegin
  2
KCAD_OPEN30_2
 70
     0
 71
     0
 10
0.0
 20
0.0
 30
0.0
  3
KCAD_OPEN30_2
  1

  0
LINE
  5
28F
330
28E
100
AcDbEntity
  8
0
  6
Continuous
 62
     0
370
    -2
100
AcDbLine
 10
0.0
 20
0.0
 30
0.0
 11
-2.0
 21
0.0
 31
0.0
  0
LINE
  5
290
330
28E
100
AcDbEntity
  8
0
  6
Continuous
 62
     0
370
    -2
100
AcDbLine
 10
0.0
 20
0.0
 30
0.0
 11
-2.0
 21
0.5358983848622455
 31
0.0
  0
LINE
  5
291
330
28E
100
AcDbEntity
  8
0
  6
Continuous
 62
     0
370
    -2
100
AcDbLine
 10
0.0
 20
0.0
 30
0.0
 11
-2.0
 21
-0.5358983848622455
 31
0.0
  0
LINE
  5
292
330
28E
100
AcDbEntity
  8
0
  6
Continuous
 62
     0
370
    -2
100
AcDbLine
 10
-2.0
 20
0.0
 30
0.0
 11
-4.0
 21
0.0
 31
0.0
  0
ENDBLK
  5
6C3
330
28E
100
AcDbEntity
  8
0
100
AcDbBlockEnd
  0
BLOCK
  5
6C4
330
2AD
100
AcDbEntity
  8
0
100
AcDbBlockBegin
  2
KCAD_OPEN30ANG
 70
     0
 71
     0
 10
0.0
 20
0.0
 30
0.0
  3
KCAD_OPEN30ANG
  1

  0
LINE
  5
2D7
330
2AD
100
AcDbEntity
  8
0
  6
Continuous
 62
     0
370
    -2
100
AcDbLine
 10
0.0
 20
0.0
 30
0.0
 11
-1.0
 21
-0.267949
 31
0.0
  0
LINE
  5
2D8
330
2AD
100
AcDbEntity
  8
0
  6
Continuous
 62
     0
370
    -2
100
AcDbLine
 10
-1.0
 20
0.267949
 30
0.0
 11
0.0
 21
0.0
 31
0.0
  0
ENDBLK
  5
6C5
330
2AD
100
AcDbEntity
  8
0
100
AcDbBlockEnd
  0
BLOCK
  5
6C6
330
2B6
100
AcDbEntity
  8
0
100
AcDbBlockBegin
  2
KCAD_DOTANG
 70
     0
 71
     0
 10
0.0
 20
0.0
 30
0.0
  3
KCAD_DOTANG
  1

  0
LWPOLYLINE
  5
2DD
330
2B6
100
AcDbEntity
  8
0
  6
ByBlock
 62
     0
100
AcDbPolyline
 90
        2
 70
     1
 43
0.5
 10
-0.25
 20
0.0
 42
1.0
 10
0.25
 20
0.0
 42
1.0
  0
ENDBLK
  5
6C7
330
2B6
100
AcDbEntity
  8
0
100
AcDbBlockEnd
  0
ENDSEC
  0
SECTION
  2
ENTITIES
  0
TEXT
  5
2EF
330
1F
100
AcDbEntity
  8
0
  6
Continuous
 62
     7
370
    30
100
AcDbText
 10
4.901999995708585
 20
4.331666647195785
 30
0.0
 40
2.880000042915344
  1
Ａ４
 41
0.5748197425183692
  7
KCADTEXTSTANDARD
100
AcDbText
1001
Sigma
1000

  0
POINT
  5
2F2
330
1F
100
AcDbEntity
  8
1
  6
Continuous
 62
     7
370
    15
100
AcDbPoint
 10
0.0000000000001
 20
-0.283333331347
 30
0.0
1001
Sigma
1000

  0
POINT
  5
2F4
330
1F
100
AcDbEntity
  8
1
  6
Continuous
 62
     7
370
    15
100
AcDbPoint
 10
-297.0
 20
209.7166595458999
 30
0.0
1001
Sigma
1000

  0
LINE
  5
2F6
330
1F
100
AcDbEntity
  8
DEFPOINTS
  6
HIDDEN
 62
   253
370
    15
100
AcDbLine
 10
0.0000000000001
 20
209.7166595458999
 30
0.0
 11
0.0000000000001
 21
-0.283333331347
 31
0.0
1001
Sigma
1000

  0
LINE
  5
2F8
330
1F
100
AcDbEntity
  8
DEFPOINTS
  6
HIDDEN
 62
   253
370
    15
100
AcDbLine
 10
-297.0
 20
-0.283333331347
 30
0.0
 11
0.0000000000001
 21
-0.283333331347
 31
0.0
1001
Sigma
1000

  0
LINE
  5
2FA
330
1F
100
AcDbEntity
  8
DEFPOINTS
  6
HIDDEN
 62
   253
370
    15
100
AcDbLine
 10
-297.0
 20
209.7166595458999
 30
0.0
 11
-297.0
 21
-0.283333331347
 31
0.0
1001
Sigma
1000

  0
LINE
  5
2FC
330
1F
100
AcDbEntity
  8
DEFPOINTS
  6
HIDDEN
 62
   253
370
    15
100
AcDbLine
 10
-297.0
 20
209.7166595458999
 30
0.0
 11
0.0000000000001
 21
209.7166595458999
 31
0.0
1001
Sigma
1000

  0
LINE
  5
2FE
330
1F
100
AcDbEntity
  8
1
  6
Continuous
 62
     7
370
    30
100
AcDbLine
 10
-15.0
 20
194.7166595459
 30
0.0
 11
-15.0
 21
14.716666221619
 31
0.0
1001
Sigma
1000

  0
LINE
  5
300
330
1F
100
AcDbEntity
  8
1
  6
Continuous
 62
     7
370
    30
100
AcDbLine
 10
-282.0
 20
194.7166595459
 30
0.0
 11
-282.0
 21
14.716666221619
 31
0.0
1001
Sigma
1000

  0
LINE
  5
302
330
1F
100
AcDbEntity
  8
1
  6
Continuous
 62
     7
370
    30
100
AcDbLine
 10
-282.0
 20
14.716666221619
 30
0.0
 11
-15.0
 21
14.716666221619
 31
0.0
1001
Sigma
1000

  0
LINE
  5
304
330
1F
100
AcDbEntity
  8
1
  6
Continuous
 62
     7
370
    30
100
AcDbLine
 10
-15.0
 20
194.7166595459
 30
0.0
 11
-282.0
 21
194.7166595459
 31
0.0
1001
Sigma
1000

  0
LINE
  5
307
330
1F
100
AcDbEntity
  8
99
  6
Continuous
 62
     7
370
    30
100
AcDbLine
 10
-205.0
 20
62.216666221619
 30
0.0
 11
-15.0
 21
62.216666221619
 31
0.0
1001
Sigma
1000

  0
LINE
  5
309
330
1F
100
AcDbEntity
  8
99
  6
Continuous
 62
     7
370
    30
100
AcDbLine
 10
-76.0
 20
14.716666221619
 30
0.0
 11
-76.0
 21
62.216666221619
 31
0.0
1001
Sigma
1000

  0
LINE
  5
30B
330
1F
100
AcDbEntity
  8
99
  6
Continuous
 62
     7
370
    30
100
AcDbLine
 10
-136.0
 20
34.716666221619
 30
0.0
 11
-15.0
 21
34.716666221619
 31
0.0
1001
Sigma
1000

  0
LINE
  5
30D
330
1F
100
AcDbEntity
  8
99
  6
Continuous
 62
     7
370
    30
100
AcDbLine
 10
-91.0
 20
14.716666221619
 30
0.0
 11
-91.0
 21
34.716666221619
 31
0.0
1001
Sigma
1000

  0
LINE
  5
30F
330
1F
100
AcDbEntity
  8
99
  6
Continuous
 62
     7
370
    30
100
AcDbLine
 10
-106.0
 20
14.716666221619
 30
0.0
 11
-106.0
 21
34.716666221619
 31
0.0
1001
Sigma
1000

  0
LINE
  5
311
330
1F
100
AcDbEntity
  8
99
  6
Continuous
 62
     7
370
    30
100
AcDbLine
 10
-121.0
 20
14.716666221619
 30
0.0
 11
-121.0
 21
62.216666221619
 31
0.0
1001
Sigma
1000

  0
LINE
  5
313
330
1F
100
AcDbEntity
  8
99
  6
Continuous
 62
     7
370
    30
100
AcDbLine
 10
-136.0
 20
14.716666221619
 30
0.0
 11
-136.0
 21
62.216666221619
 31
0.0
1001
Sigma
1000

  0
LINE
  5
315
330
1F
100
AcDbEntity
  8
99
  6
Continuous
 62
     7
370
    15
100
AcDbLine
 10
-205.0
 20
19.716666221619
 30
0.0
 11
-136.0
 21
19.716666221619
 31
0.0
1001
Sigma
1000

  0
LINE
  5
317
330
1F
100
AcDbEntity
  8
99
  6
Continuous
 62
     7
370
    15
100
AcDbLine
 10
-205.0
 20
24.716666221619
 30
0.0
 11
-136.0
 21
24.716666221619
 31
0.0
1001
Sigma
1000

  0
LINE
  5
319
330
1F
100
AcDbEntity
  8
99
  6
Continuous
 62
     7
370
    15
100
AcDbLine
 10
-205.0
 20
29.716666221619
 30
0.0
 11
-76.0
 21
29.716666221619
 31
0.0
1001
Sigma
1000

  0
LINE
  5
31B
330
1F
100
AcDbEntity
  8
99
  6
Continuous
 62
     7
370
    15
100
AcDbLine
 10
-205.0
 20
34.716666221619
 30
0.0
 11
-136.0
 21
34.716666221619
 31
0.0
1001
Sigma
1000

  0
LINE
  5
31D
330
1F
100
AcDbEntity
  8
99
  6
Continuous
 62
     7
370
    15
100
AcDbLine
 10
-205.0
 20
39.716666221619
 30
0.0
 11
-136.0
 21
39.716666221619
 31
0.0
1001
Sigma
1000

  0
LINE
  5
31F
330
1F
100
AcDbEntity
  8
99
  6
Continuous
 62
     7
370
    15
100
AcDbLine
 10
-184.0
 20
14.716666221619
 30
0.0
 11
-184.0
 21
49.716666221619
 31
0.0
1001
Sigma
1000

  0
LINE
  5
321
330
1F
100
AcDbEntity
  8
99
  6
Continuous
 62
     7
370
    15
100
AcDbLine
 10
-173.0
 20
14.716666221619
 30
0.0
 11
-173.0
 21
49.716666221619
 31
0.0
1001
Sigma
1000

  0
LINE
  5
323
330
1F
100
AcDbEntity
  8
99
  6
Continuous
 62
     7
370
    15
100
AcDbLine
 10
-71.0
 20
14.716666221619
 30
0.0
 11
-71.0
 21
49.716666221619
 31
0.0
1001
Sigma
1000

  0
LINE
  5
325
330
1F
100
AcDbEntity
  8
99
  6
Continuous
 62
     7
370
    30
100
AcDbLine
 10
-76.0
 20
24.716666221619
 30
0.0
 11
-15.0
 21
24.716666221619
 31
0.0
1001
Sigma
1000

  0
TEXT
  5
327
330
1F
100
AcDbEntity
  8
99
  6
Continuous
 62
     7
370
    30
100
AcDbText
 10
-75.27008573849
 20
31.60221805921899
 30
0.0
 40
2.7
  1
製
 41
1.266666666666666
  7
KCADTEXTSTANDARD
100
AcDbText
1001
Sigma
1000

  0
TEXT
  5
329
330
1F
100
AcDbEntity
  8
99
  6
Continuous
 62
     7
370
    30
100
AcDbText
 10
-121.775
 20
43.941666221619
 30
0.0
 40
4.049999999999999
  1
 三角法
 41
0.7916666674531168
  7
KCADTEXTSTANDARD
100
AcDbText
1001
Sigma
1000

  0
TEXT
  5
32B
330
1F
100
AcDbEntity
  8
99
  6
Continuous
 62
     7
370
    30
100
AcDbText
 10
-75.27008573849
 20
28.50221805921899
 30
0.0
 40
2.7
  1
品
 41
1.266666666666666
  7
KCADTEXTSTANDARD
100
AcDbText
1001
Sigma
1000

  0
LINE
  5
32D
330
1F
100
AcDbEntity
  8
99
  6
Continuous
 62
     7
370
    15
100
AcDbLine
 10
-200.8678058472999
 20
20.41713907611899
 30
0.0
 11
-204.0678058472999
 21
20.41713907611899
 31
0.0
1001
Sigma
1000

  0
TEXT
  5
32F
330
1F
100
AcDbEntity
  8
99
  6
Continuous
 62
     7
370
    30
100
AcDbText
 10
-75.27008573849
 20
25.402218059219
 30
0.0
 40
2.7
  1
名
 41
1.266666666666666
  7
KCADTEXTSTANDARD
100
AcDbText
1001
Sigma
1000

  0
TEXT
  5
331
330
1F
100
AcDbEntity
  8
99
  6
Continuous
 62
     7
370
    30
100
AcDbText
 10
-136.1521317828999
 20
30.517732464819
 30
0.0
 40
3.6
  1
 設計  製図  検図  承認
 41
1.147916666666666
  7
KCADTEXTSTANDARD
100
AcDbText
1001
Sigma
1000

  0
TEXT
  5
333
330
1F
100
AcDbEntity
  8
99
  6
Continuous
 62
     7
370
    30
100
AcDbText
 10
-200.4927110779
 20
15.520021661919
 30
0.0
 40
3.6
  1
 年月日   担当      訂 正 記 事
 41
0.8102941176470586
  7
KCADTEXTSTANDARD
100
AcDbText
1001
Sigma
1000

  0
TEXT
  5
335
330
1F
100
AcDbEntity
  8
99
  6
Continuous
 62
     7
370
    30
100
AcDbText
 10
-204.29609375
 20
15.686421658819
 30
0.0
 40
3.6
  1
符号
 41
0.4987500003539026
  7
KCADTEXTSTANDARD
100
AcDbText
1001
Sigma
1000

  0
LINE
  5
337
330
1F
100
AcDbEntity
  8
99
  6
Continuous
 62
     7
370
    15
100
AcDbLine
 10
-200.8678058472999
 20
40.41713907611899
 30
0.0
 11
-204.0678058472999
 21
40.41713907611899
 31
0.0
1001
Sigma
1000

  0
LINE
  5
339
330
1F
100
AcDbEntity
  8
99
  6
Continuous
 62
     7
370
    15
100
AcDbLine
 10
-202.4678058472999
 20
43.881240691319
 30
0.0
 11
-200.8678058472999
 21
40.41713907611899
 31
0.0
1001
Sigma
1000

  0
TEXT
  5
33B
330
1F
100
AcDbEntity
  8
99
  6
Continuous
 62
     7
370
    15
100
AcDbText
 10
-202.8658964625725
 20
41.00344399634615
 30
0.0
 40
2.082815953445434
  1
5
 41
0.577433628318584
  7
KCADTEXTSTANDARD
100
AcDbText
1001
Sigma
1000

  0
LINE
  5
33D
330
1F
100
AcDbEntity
  8
99
  6
Continuous
 62
     7
370
    15
100
AcDbLine
 10
-204.0678058472999
 20
40.41713907611899
 30
0.0
 11
-202.4678058472999
 21
43.881240691319
 31
0.0
1001
Sigma
1000

  0
LINE
  5
33F
330
1F
100
AcDbEntity
  8
99
  6
Continuous
 62
     7
370
    15
100
AcDbLine
 10
-200.8678058472999
 20
35.41713907611899
 30
0.0
 11
-204.0678058472999
 21
35.41713907611899
 31
0.0
1001
Sigma
1000

  0
LINE
  5
341
330
1F
100
AcDbEntity
  8
99
  6
Continuous
 62
     7
370
    15
100
AcDbLine
 10
-202.4678058472999
 20
38.881240691319
 30
0.0
 11
-200.8678058472999
 21
35.41713907611899
 31
0.0
1001
Sigma
1000

  0
TEXT
  5
343
330
1F
100
AcDbEntity
  8
99
  6
Continuous
 62
     7
370
    15
100
AcDbText
 10
-202.8658964625725
 20
36.00344399634615
 30
0.0
 40
2.082815953445434
  1
4
 41
0.577433628318584
  7
KCADTEXTSTANDARD
100
AcDbText
1001
Sigma
1000

  0
LINE
  5
345
330
1F
100
AcDbEntity
  8
99
  6
Continuous
 62
     7
370
    15
100
AcDbLine
 10
-204.0678058472999
 20
35.41713907611899
 30
0.0
 11
-202.4678058472999
 21
38.881240691319
 31
0.0
1001
Sigma
1000

  0
LINE
  5
347
330
1F
100
AcDbEntity
  8
99
  6
Continuous
 62
     7
370
    15
100
AcDbLine
 10
-200.8678058472999
 20
30.41713907611899
 30
0.0
 11
-204.0678058472999
 21
30.41713907611899
 31
0.0
1001
Sigma
1000

  0
LINE
  5
349
330
1F
100
AcDbEntity
  8
99
  6
Continuous
 62
     7
370
    15
100
AcDbLine
 10
-202.4678058472999
 20
33.881240691319
 30
0.0
 11
-200.8678058472999
 21
30.41713907611899
 31
0.0
1001
Sigma
1000

  0
TEXT
  5
34B
330
1F
100
AcDbEntity
  8
99
  6
Continuous
 62
     7
370
    15
100
AcDbText
 10
-202.8658964625725
 20
31.00344399634616
 30
0.0
 40
2.082815953445434
  1
3
 41
0.577433628318584
  7
KCADTEXTSTANDARD
100
AcDbText
1001
Sigma
1000

  0
LINE
  5
34D
330
1F
100
AcDbEntity
  8
99
  6
Continuous
 62
     7
370
    15
100
AcDbLine
 10
-202.4678058472999
 20
23.881240691319
 30
0.0
 11
-200.8678058472999
 21
20.41713907611899
 31
0.0
1001
Sigma
1000

  0
LINE
  5
34F
330
1F
100
AcDbEntity
  8
99
  6
Continuous
 62
     7
370
    15
100
AcDbLine
 10
-204.0678058472999
 20
20.41713907611899
 30
0.0
 11
-202.4678058472999
 21
23.881240691319
 31
0.0
1001
Sigma
1000

  0
LINE
  5
351
330
1F
100
AcDbEntity
  8
99
  6
Continuous
 62
     7
370
    15
100
AcDbLine
 10
-204.0678058472999
 20
30.41713907611899
 30
0.0
 11
-202.4678058472999
 21
33.881240691319
 31
0.0
1001
Sigma
1000

  0
TEXT
  5
353
330
1F
100
AcDbEntity
  8
99
  6
Continuous
 62
     7
370
    15
100
AcDbText
 10
-202.8658964625725
 20
26.00344399634616
 30
0.0
 40
2.082815953445434
  1
2
 41
0.577433628318584
  7
KCADTEXTSTANDARD
100
AcDbText
1001
Sigma
1000

  0
LINE
  5
355
330
1F
100
AcDbEntity
  8
99
  6
Continuous
 62
     7
370
    15
100
AcDbLine
 10
-200.8678058472999
 20
25.41713907611899
 30
0.0
 11
-204.0678058472999
 21
25.41713907611899
 31
0.0
1001
Sigma
1000

  0
LINE
  5
357
330
1F
100
AcDbEntity
  8
99
  6
Continuous
 62
     7
370
    15
100
AcDbLine
 10
-202.4678058472999
 20
28.881240691319
 30
0.0
 11
-200.8678058472999
 21
25.41713907611899
 31
0.0
1001
Sigma
1000

  0
LINE
  5
359
330
1F
100
AcDbEntity
  8
99
  6
Continuous
 62
     7
370
    15
100
AcDbLine
 10
-204.0678058472999
 20
25.41713907611899
 30
0.0
 11
-202.4678058472999
 21
28.881240691319
 31
0.0
1001
Sigma
1000

  0
TEXT
  5
35B
330
1F
100
AcDbEntity
  8
99
  6
Continuous
 62
     7
370
    15
100
AcDbText
 10
-202.8658964625725
 20
21.00344399634616
 30
0.0
 40
2.082815953445434
  1
1
 41
0.577433628318584
  7
KCADTEXTSTANDARD
100
AcDbText
1001
Sigma
1000

  0
TEXT
  5
35D
330
1F
100
AcDbEntity
  8
99
  6
Continuous
 62
     7
370
    30
100
AcDbText
 10
-75.28208594037
 20
35.47853668441899
 30
0.0
 40
2.7
  1
差
 41
1.266666666666666
  7
KCADTEXTSTANDARD
100
AcDbText
1001
Sigma
1000

  0
TEXT
  5
35F
330
1F
100
AcDbEntity
  8
99
  6
Continuous
 62
     7
370
    30
100
AcDbText
 10
-75.28208594037
 20
38.978536684419
 30
0.0
 40
2.7
  1
公
 41
1.266666666666666
  7
KCADTEXTSTANDARD
100
AcDbText
1001
Sigma
1000

  0
TEXT
  5
361
330
1F
100
AcDbEntity
  8
99
  6
Continuous
 62
     7
370
    30
100
AcDbText
 10
-105.1820859165581
 20
46.47853668441899
 30
0.0
 40
2.7
  1
面
 41
1.203333318233489
  7
KCADTEXTSTANDARD
100
AcDbText
1001
Sigma
1000

  0
TEXT
  5
363
330
1F
100
AcDbEntity
  8
99
  6
Continuous
 62
     7
370
    30
100
AcDbText
 10
-75.28208594037
 20
42.97853668441899
 30
0.0
 40
2.7
  1
上
 41
1.266666666666666
  7
KCADTEXTSTANDARD
100
AcDbText
1001
Sigma
1000

  0
TEXT
  5
365
330
1F
100
AcDbEntity
  8
99
  6
Continuous
 62
     7
370
    30
100
AcDbText
 10
-75.28208594037
 20
46.47853668441899
 30
0.0
 40
2.7
  1
仕
 41
1.266666666666666
  7
KCADTEXTSTANDARD
100
AcDbText
1001
Sigma
1000

  0
LINE
  5
367
330
1F
100
AcDbEntity
  8
99
  6
Continuous
 62
     7
370
    30
100
AcDbLine
 10
-184.0
 20
49.716666221619
 30
0.0
 11
-184.0
 21
62.216666221619
 31
0.0
1001
Sigma
1000

  0
TEXT
  5
369
330
1F
100
AcDbEntity
  8
99
  6
Continuous
 62
     7
370
    30
100
AcDbText
 10
-75.35
 20
20.86666622161899
 30
0.0
 40
2.7
  1
図
 41
1.266666666666666
  7
KCADTEXTSTANDARD
100
AcDbText
1001
Sigma
1000

  0
TEXT
  5
36B
330
1F
100
AcDbEntity
  8
99
  6
Continuous
 62
     7
370
    30
100
AcDbText
 10
-75.35
 20
16.36666622161899
 30
0.0
 40
2.7
  1
番
 41
1.266666666666666
  7
KCADTEXTSTANDARD
100
AcDbText
1001
Sigma
1000

  0
LINE
  5
36D
330
1F
100
AcDbEntity
  8
99
  6
Continuous
 62
     7
370
    15
100
AcDbLine
 10
-205.0
 20
54.716666221619
 30
0.0
 11
-15.0
 21
54.716666221619
 31
0.0
1001
Sigma
1000

  0
LINE
  5
36F
330
1F
100
AcDbEntity
  8
99
  6
Continuous
 62
     7
370
    15
100
AcDbLine
 10
-101.0
 20
49.716666221619
 30
0.0
 11
-101.0
 21
42.216666221619
 31
0.0
1001
Sigma
1000

  0
TEXT
  5
371
330
1F
100
AcDbEntity
  8
99
  6
Continuous
 62
     7
370
    30
100
AcDbText
 10
-133.6081081080999
 20
45.618798708019
 30
0.0
 40
3.6
  1
尺度
 41
1.1875
  7
KCADTEXTSTANDARD
100
AcDbText
1001
Sigma
1000

  0
LINE
  5
373
330
1F
100
AcDbEntity
  8
99
  6
Continuous
 62
     7
370
    15
100
AcDbLine
 10
-204.0678058472999
 20
45.41713907611899
 30
0.0
 11
-202.4678058472999
 21
48.881240691289
 31
0.0
1001
Sigma
1000

  0
TEXT
  5
375
330
1F
100
AcDbEntity
  8
99
  6
Continuous
 62
     7
370
    15
100
AcDbText
 10
-202.8658964625725
 20
46.00344399634615
 30
0.0
 40
2.082815953445434
  1
6
 41
0.577433628318584
  7
KCADTEXTSTANDARD
100
AcDbText
1001
Sigma
1000

  0
LINE
  5
377
330
1F
100
AcDbEntity
  8
99
  6
Continuous
 62
     7
370
    15
100
AcDbLine
 10
-202.4678058472999
 20
48.881240691289
 30
0.0
 11
-200.8678058472999
 21
45.41713907611899
 31
0.0
1001
Sigma
1000

  0
LINE
  5
379
330
1F
100
AcDbEntity
  8
99
  6
Continuous
 62
     7
370
    15
100
AcDbLine
 10
-200.8678058472999
 20
45.41713907611899
 30
0.0
 11
-204.0678058472999
 21
45.41713907611899
 31
0.0
1001
Sigma
1000

  0
LINE
  5
37B
330
1F
100
AcDbEntity
  8
99
  6
Continuous
 62
     7
370
    30
100
AcDbLine
 10
-106.0
 20
42.216666221619
 30
0.0
 11
-106.0
 21
49.716666221619
 31
0.0
1001
Sigma
1000

  0
LINE
  5
37D
330
1F
100
AcDbEntity
  8
99
  6
Continuous
 62
     7
370
    30
100
AcDbLine
 10
-205.0
 20
49.716666221619
 30
0.0
 11
-15.0
 21
49.716666221619
 31
0.0
1001
Sigma
1000

  0
LINE
  5
37F
330
1F
100
AcDbEntity
  8
99
  6
Continuous
 62
     7
370
    15
100
AcDbLine
 10
-205.0
 20
44.716666221619
 30
0.0
 11
-121.0
 21
44.716666221619
 31
0.0
1001
Sigma
1000

  0
LINE
  5
381
330
1F
100
AcDbEntity
  8
99
  6
Continuous
 62
     7
370
    15
100
AcDbLine
 10
-200.0
 20
14.716666221619
 30
0.0
 11
-200.0
 21
49.716666221619
 31
0.0
1001
Sigma
1000

  0
TEXT
  5
383
330
1F
100
AcDbEntity
  8
99
  6
Continuous
 62
     7
370
    30
100
AcDbText
 10
-203.1653020558
 20
50.421401326519
 30
0.0
 40
3.6
  1
部品番号     部   品   名
 41
0.7659374981911647
  7
KCADTEXTSTANDARD
100
AcDbText
1001
Sigma
1000

  0
TEXT
  5
385
330
1F
100
AcDbEntity
  8
99
  6
Continuous
 62
     7
370
    30
100
AcDbText
 10
-133.6081081080999
 20
50.718798708009
 30
0.0
 40
3.6
  1
個数
 41
1.1875
  7
KCADTEXTSTANDARD
100
AcDbText
1001
Sigma
1000

  0
TEXT
  5
387
330
1F
100
AcDbEntity
  8
99
  6
Continuous
 62
     7
370
    30
100
AcDbText
 10
-112.1521317828999
 20
50.717732464809
 30
0.0
 40
3.6
  1
材       質              表  面  処  理
 41
0.6678663776994779
  7
KCADTEXTSTANDARD
100
AcDbText
1001
Sigma
1000

  0
LINE
  5
389
330
1F
100
AcDbEntity
  8
99
  6
Continuous
 62
     7
370
    30
100
AcDbLine
 10
-205.0
 20
62.216666221619
 30
0.0
 11
-205.0
 21
14.716666221619
 31
0.0
1001
Sigma
1000

  0
TEXT
  5
38B
330
1F
100
AcDbEntity
  8
99
  6
Continuous
 62
     7
370
    30
100
AcDbText
 10
-133.3655760645
 20
37.986448023019
 30
0.0
 40
4.067999999999999
  1
1/1
 41
1.222959685349064
  7
KCADTEXTSTANDARD
100
AcDbText
1001
Sigma
1000

  0
TEXT
  5
38D
330
1F
100
AcDbEntity
  8
99
  6
Continuous
 62
     7
370
    30
100
AcDbText
 10
-62.65426971142
 20
16.706267477219
 30
0.0
 40
5.695199999999999
  1
TSTM-116
 41
0.8686740987625945
  7
KCADTEXTSTANDARD
100
AcDbText
1001
Sigma
1000

  0
TEXT
  5
390
330
1F
100
AcDbEntity
  8
2
  6
Continuous
 62
     7
370
    30
100
AcDbText
 10
-166.7067561390423
 20
56.92863863166967
 30
0.0
 40
3.307499957084655
  1
組立図
 41
0.9771428572895999
  7
KCADTEXTSTANDARD
100
AcDbText
1001
Sigma
1000

  0
TEXT
  5
392
330
1F
100
AcDbEntity
  8
2
  6
Continuous
 62
     7
370
    30
100
AcDbText
 10
-199.1131169717
 20
57.435557675046
 30
0.0
 40
2.3625
  1
１００
 41
1.007904760610489
  7
KCADTEXTSTANDARD
100
AcDbText
1001
Sigma
1000

  0
TEXT
  5
394
330
1F
100
AcDbEntity
  8
99
  6
Continuous
 62
     7
370
    30
100
AcDbText
 10
-57.90426971142
 20
26.706267477219
 30
0.0
 40
5.695199999999999
  1
KCM-2T
 41
0.8298009469274434
  7
KCADTEXTSTANDARD
100
AcDbText
1001
Sigma
1000

  0
TEXT
  5
396
330
1F
100
AcDbEntity
  8
99
  6
Continuous
 62
     7
370
    30
100
AcDbText
 10
-59.02459426456999
 20
55.749164937239
 30
0.0
 40
4.5
  1
梨地黒アルマイト
 41
0.653125
  7
KCADTEXTSTANDARD
100
AcDbText
1001
Sigma
1000

  0
LINE
  5
398
330
1F
100
AcDbEntity
  8
99
  6
Continuous
 62
     7
370
    30
100
AcDbLine
 10
-121.0
 20
42.216666221619
 30
0.0
 11
-15.0
 21
42.216666221619
 31
0.0
1001
Sigma
1000

  0
TEXT
  5
39A
330
1F
100
AcDbEntity
  8
1
  6
Continuous
 62
     7
370
    30
100
AcDbText
 10
-117.4617236061846
 20
36.99777818025034
 30
0.0
 40
3.239999914169311
  1
２００１年７月３０日
 41
0.9559375002457656
  7
KCADTEXTSTANDARD
100
AcDbText
1001
Sigma
1000

  0
TEXT
  5
39C
330
1F
100
AcDbEntity
  8
1
  6
Continuous
 62
     7
370
    30
100
AcDbText
 10
-126.6911448300846
 20
69.76155676693632
 30
0.0
 40
3.239999914169311
  1
光学倍率　２倍
 41
0.9613095242776486
  7
KCADTEXTSTANDARD
100
AcDbText
1001
Sigma
1000

  0
LINE
  5
39E
330
1F
100
AcDbEntity
  8
1
  6
Continuous
 62
     7
370
    15
100
AcDbLine
 10
-126.3836448436999
 20
69.28155674115798
 30
0.0
 11
-101.9079275635
 21
69.28155674115798
 31
0.0
1001
Sigma
1000

  0
POINT
  5
3A0
330
1F
100
AcDbEntity
  8
1
  6
Continuous
 62
     7
370
    15
100
AcDbPoint
 10
-259.0897036329
 20
113.5469369389199
 30
0.0
1001
Sigma
1000

  0
LINE
  5
3A2
330
1F
100
AcDbEntity
  8
0
  6
CENTER
 62
     7
370
    15
100
AcDbLine
 10
-262.2157036328999
 20
113.5469369389199
 30
0.0
 11
-219.5962036329
 21
113.5469369389199
 31
0.0
1001
Sigma
1000

  0
LINE
  5
3A4
330
1F
100
AcDbEntity
  8
0
  6
CENTER
 62
     7
370
    15
100
AcDbLine
 10
-259.0897036329
 20
117.17607056552
 30
0.0
 11
-259.0897036329
 21
110.72308245377
 31
0.0
1001
Sigma
1000

  0
LINE
  5
3A6
330
1F
100
AcDbEntity
  8
0
  6
CENTER
 62
     7
370
    15
100
AcDbLine
 10
-54.60970409066
 20
116.95318693892
 30
0.0
 11
-54.60970409066
 21
111.23443693892
 31
0.0
1001
Sigma
1000

  0
LINE
  5
3A8
330
1F
100
AcDbEntity
  8
0
  6
Continuous
 62
     7
370
    30
100
AcDbLine
 10
-72.13970668466
 20
127.54693693892
 30
0.0
 11
-72.13970668466
 21
99.54693693892
 31
0.0
1001
Sigma
1000

  0
LINE
  5
3AA
330
1F
100
AcDbEntity
  8
0
  6
Continuous
 62
     7
370
    30
100
AcDbLine
 10
-115.8397036328999
 20
124.54693693892
 30
0.0
 11
-115.8397036328999
 21
122.54693693892
 31
0.0
1001
Sigma
1000

  0
LINE
  5
3AC
330
1F
100
AcDbEntity
  8
0
  6
Continuous
 62
     7
370
    30
100
AcDbLine
 10
-115.3397036329
 20
125.0469369389199
 30
0.0
 11
-100.8397036329
 21
125.0469369389199
 31
0.0
1001
Sigma
1000

  0
LINE
  5
3AE
330
1F
100
AcDbEntity
  8
0
  6
Continuous
 62
     7
370
    30
100
AcDbLine
 10
-115.3397036329
 20
102.0469369389199
 30
0.0
 11
-100.8397036329
 21
102.0469369389199
 31
0.0
1001
Sigma
1000

  0
LINE
  5
3B0
330
1F
100
AcDbEntity
  8
0
  6
Continuous
 62
     7
370
    30
100
AcDbLine
 10
-100.3397036328999
 20
128.54693693892
 30
0.0
 11
-97.3397036329
 21
128.54693693892
 31
0.0
1001
Sigma
1000

  0
LINE
  5
3B2
330
1F
100
AcDbEntity
  8
0
  6
Continuous
 62
     7
370
    30
100
AcDbLine
 10
-100.3397036328999
 20
98.54693693892
 30
0.0
 11
-97.3397036329
 21
98.54693693892
 31
0.0
1001
Sigma
1000

  0
LINE
  5
3B4
330
1F
100
AcDbEntity
  8
0
  6
Continuous
 62
     7
370
    30
100
AcDbLine
 10
-96.83970363290001
 20
128.0469369389199
 30
0.0
 11
-96.83970363290001
 21
99.04693693891998
 31
0.0
1001
Sigma
1000

  0
LINE
  5
3B6
330
1F
100
AcDbEntity
  8
0
  6
Continuous
 62
     7
370
    30
100
AcDbLine
 10
-71.63970668465998
 20
126.24694914595
 30
0.0
 11
-68.43969447763
 21
126.24694914595
 31
0.0
1001
Sigma
1000

  0
LINE
  5
3B8
330
1F
100
AcDbEntity
  8
0
  6
Continuous
 62
     7
370
    30
100
AcDbLine
 10
-71.63970668465998
 20
100.8469399906799
 30
0.0
 11
-68.43969447763
 21
100.8469399906799
 31
0.0
1001
Sigma
1000

  0
LINE
  5
3BA
330
1F
100
AcDbEntity
  8
0
  6
Continuous
 62
     7
370
    30
100
AcDbLine
 10
-115.8397036328999
 20
122.54693693892
 30
0.0
 11
-115.8397036328999
 21
102.54693693892
 31
0.0
1001
Sigma
1000

  0
LINE
  5
3BC
330
1F
100
AcDbEntity
  8
0
  6
Continuous
 62
     7
370
    30
100
AcDbLine
 10
-100.8397036329
 20
128.0469369389199
 30
0.0
 11
-100.8397036329
 21
99.04693693891998
 31
0.0
1001
Sigma
1000

  0
LINE
  5
3BE
330
1F
100
AcDbEntity
  8
0
  6
Continuous
 62
     7
370
    30
100
AcDbLine
 10
-68.13970668466
 20
125.9469308354099
 30
0.0
 11
-68.13970668466
 21
101.14694304244
 31
0.0
1001
Sigma
1000

  0
LINE
  5
3C0
330
1F
100
AcDbEntity
  8
0
  6
Continuous
 62
     7
370
    30
100
AcDbLine
 10
-72.13970668466
 20
125.9469308354099
 30
0.0
 11
-71.53970058114
 21
125.9469308354099
 31
0.0
1001
Sigma
1000

  0
LINE
  5
3C2
330
1F
100
AcDbEntity
  8
0
  6
Continuous
 62
     7
370
    30
100
AcDbLine
 10
-71.53970058114
 20
125.9469308354099
 30
0.0
 11
-68.43969447763
 21
125.9469308354099
 31
0.0
1001
Sigma
1000

  0
LINE
  5
3C4
330
1F
100
AcDbEntity
  8
0
  6
Continuous
 62
     7
370
    30
100
AcDbLine
 10
-68.43969764382
 20
126.2469315924199
 30
0.0
 11
-68.13970380661
 21
125.94693772992
 31
0.0
1001
Sigma
1000

  0
LINE
  5
3C6
330
1F
100
AcDbEntity
  8
0
  6
Continuous
 62
     7
370
    30
100
AcDbLine
 10
-115.8397024507999
 20
124.54694146702
 30
0.0
 11
-115.3397018903999
 21
125.0469419852999
 31
0.0
1001
Sigma
1000

  0
LINE
  5
3C8
330
1F
100
AcDbEntity
  8
0
  6
Continuous
 62
     7
370
    30
100
AcDbLine
 10
-115.8397042684
 20
102.54693788041
 30
0.0
 11
-115.3397037079
 21
102.0469373621299
 31
0.0
1001
Sigma
1000

  0
LINE
  5
3CA
330
1F
100
AcDbEntity
  8
0
  6
Continuous
 62
     7
370
    30
100
AcDbLine
 10
-100.8397023070999
 20
128.04693921548
 30
0.0
 11
-100.3397030953999
 21
128.5469383850599
 31
0.0
1001
Sigma
1000

  0
LINE
  5
3CC
330
1F
100
AcDbEntity
  8
0
  6
Continuous
 62
     7
370
    30
100
AcDbLine
 10
-97.33969985926
 20
128.54693825862
 30
0.0
 11
-96.83969934098
 21
128.0469376981899
 31
0.0
1001
Sigma
1000

  0
LINE
  5
3CE
330
1F
100
AcDbEntity
  8
0
  6
Continuous
 62
     7
370
    30
100
AcDbLine
 10
-100.8396985612999
 20
99.046934905737
 30
0.0
 11
-100.3396980009
 21
98.546934387458
 31
0.0
1001
Sigma
1000

  0
LINE
  5
3D0
330
1F
100
AcDbEntity
  8
0
  6
Continuous
 62
     7
370
    30
100
AcDbLine
 10
-97.33969763074
 20
98.54693164791298
 30
0.0
 11
-96.83969711247002
 21
99.046932208338
 31
0.0
1001
Sigma
1000

  0
LINE
  5
3D2
330
1F
100
AcDbEntity
  8
0
  6
Continuous
 62
     7
370
    30
100
AcDbLine
 10
-68.4396981127
 20
100.84693831411
 30
0.0
 11
-68.1396988807
 21
101.14693757141
 31
0.0
1001
Sigma
1000

  0
LINE
  5
3D4
330
1F
100
AcDbEntity
  8
0
  6
Continuous
 62
     7
370
    30
100
AcDbLine
 10
-71.63970668465998
 20
126.24694914595
 30
0.0
 11
-71.63970668465998
 21
100.8469399906799
 31
0.0
1001
Sigma
1000

  0
LINE
  5
3D6
330
1F
100
AcDbEntity
  8
0
  6
Continuous
 62
     7
370
    30
100
AcDbLine
 10
-72.13970668466
 20
101.14694304244
 30
0.0
 11
-71.63970668465998
 21
101.14694304244
 31
0.0
1001
Sigma
1000

  0
LINE
  5
3D8
330
1F
100
AcDbEntity
  8
0
  6
Continuous
 62
     7
370
    30
100
AcDbLine
 10
-68.43969447763
 20
126.24694914595
 30
0.0
 11
-68.43969447763
 21
100.8469399906799
 31
0.0
1001
Sigma
1000

  0
LINE
  5
3DA
330
1F
100
AcDbEntity
  8
0
  6
Continuous
 62
     7
370
    30
100
AcDbLine
 10
-71.63970668465998
 20
101.14694304244
 30
0.0
 11
-68.43969447763
 21
101.14694304244
 31
0.0
1001
Sigma
1000

  0
LINE
  5
3DC
330
1F
100
AcDbEntity
  8
0
  6
Continuous
 62
     7
370
    30
100
AcDbLine
 10
-97.3397036329
 20
128.54693693892
 30
0.0
 11
-97.3397036329
 21
98.54693693892
 31
0.0
1001
Sigma
1000

  0
LINE
  5
3DE
330
1F
100
AcDbEntity
  8
0
  6
Continuous
 62
     7
370
    30
100
AcDbLine
 10
-100.3397036328999
 20
128.54693693892
 30
0.0
 11
-100.3397036328999
 21
98.54693693892
 31
0.0
1001
Sigma
1000

  0
LINE
  5
3E0
330
1F
100
AcDbEntity
  8
0
  6
Continuous
 62
     7
370
    30
100
AcDbLine
 10
-100.3397036328999
 20
128.0469369389199
 30
0.0
 11
-97.3397036329
 21
128.0469369389199
 31
0.0
1001
Sigma
1000

  0
LINE
  5
3E2
330
1F
100
AcDbEntity
  8
0
  6
Continuous
 62
     7
370
    30
100
AcDbLine
 10
-115.3397036329
 20
125.0469369389199
 30
0.0
 11
-115.3397036329
 21
102.0469369389199
 31
0.0
1001
Sigma
1000

  0
LINE
  5
3E4
330
1F
100
AcDbEntity
  8
0
  6
Continuous
 62
     7
370
    30
100
AcDbLine
 10
-130.8397036329
 20
122.54693693892
 30
0.0
 11
-130.8397036329
 21
104.54693693892
 31
0.0
1001
Sigma
1000

  0
LINE
  5
3E6
330
1F
100
AcDbEntity
  8
0
  6
Continuous
 62
     7
370
    30
100
AcDbLine
 10
-171.8397036329
 20
104.54693693892
 30
0.0
 11
-115.8397036328999
 21
104.54693693892
 31
0.0
1001
Sigma
1000

  0
LINE
  5
3E8
330
1F
100
AcDbEntity
  8
0
  6
Continuous
 62
     7
370
    30
100
AcDbLine
 10
-193.3397036328999
 20
104.54693693892
 30
0.0
 11
-177.8397036329
 21
104.54693693892
 31
0.0
1001
Sigma
1000

  0
LINE
  5
3EA
330
1F
100
AcDbEntity
  8
0
  6
Continuous
 62
     7
370
    30
100
AcDbLine
 10
-193.3397036328999
 20
122.54693693892
 30
0.0
 11
-177.8397036329
 21
122.54693693892
 31
0.0
1001
Sigma
1000

  0
LINE
  5
3EC
330
1F
100
AcDbEntity
  8
0
  6
Continuous
 62
     7
370
    30
100
AcDbLine
 10
-166.8397036329
 20
122.54693693892
 30
0.0
 11
-166.8397036329
 21
104.54693693892
 31
0.0
1001
Sigma
1000

  0
LINE
  5
3EE
330
1F
100
AcDbEntity
  8
0
  6
Continuous
 62
     7
370
    30
100
AcDbLine
 10
-193.8397036329
 20
122.04692930953
 30
0.0
 11
-193.8397036329
 21
105.0469369389199
 31
0.0
1001
Sigma
1000

  0
LINE
  5
3F0
330
1F
100
AcDbEntity
  8
0
  6
Continuous
 62
     7
370
    30
100
AcDbLine
 10
-171.8397036329
 20
122.54693693892
 30
0.0
 11
-171.8397036329
 21
122.29693693892
 31
0.0
1001
Sigma
1000

  0
LINE
  5
3F2
330
1F
100
AcDbEntity
  8
0
  6
Continuous
 62
     7
370
    30
100
AcDbLine
 10
-177.8397036329
 20
122.54693693892
 30
0.0
 11
-177.8397036329
 21
122.29693693892
 31
0.0
1001
Sigma
1000

  0
LINE
  5
3F4
330
1F
100
AcDbEntity
  8
0
  6
Continuous
 62
     7
370
    30
100
AcDbLine
 10
-171.8397036329
 20
122.54693693892
 30
0.0
 11
-115.8397036328999
 21
122.54693693892
 31
0.0
1001
Sigma
1000

  0
LINE
  5
3F6
330
1F
100
AcDbEntity
  8
0
  6
Continuous
 62
     7
370
    30
100
AcDbLine
 10
-177.8397036329
 20
104.79693693892
 30
0.0
 11
-171.8397036329
 21
104.79693693892
 31
0.0
1001
Sigma
1000

  0
LINE
  5
3F8
330
1F
100
AcDbEntity
  8
0
  6
Continuous
 62
     7
370
    30
100
AcDbLine
 10
-177.8397036329
 20
122.29693693892
 30
0.0
 11
-177.8397036329
 21
104.54693693892
 31
0.0
1001
Sigma
1000

  0
LINE
  5
3FA
330
1F
100
AcDbEntity
  8
0
  6
Continuous
 62
     7
370
    30
100
AcDbLine
 10
-171.8397036329
 20
122.29693693892
 30
0.0
 11
-171.8397036329
 21
104.54693693892
 31
0.0
1001
Sigma
1000

  0
LINE
  5
3FC
330
1F
100
AcDbEntity
  8
0
  6
Continuous
 62
     7
370
    30
100
AcDbLine
 10
-177.8397036329
 20
122.29693693892
 30
0.0
 11
-171.8397036329
 21
122.29693693892
 31
0.0
1001
Sigma
1000

  0
LINE
  5
3FE
330
1F
100
AcDbEntity
  8
0
  6
Continuous
 62
     7
370
    30
100
AcDbLine
 10
-193.8397003783
 20
122.04693126812
 30
0.0
 11
-193.3396998179
 21
122.5469317863999
 31
0.0
1001
Sigma
1000

  0
LINE
  5
400
330
1F
100
AcDbEntity
  8
0
  6
Continuous
 62
     7
370
    30
100
AcDbLine
 10
-193.3397036328999
 20
122.54693693892
 30
0.0
 11
-193.3397036328999
 21
104.54693693892
 31
0.0
1001
Sigma
1000

  0
LINE
  5
402
330
1F
100
AcDbEntity
  8
0
  6
Continuous
 62
     7
370
    30
100
AcDbLine
 10
-193.8397075906999
 20
105.04694268451
 30
0.0
 11
-193.3397070302
 21
104.5469421662299
 31
0.0
1001
Sigma
1000

  0
LINE
  5
404
330
1F
100
AcDbEntity
  8
0
  6
Continuous
 62
     7
370
    30
100
AcDbLine
 10
-100.3397036328999
 20
127.0469369389199
 30
0.0
 11
-97.3397036329
 21
127.0469369389199
 31
0.0
1001
Sigma
1000

  0
LINE
  5
406
330
1F
100
AcDbEntity
  8
0
  6
Continuous
 62
     7
370
    30
100
AcDbLine
 10
-100.3397036328999
 20
126.0469369389199
 30
0.0
 11
-97.3397036329
 21
126.0469369389199
 31
0.0
1001
Sigma
1000

  0
LINE
  5
408
330
1F
100
AcDbEntity
  8
0
  6
Continuous
 62
     7
370
    30
100
AcDbLine
 10
-100.3397036328999
 20
125.0469369389199
 30
0.0
 11
-97.3397036329
 21
125.0469369389199
 31
0.0
1001
Sigma
1000

  0
LINE
  5
40A
330
1F
100
AcDbEntity
  8
0
  6
Continuous
 62
     7
370
    30
100
AcDbLine
 10
-100.3397036328999
 20
124.0469369389199
 30
0.0
 11
-97.3397036329
 21
124.0469369389199
 31
0.0
1001
Sigma
1000

  0
LINE
  5
40C
330
1F
100
AcDbEntity
  8
0
  6
Continuous
 62
     7
370
    30
100
AcDbLine
 10
-100.3397036328999
 20
123.0469369389199
 30
0.0
 11
-97.3397036329
 21
123.0469369389199
 31
0.0
1001
Sigma
1000

  0
LINE
  5
40E
330
1F
100
AcDbEntity
  8
0
  6
Continuous
 62
     7
370
    30
100
AcDbLine
 10
-100.3397036328999
 20
122.0469369389199
 30
0.0
 11
-97.3397036329
 21
122.0469369389199
 31
0.0
1001
Sigma
1000

  0
LINE
  5
410
330
1F
100
AcDbEntity
  8
0
  6
CENTER
 62
     7
370
    15
100
AcDbLine
 10
-201.0272036329
 20
113.5469369389199
 30
0.0
 11
-52.79763133676
 21
113.5469369389199
 31
0.0
1001
Sigma
1000

  0
LINE
  5
412
330
1F
100
AcDbEntity
  8
0
  6
Continuous
 62
     7
370
    30
100
AcDbLine
 10
-96.83970363290001
 20
128.0469369389199
 30
0.0
 11
-72.63970668466
 21
128.0469369389199
 31
0.0
1001
Sigma
1000

  0
LINE
  5
414
330
1F
100
AcDbEntity
  8
0
  6
Continuous
 62
     7
370
    30
100
AcDbLine
 10
-96.83970363290001
 20
99.04693693891998
 30
0.0
 11
-72.63970668466
 21
99.04693693891998
 31
0.0
1001
Sigma
1000

  0
LINE
  5
416
330
1F
100
AcDbEntity
  8
0
  6
Continuous
 62
     7
370
    30
100
AcDbLine
 10
-72.63970668466
 20
128.0469369389199
 30
0.0
 11
-72.63970668466
 21
99.04693693891998
 31
0.0
1001
Sigma
1000

  0
LINE
  5
418
330
1F
100
AcDbEntity
  8
0
  6
Continuous
 62
     7
370
    30
100
AcDbLine
 10
-72.63970317747
 20
128.0469326321399
 30
0.0
 11
-72.13970265919
 21
127.5469320717199
 31
0.0
1001
Sigma
1000

  0
LINE
  5
41A
330
1F
100
AcDbEntity
  8
0
  6
Continuous
 62
     7
370
    30
100
AcDbLine
 10
-72.63970499505
 20
99.04693592569
 30
0.0
 11
-72.13970447677
 21
99.54693648611502
 31
0.0
1001
Sigma
1000

  0
CIRCLE
  5
41C
330
1F
100
AcDbEntity
  8
0
  6
Continuous
 62
     7
370
    30
100
AcDbCircle
 10
-259.0897036329
 20
113.5469369389199
 30
0.0
 40
0.5
1001
Sigma
1000

  0
CIRCLE
  5
41E
330
1F
100
AcDbEntity
  8
0
  6
Continuous
 62
     7
370
    30
100
AcDbCircle
 10
-54.60970409066
 20
113.5469369389199
 30
0.0
 40
0.5
1001
Sigma
1000

  0
CIRCLE
  5
420
330
1F
100
AcDbEntity
  8
0
  6
Continuous
 62
     7
370
    30
100
AcDbCircle
 10
-104.8397036329
 20
113.5469369389199
 30
0.0
 40
1.5
1001
Sigma
1000

  0
CIRCLE
  5
422
330
1F
100
AcDbEntity
  8
0
  6
Continuous
 62
     7
370
    30
100
AcDbCircle
 10
-104.8397036329
 20
113.5469369389199
 30
0.0
 40
1.2000000476837
1001
Sigma
1000

  0
TEXT
  5
424
330
1F
100
AcDbEntity
  8
0
  6
Continuous
 62
     7
370
    30
100
AcDbText
 10
-121.124908711
 20
125.71073192374
 30
0.0
 40
2.440799999999999
  1
%%c18
 50
90.0
 41
1.079286290179616
  7
KCADTEXTSTANDARD
100
AcDbText
1001
Sigma
1000

  0
TEXT
  5
426
330
1F
100
AcDbEntity
  8
0
  6
Continuous
 62
     7
370
    30
100
AcDbText
 10
-175.6685749367999
 20
85.863730357979
 30
0.0
 40
2.440799999999999
  1
%%c17.5
 50
90.0
 41
1.363739127009678
  7
KCADTEXTSTANDARD
100
AcDbText
1001
Sigma
1000

  0
LINE
  5
429
102
{ACAD_REACTORS
330
428
102
}
330
1F
100
AcDbEntity
  8
0
  6
Continuous
 62
     7
370
    30
100
AcDbLine
 10
-119.0495425001
 20
104.56379027144
 30
0.0
 11
-119.0495425001
 21
98.313057849567
 31
0.0
1001
Sigma
1000

  0
LINE
  5
42B
102
{ACAD_REACTORS
330
428
102
}
330
1F
100
AcDbEntity
  8
0
  6
Continuous
 62
     7
370
    30
100
AcDbLine
 10
-119.0495425001
 20
104.56379027144
 30
0.0
 11
-120.0495424851
 21
101.5637903165
 31
0.0
1001
Sigma
1000

  0
LINE
  5
42D
102
{ACAD_REACTORS
330
428
102
}
330
1F
100
AcDbEntity
  8
0
  6
Continuous
 62
     7
370
    30
100
AcDbLine
 10
-119.0495425001
 20
104.56379027144
 30
0.0
 11
-118.0495425151
 21
101.5637903165
 31
0.0
1001
Sigma
1000

  0
LINE
  5
42F
102
{ACAD_REACTORS
330
428
102
}
330
1F
100
AcDbEntity
  8
0
  6
Continuous
 62
     7
370
    30
100
AcDbLine
 10
-119.0495425001
 20
104.56379027144
 30
0.0
 11
-119.0495425001
 21
98.313057849567
 31
0.0
1001
Sigma
1000

  0
LINE
  5
432
102
{ACAD_REACTORS
330
431
102
}
330
1F
100
AcDbEntity
  8
0
  6
Continuous
 62
     7
370
    30
100
AcDbLine
 10
-119.1503736622
 20
122.5469399608499
 30
0.0
 11
-119.1288289172
 21
134.2474282427799
 31
0.0
1001
Sigma
1000

  0
LINE
  5
434
102
{ACAD_REACTORS
330
431
102
}
330
1F
100
AcDbEntity
  8
0
  6
Continuous
 62
     7
370
    30
100
AcDbLine
 10
-119.1503736622
 20
122.5469399608499
 30
0.0
 11
-118.1448513189
 21
125.5450934787299
 31
0.0
1001
Sigma
1000

  0
LINE
  5
436
102
{ACAD_REACTORS
330
431
102
}
330
1F
100
AcDbEntity
  8
0
  6
Continuous
 62
     7
370
    30
100
AcDbLine
 10
-119.1503736622
 20
122.5469399608499
 30
0.0
 11
-120.1448478983
 21
125.54877618112
 31
0.0
1001
Sigma
1000

  0
LINE
  5
438
102
{ACAD_REACTORS
330
431
102
}
330
1F
100
AcDbEntity
  8
0
  6
Continuous
 62
     7
370
    30
100
AcDbLine
 10
-119.1503736622
 20
122.5469399608499
 30
0.0
 11
-119.1288289172
 21
134.2474282427799
 31
0.0
1001
Sigma
1000

  0
LINE
  5
43B
102
{ACAD_REACTORS
330
43A
102
}
330
1F
100
AcDbEntity
  8
0
  6
Continuous
 62
     7
370
    30
100
AcDbLine
 10
-174.4995547071
 20
122.227631519
 30
0.0
 11
-174.4995547071
 21
127.67181486861
 31
0.0
1001
Sigma
1000

  0
LINE
  5
43D
102
{ACAD_REACTORS
330
43A
102
}
330
1F
100
AcDbEntity
  8
0
  6
Continuous
 62
     7
370
    30
100
AcDbLine
 10
-174.4995547071
 20
122.227631519
 30
0.0
 11
-173.4995547220999
 21
125.22763147394
 31
0.0
1001
Sigma
1000

  0
LINE
  5
43F
102
{ACAD_REACTORS
330
43A
102
}
330
1F
100
AcDbEntity
  8
0
  6
Continuous
 62
     7
370
    30
100
AcDbLine
 10
-174.4995547071
 20
122.227631519
 30
0.0
 11
-175.4995546920999
 21
125.22763147394
 31
0.0
1001
Sigma
1000

  0
LINE
  5
441
102
{ACAD_REACTORS
330
43A
102
}
330
1F
100
AcDbEntity
  8
0
  6
Continuous
 62
     7
370
    30
100
AcDbLine
 10
-174.4995547071
 20
122.227631519
 30
0.0
 11
-174.4995547071
 21
127.67181486861
 31
0.0
1001
Sigma
1000

  0
LINE
  5
444
102
{ACAD_REACTORS
330
443
102
}
330
1F
100
AcDbEntity
  8
0
  6
Continuous
 62
     7
370
    30
100
AcDbLine
 10
-174.3987093702
 20
104.79693693892
 30
0.0
 11
-174.3987093702
 21
85.13287443892
 31
0.0
1001
Sigma
1000

  0
LINE
  5
446
102
{ACAD_REACTORS
330
443
102
}
330
1F
100
AcDbEntity
  8
0
  6
Continuous
 62
     7
370
    30
100
AcDbLine
 10
-174.3987093702
 20
104.79693693892
 30
0.0
 11
-175.3987093552
 21
101.79693698398
 31
0.0
1001
Sigma
1000

  0
LINE
  5
448
102
{ACAD_REACTORS
330
443
102
}
330
1F
100
AcDbEntity
  8
0
  6
Continuous
 62
     7
370
    30
100
AcDbLine
 10
-174.3987093702
 20
104.79693693892
 30
0.0
 11
-173.3987093851999
 21
101.79693698398
 31
0.0
1001
Sigma
1000

  0
LINE
  5
44A
102
{ACAD_REACTORS
330
443
102
}
330
1F
100
AcDbEntity
  8
0
  6
Continuous
 62
     7
370
    30
100
AcDbLine
 10
-174.3987093702
 20
104.79693693892
 30
0.0
 11
-174.3987093702
 21
85.13287443892
 31
0.0
1001
Sigma
1000

  0
POINT
  5
44D
102
{ACAD_REACTORS
330
44C
102
}
330
1F
100
AcDbEntity
  8
KCAD_DIMS
  6
Continuous
 62
     7
370
    15
100
AcDbPoint
 10
-171.8397036329
 20
132.33883437219
 30
0.0
1001
Sigma
1000
DIM_NORM1
  0
POINT
  5
44F
102
{ACAD_REACTORS
330
44C
102
}
330
1F
100
AcDbEntity
  8
KCAD_DIMS
  6
Continuous
 62
     7
370
    15
100
AcDbPoint
 10
-171.8397036329
 20
122.54693693892
 30
0.0
1001
Sigma
1000
DIM_NORM1
  0
POINT
  5
451
102
{ACAD_REACTORS
330
44C
102
}
330
1F
100
AcDbEntity
  8
KCAD_DIMS
  6
Continuous
 62
     7
370
    15
100
AcDbPoint
 10
-177.8397036329
 20
122.54693693892
 30
0.0
1001
Sigma
1000
DIM_NORM1
  0
TEXT
  5
453
102
{ACAD_REACTORS
330
44C
102
}
330
1F
100
AcDbEntity
  8
KCAD_DIMS
  6
Continuous
 62
     7
370
    30
100
AcDbText
 10
-175.6712661614999
 20
133.53883437219
 30
0.0
 40
2.440799999999999
  1
6
  7
KCADDIMSTANDARD
100
AcDbText
1001
Sigma
1000
DIM_NORM1
  0
LINE
  5
455
102
{ACAD_REACTORS
330
44C
102
}
330
1F
100
AcDbEntity
  8
KCAD_DIMS
  6
Continuous
 62
     7
370
    30
100
AcDbLine
 10
-171.8397036329
 20
123.5469369239
 30
0.0
 11
-171.8397036329
 21
133.33883437219
 31
0.0
1001
Sigma
1000
DIM_NORM1
  0
LINE
  5
457
102
{ACAD_REACTORS
330
44C
102
}
330
1F
100
AcDbEntity
  8
KCAD_DIMS
  6
Continuous
 62
     7
370
    30
100
AcDbLine
 10
-168.839703678
 20
132.33883437219
 30
0.0
 11
-165.4897037282999
 21
132.33883437219
 31
0.0
1001
Sigma
1000
DIM_NORM1
  0
LINE
  5
459
102
{ACAD_REACTORS
330
44C
102
}
330
1F
100
AcDbEntity
  8
KCAD_DIMS
  6
Continuous
 62
     7
370
    30
100
AcDbLine
 10
-171.8397036329
 20
132.33883437219
 30
0.0
 11
-168.839703678
 21
132.33883437219
 31
0.0
1001
Sigma
1000
DIM_NORM1
  0
LINE
  5
45B
102
{ACAD_REACTORS
330
44C
102
}
330
1F
100
AcDbEntity
  8
KCAD_DIMS
  6
Continuous
 62
     7
370
    30
100
AcDbLine
 10
-171.8397036329
 20
132.33883437219
 30
0.0
 11
-168.839703678
 21
131.3388343871999
 31
0.0
1001
Sigma
1000
DIM_NORM1
  0
LINE
  5
45D
102
{ACAD_REACTORS
330
44C
102
}
330
1F
100
AcDbEntity
  8
KCAD_DIMS
  6
Continuous
 62
     7
370
    30
100
AcDbLine
 10
-171.8397036329
 20
132.33883437219
 30
0.0
 11
-168.839703678
 21
133.3388343571699
 31
0.0
1001
Sigma
1000
DIM_NORM1
  0
LINE
  5
45F
102
{ACAD_REACTORS
330
44C
102
}
330
1F
100
AcDbEntity
  8
KCAD_DIMS
  6
Continuous
 62
     7
370
    30
100
AcDbLine
 10
-177.8397036329
 20
132.33883437219
 30
0.0
 11
-171.8397036329
 21
132.33883437219
 31
0.0
1001
Sigma
1000
DIM_NORM1
  0
POINT
  5
462
102
{ACAD_REACTORS
330
461
102
}
330
1F
100
AcDbEntity
  8
KCAD_DIMS
  6
Continuous
 62
     7
370
    15
100
AcDbPoint
 10
-177.8397036329
 20
132.33883437219
 30
0.0
1001
Sigma
1000
DIM_NORM1
  0
POINT
  5
464
102
{ACAD_REACTORS
330
461
102
}
330
1F
100
AcDbEntity
  8
KCAD_DIMS
  6
Continuous
 62
     7
370
    15
100
AcDbPoint
 10
-177.8397036329
 20
122.54693693892
 30
0.0
1001
Sigma
1000
DIM_NORM1
  0
POINT
  5
466
102
{ACAD_REACTORS
330
461
102
}
330
1F
100
AcDbEntity
  8
KCAD_DIMS
  6
Continuous
 62
     7
370
    15
100
AcDbPoint
 10
-193.8397036329
 20
122.0469369389199
 30
0.0
1001
Sigma
1000
DIM_NORM1
  0
TEXT
  5
468
102
{ACAD_REACTORS
330
461
102
}
330
1F
100
AcDbEntity
  8
KCAD_DIMS
  6
Continuous
 62
     7
370
    30
100
AcDbText
 10
-188.1712661913
 20
133.53883437219
 30
0.0
 40
2.440799999999999
  1
16
  7
KCADDIMSTANDARD
100
AcDbText
1001
Sigma
1000
DIM_NORM1
  0
LINE
  5
46A
102
{ACAD_REACTORS
330
461
102
}
330
1F
100
AcDbEntity
  8
KCAD_DIMS
  6
Continuous
 62
     7
370
    30
100
AcDbLine
 10
-177.8397036329
 20
123.5469369239
 30
0.0
 11
-177.8397036329
 21
133.33883437219
 31
0.0
1001
Sigma
1000
DIM_NORM1
  0
LINE
  5
46C
102
{ACAD_REACTORS
330
461
102
}
330
1F
100
AcDbEntity
  8
KCAD_DIMS
  6
Continuous
 62
     7
370
    30
100
AcDbLine
 10
-177.8397036329
 20
132.33883437219
 30
0.0
 11
-180.8397035878
 21
132.33883437219
 31
0.0
1001
Sigma
1000
DIM_NORM1
  0
LINE
  5
46E
102
{ACAD_REACTORS
330
461
102
}
330
1F
100
AcDbEntity
  8
KCAD_DIMS
  6
Continuous
 62
     7
370
    30
100
AcDbLine
 10
-177.8397036329
 20
132.33883437219
 30
0.0
 11
-180.8397035878
 21
133.3388343571699
 31
0.0
1001
Sigma
1000
DIM_NORM1
  0
LINE
  5
470
102
{ACAD_REACTORS
330
461
102
}
330
1F
100
AcDbEntity
  8
KCAD_DIMS
  6
Continuous
 62
     7
370
    30
100
AcDbLine
 10
-177.8397036329
 20
132.33883437219
 30
0.0
 11
-180.8397035878
 21
131.3388343871999
 31
0.0
1001
Sigma
1000
DIM_NORM1
  0
LINE
  5
472
102
{ACAD_REACTORS
330
461
102
}
330
1F
100
AcDbEntity
  8
KCAD_DIMS
  6
Continuous
 62
     7
370
    30
100
AcDbLine
 10
-193.8397036329
 20
132.33883437219
 30
0.0
 11
-190.839703678
 21
132.33883437219
 31
0.0
1001
Sigma
1000
DIM_NORM1
  0
LINE
  5
474
102
{ACAD_REACTORS
330
461
102
}
330
1F
100
AcDbEntity
  8
KCAD_DIMS
  6
Continuous
 62
     7
370
    30
100
AcDbLine
 10
-193.8397036329
 20
132.33883437219
 30
0.0
 11
-190.839703678
 21
131.3388343871999
 31
0.0
1001
Sigma
1000
DIM_NORM1
  0
LINE
  5
476
102
{ACAD_REACTORS
330
461
102
}
330
1F
100
AcDbEntity
  8
KCAD_DIMS
  6
Continuous
 62
     7
370
    30
100
AcDbLine
 10
-193.8397036329
 20
132.33883437219
 30
0.0
 11
-190.839703678
 21
133.3388343571699
 31
0.0
1001
Sigma
1000
DIM_NORM1
  0
LINE
  5
478
102
{ACAD_REACTORS
330
461
102
}
330
1F
100
AcDbEntity
  8
KCAD_DIMS
  6
Continuous
 62
     7
370
    30
100
AcDbLine
 10
-190.839703678
 20
132.33883437219
 30
0.0
 11
-180.8397035878
 21
132.33883437219
 31
0.0
1001
Sigma
1000
DIM_NORM1
  0
POINT
  5
47B
102
{ACAD_REACTORS
330
47A
102
}
330
1F
100
AcDbEntity
  8
KCAD_DIMS
  6
Continuous
 62
     7
370
    15
100
AcDbPoint
 10
-204.7784548536
 20
104.54693693892
 30
0.0
1001
Sigma
1000
DIM_NORM1
  0
POINT
  5
47D
102
{ACAD_REACTORS
330
47A
102
}
330
1F
100
AcDbEntity
  8
KCAD_DIMS
  6
Continuous
 62
     7
370
    15
100
AcDbPoint
 10
-193.3397036328999
 20
104.54693693892
 30
0.0
1001
Sigma
1000
DIM_NORM1
  0
POINT
  5
47F
102
{ACAD_REACTORS
330
47A
102
}
330
1F
100
AcDbEntity
  8
KCAD_DIMS
  6
Continuous
 62
     7
370
    15
100
AcDbPoint
 10
-193.3397036328999
 20
122.54693693892
 30
0.0
1001
Sigma
1000
DIM_NORM1
  0
TEXT
  5
481
102
{ACAD_REACTORS
330
47A
102
}
330
1F
100
AcDbEntity
  8
KCAD_DIMS
  6
Continuous
 62
     7
370
    30
100
AcDbText
 10
-205.7534548536
 20
115.5953744699099
 30
0.0
 40
1.220399999999999
  1
-0.1
 50
90.0
  7
KCADDIMSTANDARD
100
AcDbText
1001
Sigma
1000
DIM_NORM1
  0
TEXT
  5
483
102
{ACAD_REACTORS
330
47A
102
}
330
1F
100
AcDbEntity
  8
KCAD_DIMS
  6
Continuous
 62
     7
370
    30
100
AcDbText
 10
-208.0034549131999
 20
115.5953744699099
 30
0.0
 40
1.220399999999999
  1
 0
 50
90.0
  7
KCADDIMSTANDARD
100
AcDbText
1001
Sigma
1000
DIM_NORM1
  0
TEXT
  5
485
102
{ACAD_REACTORS
330
47A
102
}
330
1F
100
AcDbEntity
  8
KCAD_DIMS
  6
Continuous
 62
     7
370
    30
100
AcDbText
 10
-205.9784548536
 20
106.7153742910999
 30
0.0
 40
2.440799999999999
  1
%%c18
 50
90.0
  7
KCADDIMSTANDARD
100
AcDbText
1001
Sigma
1000
DIM_NORM1
  0
LINE
  5
487
102
{ACAD_REACTORS
330
47A
102
}
330
1F
100
AcDbEntity
  8
KCAD_DIMS
  6
Continuous
 62
     7
370
    30
100
AcDbLine
 10
-194.3397036179
 20
104.54693693892
 30
0.0
 11
-205.7784548536
 21
104.54693693892
 31
0.0
1001
Sigma
1000
DIM_NORM1
  0
LINE
  5
489
102
{ACAD_REACTORS
330
47A
102
}
330
1F
100
AcDbEntity
  8
KCAD_DIMS
  6
Continuous
 62
     7
370
    30
100
AcDbLine
 10
-194.3397036179
 20
122.54693693892
 30
0.0
 11
-205.7784548536
 21
122.54693693892
 31
0.0
1001
Sigma
1000
DIM_NORM1
  0
LINE
  5
48B
102
{ACAD_REACTORS
330
47A
102
}
330
1F
100
AcDbEntity
  8
KCAD_DIMS
  6
Continuous
 62
     7
370
    30
100
AcDbLine
 10
-204.7784548536
 20
104.54693693892
 30
0.0
 11
-204.7784548536
 21
107.54693689387
 31
0.0
1001
Sigma
1000
DIM_NORM1
  0
LINE
  5
48D
102
{ACAD_REACTORS
330
47A
102
}
330
1F
100
AcDbEntity
  8
KCAD_DIMS
  6
Continuous
 62
     7
370
    30
100
AcDbLine
 10
-204.7784548536
 20
104.54693693892
 30
0.0
 11
-203.7784548686
 21
107.54693689387
 31
0.0
1001
Sigma
1000
DIM_NORM1
  0
LINE
  5
48F
102
{ACAD_REACTORS
330
47A
102
}
330
1F
100
AcDbEntity
  8
KCAD_DIMS
  6
Continuous
 62
     7
370
    30
100
AcDbLine
 10
-204.7784548536
 20
104.54693693892
 30
0.0
 11
-205.7784548386
 21
107.54693689387
 31
0.0
1001
Sigma
1000
DIM_NORM1
  0
LINE
  5
491
102
{ACAD_REACTORS
330
47A
102
}
330
1F
100
AcDbEntity
  8
KCAD_DIMS
  6
Continuous
 62
     7
370
    30
100
AcDbLine
 10
-204.7784548536
 20
122.54693693892
 30
0.0
 11
-204.7784548536
 21
119.54693698398
 31
0.0
1001
Sigma
1000
DIM_NORM1
  0
LINE
  5
493
102
{ACAD_REACTORS
330
47A
102
}
330
1F
100
AcDbEntity
  8
KCAD_DIMS
  6
Continuous
 62
     7
370
    30
100
AcDbLine
 10
-204.7784548536
 20
122.54693693892
 30
0.0
 11
-205.7784548386
 21
119.54693698398
 31
0.0
1001
Sigma
1000
DIM_NORM1
  0
LINE
  5
495
102
{ACAD_REACTORS
330
47A
102
}
330
1F
100
AcDbEntity
  8
KCAD_DIMS
  6
Continuous
 62
     7
370
    30
100
AcDbLine
 10
-204.7784548536
 20
122.54693693892
 30
0.0
 11
-203.7784548686
 21
119.54693698398
 31
0.0
1001
Sigma
1000
DIM_NORM1
  0
LINE
  5
497
102
{ACAD_REACTORS
330
47A
102
}
330
1F
100
AcDbEntity
  8
KCAD_DIMS
  6
Continuous
 62
     7
370
    30
100
AcDbLine
 10
-204.7784548536
 20
119.54693698398
 30
0.0
 11
-204.7784548536
 21
107.54693689387
 31
0.0
1001
Sigma
1000
DIM_NORM1
  0
POINT
  5
49A
102
{ACAD_REACTORS
330
499
102
}
330
1F
100
AcDbEntity
  8
KCAD_DIMS
  6
Continuous
 62
     7
370
    15
100
AcDbPoint
 10
-211.9972048536
 20
102.0469369389199
 30
0.0
1001
Sigma
1000
DIM_NORM1
  0
POINT
  5
49C
102
{ACAD_REACTORS
330
499
102
}
330
1F
100
AcDbEntity
  8
KCAD_DIMS
  6
Continuous
 62
     7
370
    15
100
AcDbPoint
 10
-115.3397036329
 20
102.0469369389199
 30
0.0
1001
Sigma
1000
DIM_NORM1
  0
POINT
  5
49E
102
{ACAD_REACTORS
330
499
102
}
330
1F
100
AcDbEntity
  8
KCAD_DIMS
  6
Continuous
 62
     7
370
    15
100
AcDbPoint
 10
-115.3397036329
 20
125.0469369389199
 30
0.0
1001
Sigma
1000
DIM_NORM1
  0
TEXT
  5
4A0
102
{ACAD_REACTORS
330
499
102
}
330
1F
100
AcDbEntity
  8
KCAD_DIMS
  6
Continuous
 62
     7
370
    30
100
AcDbText
 10
-213.1972048535999
 20
109.7153743507099
 30
0.0
 40
2.440799999999999
  1
%%c23
 50
90.0
  7
KCADDIMSTANDARD
100
AcDbText
1001
Sigma
1000
DIM_NORM1
  0
LINE
  5
4A2
102
{ACAD_REACTORS
330
499
102
}
330
1F
100
AcDbEntity
  8
KCAD_DIMS
  6
Continuous
 62
     7
370
    30
100
AcDbLine
 10
-116.3397036179
 20
102.0469369389199
 30
0.0
 11
-212.9972048536
 21
102.0469369389199
 31
0.0
1001
Sigma
1000
DIM_NORM1
  0
LINE
  5
4A4
102
{ACAD_REACTORS
330
499
102
}
330
1F
100
AcDbEntity
  8
KCAD_DIMS
  6
Continuous
 62
     7
370
    30
100
AcDbLine
 10
-116.3397036179
 20
125.0469369389199
 30
0.0
 11
-212.9972048536
 21
125.0469369389199
 31
0.0
1001
Sigma
1000
DIM_NORM1
  0
LINE
  5
4A6
102
{ACAD_REACTORS
330
499
102
}
330
1F
100
AcDbEntity
  8
KCAD_DIMS
  6
Continuous
 62
     7
370
    30
100
AcDbLine
 10
-211.9972048536
 20
102.0469369389199
 30
0.0
 11
-211.9972048536
 21
105.0469368938699
 31
0.0
1001
Sigma
1000
DIM_NORM1
  0
LINE
  5
4A8
102
{ACAD_REACTORS
330
499
102
}
330
1F
100
AcDbEntity
  8
KCAD_DIMS
  6
Continuous
 62
     7
370
    30
100
AcDbLine
 10
-211.9972048536
 20
102.0469369389199
 30
0.0
 11
-210.9972048686
 21
105.0469368938699
 31
0.0
1001
Sigma
1000
DIM_NORM1
  0
LINE
  5
4AA
102
{ACAD_REACTORS
330
499
102
}
330
1F
100
AcDbEntity
  8
KCAD_DIMS
  6
Continuous
 62
     7
370
    30
100
AcDbLine
 10
-211.9972048536
 20
102.0469369389199
 30
0.0
 11
-212.9972048386
 21
105.0469368938699
 31
0.0
1001
Sigma
1000
DIM_NORM1
  0
LINE
  5
4AC
102
{ACAD_REACTORS
330
499
102
}
330
1F
100
AcDbEntity
  8
KCAD_DIMS
  6
Continuous
 62
     7
370
    30
100
AcDbLine
 10
-211.9972048536
 20
125.0469369389199
 30
0.0
 11
-211.9972048536
 21
122.04693698398
 31
0.0
1001
Sigma
1000
DIM_NORM1
  0
LINE
  5
4AE
102
{ACAD_REACTORS
330
499
102
}
330
1F
100
AcDbEntity
  8
KCAD_DIMS
  6
Continuous
 62
     7
370
    30
100
AcDbLine
 10
-211.9972048536
 20
125.0469369389199
 30
0.0
 11
-212.9972048386
 21
122.04693698398
 31
0.0
1001
Sigma
1000
DIM_NORM1
  0
LINE
  5
4B0
102
{ACAD_REACTORS
330
499
102
}
330
1F
100
AcDbEntity
  8
KCAD_DIMS
  6
Continuous
 62
     7
370
    30
100
AcDbLine
 10
-211.9972048536
 20
125.0469369389199
 30
0.0
 11
-210.9972048686
 21
122.04693698398
 31
0.0
1001
Sigma
1000
DIM_NORM1
  0
LINE
  5
4B2
102
{ACAD_REACTORS
330
499
102
}
330
1F
100
AcDbEntity
  8
KCAD_DIMS
  6
Continuous
 62
     7
370
    30
100
AcDbLine
 10
-211.9972048536
 20
122.04693698398
 30
0.0
 11
-211.9972048536
 21
105.0469368938699
 31
0.0
1001
Sigma
1000
DIM_NORM1
  0
POINT
  5
4B5
102
{ACAD_REACTORS
330
4B4
102
}
330
1F
100
AcDbEntity
  8
KCAD_DIMS
  6
Continuous
 62
     7
370
    15
100
AcDbPoint
 10
-45.23665721566
 20
100.8469399906799
 30
0.0
1001
Sigma
1000
DIM_NORM1
  0
POINT
  5
4B7
102
{ACAD_REACTORS
330
4B4
102
}
330
1F
100
AcDbEntity
  8
KCAD_DIMS
  6
Continuous
 62
     7
370
    15
100
AcDbPoint
 10
-68.43969447763
 20
100.8469399906799
 30
0.0
1001
Sigma
1000
DIM_NORM1
  0
POINT
  5
4B9
102
{ACAD_REACTORS
330
4B4
102
}
330
1F
100
AcDbEntity
  8
KCAD_DIMS
  6
Continuous
 62
     7
370
    15
100
AcDbPoint
 10
-68.43969447763
 20
126.24694914595
 30
0.0
1001
Sigma
1000
DIM_NORM1
  0
TEXT
  5
4BB
102
{ACAD_REACTORS
330
4B4
102
}
330
1F
100
AcDbEntity
  8
KCAD_DIMS
  6
Continuous
 62
     7
370
    30
100
AcDbText
 10
-46.13665721565999
 20
106.62538192049
 30
0.0
 40
2.7
  1
Ｃマウント
 50
90.0
 41
0.5645365595817565
  7
KCADDIMSTANDARD
100
AcDbText
1001
Sigma
1000
DIM_NORM1
  0
LINE
  5
4BD
102
{ACAD_REACTORS
330
4B4
102
}
330
1F
100
AcDbEntity
  8
KCAD_DIMS
  6
Continuous
 62
     7
370
    30
100
AcDbLine
 10
-67.43969449265
 20
100.8469399906799
 30
0.0
 11
-44.23665721566
 21
100.8469399906799
 31
0.0
1001
Sigma
1000
DIM_NORM1
  0
LINE
  5
4BF
102
{ACAD_REACTORS
330
4B4
102
}
330
1F
100
AcDbEntity
  8
KCAD_DIMS
  6
Continuous
 62
     7
370
    30
100
AcDbLine
 10
-67.43969449265
 20
126.24694914595
 30
0.0
 11
-44.23665721566
 21
126.24694914595
 31
0.0
1001
Sigma
1000
DIM_NORM1
  0
LINE
  5
4C1
102
{ACAD_REACTORS
330
4B4
102
}
330
1F
100
AcDbEntity
  8
KCAD_DIMS
  6
Continuous
 62
     7
370
    30
100
AcDbLine
 10
-45.23665721566
 20
100.8469399906799
 30
0.0
 11
-45.23665721566
 21
103.8469399456199
 31
0.0
1001
Sigma
1000
DIM_NORM1
  0
LINE
  5
4C3
102
{ACAD_REACTORS
330
4B4
102
}
330
1F
100
AcDbEntity
  8
KCAD_DIMS
  6
Continuous
 62
     7
370
    30
100
AcDbLine
 10
-45.23665721566
 20
100.8469399906799
 30
0.0
 11
-44.23665723068
 21
103.8469399456199
 31
0.0
1001
Sigma
1000
DIM_NORM1
  0
LINE
  5
4C5
102
{ACAD_REACTORS
330
4B4
102
}
330
1F
100
AcDbEntity
  8
KCAD_DIMS
  6
Continuous
 62
     7
370
    30
100
AcDbLine
 10
-45.23665721566
 20
100.8469399906799
 30
0.0
 11
-46.23665720065
 21
103.8469399456199
 31
0.0
1001
Sigma
1000
DIM_NORM1
  0
LINE
  5
4C7
102
{ACAD_REACTORS
330
4B4
102
}
330
1F
100
AcDbEntity
  8
KCAD_DIMS
  6
Continuous
 62
     7
370
    30
100
AcDbLine
 10
-45.23665721566
 20
126.24694914595
 30
0.0
 11
-45.23665721566
 21
123.24694919101
 31
0.0
1001
Sigma
1000
DIM_NORM1
  0
LINE
  5
4C9
102
{ACAD_REACTORS
330
4B4
102
}
330
1F
100
AcDbEntity
  8
KCAD_DIMS
  6
Continuous
 62
     7
370
    30
100
AcDbLine
 10
-45.23665721566
 20
126.24694914595
 30
0.0
 11
-46.23665720065
 21
123.24694919101
 31
0.0
1001
Sigma
1000
DIM_NORM1
  0
LINE
  5
4CB
102
{ACAD_REACTORS
330
4B4
102
}
330
1F
100
AcDbEntity
  8
KCAD_DIMS
  6
Continuous
 62
     7
370
    30
100
AcDbLine
 10
-45.23665721566
 20
126.24694914595
 30
0.0
 11
-44.23665723068
 21
123.24694919101
 31
0.0
1001
Sigma
1000
DIM_NORM1
  0
LINE
  5
4CD
102
{ACAD_REACTORS
330
4B4
102
}
330
1F
100
AcDbEntity
  8
KCAD_DIMS
  6
Continuous
 62
     7
370
    30
100
AcDbLine
 10
-45.23665721566
 20
123.24694919101
 30
0.0
 11
-45.23665721566
 21
103.8469399456199
 31
0.0
1001
Sigma
1000
DIM_NORM1
  0
POINT
  5
4D0
102
{ACAD_REACTORS
330
4CF
102
}
330
1F
100
AcDbEntity
  8
KCAD_DIMS
  6
Continuous
 62
     7
370
    15
100
AcDbPoint
 10
-32.49298961312
 20
98.54693693892
 30
0.0
1001
Sigma
1000
DIM_NORM1
  0
POINT
  5
4D2
102
{ACAD_REACTORS
330
4CF
102
}
330
1F
100
AcDbEntity
  8
KCAD_DIMS
  6
Continuous
 62
     7
370
    15
100
AcDbPoint
 10
-96.83970363290001
 20
98.54693693892
 30
0.0
1001
Sigma
1000
DIM_NORM1
  0
POINT
  5
4D4
102
{ACAD_REACTORS
330
4CF
102
}
330
1F
100
AcDbEntity
  8
KCAD_DIMS
  6
Continuous
 62
     7
370
    15
100
AcDbPoint
 10
-96.83970363290001
 20
128.54693693892
 30
0.0
1001
Sigma
1000
DIM_NORM1
  0
TEXT
  5
4D6
102
{ACAD_REACTORS
330
4CF
102
}
330
1F
100
AcDbEntity
  8
KCAD_DIMS
  6
Continuous
 62
     7
370
    30
100
AcDbText
 10
-33.69298961312
 20
109.4157527686699
 30
0.0
 40
2.440799999999999
  1
%%c30
 50
90.0
  7
KCADDIMSTANDARD
100
AcDbText
1001
Sigma
1000
DIM_NORM1
  0
LINE
  5
4D8
102
{ACAD_REACTORS
330
4CF
102
}
330
1F
100
AcDbEntity
  8
KCAD_DIMS
  6
Continuous
 62
     7
370
    30
100
AcDbLine
 10
-95.83970364792
 20
98.54693693892
 30
0.0
 11
-31.49298961312
 21
98.54693693892
 31
0.0
1001
Sigma
1000
DIM_NORM1
  0
LINE
  5
4DA
102
{ACAD_REACTORS
330
4CF
102
}
330
1F
100
AcDbEntity
  8
KCAD_DIMS
  6
Continuous
 62
     7
370
    30
100
AcDbLine
 10
-95.83970364792
 20
128.54693693892
 30
0.0
 11
-31.49298961312
 21
128.54693693892
 31
0.0
1001
Sigma
1000
DIM_NORM1
  0
LINE
  5
4DC
102
{ACAD_REACTORS
330
4CF
102
}
330
1F
100
AcDbEntity
  8
KCAD_DIMS
  6
Continuous
 62
     7
370
    30
100
AcDbLine
 10
-32.49298961312
 20
98.54693693892
 30
0.0
 11
-32.49298961312
 21
101.5469368938699
 31
0.0
1001
Sigma
1000
DIM_NORM1
  0
LINE
  5
4DE
102
{ACAD_REACTORS
330
4CF
102
}
330
1F
100
AcDbEntity
  8
KCAD_DIMS
  6
Continuous
 62
     7
370
    30
100
AcDbLine
 10
-32.49298961312
 20
98.54693693892
 30
0.0
 11
-31.49298962814
 21
101.5469368938699
 31
0.0
1001
Sigma
1000
DIM_NORM1
  0
LINE
  5
4E0
102
{ACAD_REACTORS
330
4CF
102
}
330
1F
100
AcDbEntity
  8
KCAD_DIMS
  6
Continuous
 62
     7
370
    30
100
AcDbLine
 10
-32.49298961312
 20
98.54693693892
 30
0.0
 11
-33.49298959811
 21
101.5469368938699
 31
0.0
1001
Sigma
1000
DIM_NORM1
  0
LINE
  5
4E2
102
{ACAD_REACTORS
330
4CF
102
}
330
1F
100
AcDbEntity
  8
KCAD_DIMS
  6
Continuous
 62
     7
370
    30
100
AcDbLine
 10
-32.49298961312
 20
128.54693693892
 30
0.0
 11
-32.49298961312
 21
125.54693698398
 31
0.0
1001
Sigma
1000
DIM_NORM1
  0
LINE
  5
4E4
102
{ACAD_REACTORS
330
4CF
102
}
330
1F
100
AcDbEntity
  8
KCAD_DIMS
  6
Continuous
 62
     7
370
    30
100
AcDbLine
 10
-32.49298961312
 20
128.54693693892
 30
0.0
 11
-33.49298959811
 21
125.54693698398
 31
0.0
1001
Sigma
1000
DIM_NORM1
  0
LINE
  5
4E6
102
{ACAD_REACTORS
330
4CF
102
}
330
1F
100
AcDbEntity
  8
KCAD_DIMS
  6
Continuous
 62
     7
370
    30
100
AcDbLine
 10
-32.49298961312
 20
128.54693693892
 30
0.0
 11
-31.49298962814
 21
125.54693698398
 31
0.0
1001
Sigma
1000
DIM_NORM1
  0
LINE
  5
4E8
102
{ACAD_REACTORS
330
4CF
102
}
330
1F
100
AcDbEntity
  8
KCAD_DIMS
  6
Continuous
 62
     7
370
    30
100
AcDbLine
 10
-32.49298961312
 20
125.54693698398
 30
0.0
 11
-32.49298961312
 21
101.5469368938699
 31
0.0
1001
Sigma
1000
DIM_NORM1
  0
POINT
  5
4EB
102
{ACAD_REACTORS
330
4EA
102
}
330
1F
100
AcDbEntity
  8
KCAD_DIMS
  6
Continuous
 62
     7
370
    15
100
AcDbPoint
 10
-39.09440333993
 20
128.0469369389199
 30
0.0
1001
Sigma
1000
DIM_NORM1
  0
POINT
  5
4ED
102
{ACAD_REACTORS
330
4EA
102
}
330
1F
100
AcDbEntity
  8
KCAD_DIMS
  6
Continuous
 62
     7
370
    15
100
AcDbPoint
 10
-72.63970668466
 20
128.0469369389199
 30
0.0
1001
Sigma
1000
DIM_NORM1
  0
POINT
  5
4EF
102
{ACAD_REACTORS
330
4EA
102
}
330
1F
100
AcDbEntity
  8
KCAD_DIMS
  6
Continuous
 62
     7
370
    15
100
AcDbPoint
 10
-72.63970668466
 20
99.04693693891998
 30
0.0
1001
Sigma
1000
DIM_NORM1
  0
TEXT
  5
4F1
102
{ACAD_REACTORS
330
4EA
102
}
330
1F
100
AcDbEntity
  8
KCAD_DIMS
  6
Continuous
 62
     7
370
    30
100
AcDbText
 10
-40.06940333992999
 20
115.5953744699099
 30
0.0
 40
1.220399999999999
  1
-0.1
 50
90.0
  7
KCADDIMSTANDARD
100
AcDbText
1001
Sigma
1000
DIM_NORM1
  0
TEXT
  5
4F3
102
{ACAD_REACTORS
330
4EA
102
}
330
1F
100
AcDbEntity
  8
KCAD_DIMS
  6
Continuous
 62
     7
370
    30
100
AcDbText
 10
-42.31940339953999
 20
115.5953744699099
 30
0.0
 40
1.220399999999999
  1
 0
 50
90.0
  7
KCADDIMSTANDARD
100
AcDbText
1001
Sigma
1000
DIM_NORM1
  0
TEXT
  5
4F5
102
{ACAD_REACTORS
330
4EA
102
}
330
1F
100
AcDbEntity
  8
KCAD_DIMS
  6
Continuous
 62
     7
370
    30
100
AcDbText
 10
-40.29440333993
 20
106.7153742910999
 30
0.0
 40
2.440799999999999
  1
%%c29
 50
90.0
  7
KCADDIMSTANDARD
100
AcDbText
1001
Sigma
1000
DIM_NORM1
  0
LINE
  5
4F7
102
{ACAD_REACTORS
330
4EA
102
}
330
1F
100
AcDbEntity
  8
KCAD_DIMS
  6
Continuous
 62
     7
370
    30
100
AcDbLine
 10
-71.63970669968
 20
128.0469369389199
 30
0.0
 11
-38.09440333992999
 21
128.0469369389199
 31
0.0
1001
Sigma
1000
DIM_NORM1
  0
LINE
  5
4F9
102
{ACAD_REACTORS
330
4EA
102
}
330
1F
100
AcDbEntity
  8
KCAD_DIMS
  6
Continuous
 62
     7
370
    30
100
AcDbLine
 10
-71.63970669968
 20
99.04693693891998
 30
0.0
 11
-38.09440333992999
 21
99.04693693891998
 31
0.0
1001
Sigma
1000
DIM_NORM1
  0
LINE
  5
4FB
102
{ACAD_REACTORS
330
4EA
102
}
330
1F
100
AcDbEntity
  8
KCAD_DIMS
  6
Continuous
 62
     7
370
    30
100
AcDbLine
 10
-39.09440333993
 20
128.0469369389199
 30
0.0
 11
-39.09440333993
 21
125.04693698398
 31
0.0
1001
Sigma
1000
DIM_NORM1
  0
LINE
  5
4FD
102
{ACAD_REACTORS
330
4EA
102
}
330
1F
100
AcDbEntity
  8
KCAD_DIMS
  6
Continuous
 62
     7
370
    30
100
AcDbLine
 10
-39.09440333993
 20
128.0469369389199
 30
0.0
 11
-40.09440332490999
 21
125.04693698398
 31
0.0
1001
Sigma
1000
DIM_NORM1
  0
LINE
  5
4FF
102
{ACAD_REACTORS
330
4EA
102
}
330
1F
100
AcDbEntity
  8
KCAD_DIMS
  6
Continuous
 62
     7
370
    30
100
AcDbLine
 10
-39.09440333993
 20
128.0469369389199
 30
0.0
 11
-38.09440335495
 21
125.04693698398
 31
0.0
1001
Sigma
1000
DIM_NORM1
  0
LINE
  5
501
102
{ACAD_REACTORS
330
4EA
102
}
330
1F
100
AcDbEntity
  8
KCAD_DIMS
  6
Continuous
 62
     7
370
    30
100
AcDbLine
 10
-39.09440333993
 20
99.04693693891998
 30
0.0
 11
-39.09440333993
 21
102.0469368938699
 31
0.0
1001
Sigma
1000
DIM_NORM1
  0
LINE
  5
503
102
{ACAD_REACTORS
330
4EA
102
}
330
1F
100
AcDbEntity
  8
KCAD_DIMS
  6
Continuous
 62
     7
370
    30
100
AcDbLine
 10
-39.09440333993
 20
99.04693693891998
 30
0.0
 11
-38.09440335495
 21
102.0469368938699
 31
0.0
1001
Sigma
1000
DIM_NORM1
  0
LINE
  5
505
102
{ACAD_REACTORS
330
4EA
102
}
330
1F
100
AcDbEntity
  8
KCAD_DIMS
  6
Continuous
 62
     7
370
    30
100
AcDbLine
 10
-39.09440333993
 20
99.04693693891998
 30
0.0
 11
-40.09440332490999
 21
102.0469368938699
 31
0.0
1001
Sigma
1000
DIM_NORM1
  0
LINE
  5
507
102
{ACAD_REACTORS
330
4EA
102
}
330
1F
100
AcDbEntity
  8
KCAD_DIMS
  6
Continuous
 62
     7
370
    30
100
AcDbLine
 10
-39.09440333993
 20
102.0469368938699
 30
0.0
 11
-39.09440333993
 21
125.04693698398
 31
0.0
1001
Sigma
1000
DIM_NORM1
  0
POINT
  5
50A
102
{ACAD_REACTORS
330
509
102
}
330
1F
100
AcDbEntity
  8
KCAD_DIMS
  6
Continuous
 62
     7
370
    15
100
AcDbPoint
 10
-115.8397036328999
 20
138.1388343721899
 30
0.0
1001
Sigma
1000
DIM_NORM1
  0
POINT
  5
50C
102
{ACAD_REACTORS
330
509
102
}
330
1F
100
AcDbEntity
  8
KCAD_DIMS
  6
Continuous
 62
     7
370
    15
100
AcDbPoint
 10
-115.8397036328999
 20
125.0469369389199
 30
0.0
1001
Sigma
1000
DIM_NORM1
  0
POINT
  5
50E
102
{ACAD_REACTORS
330
509
102
}
330
1F
100
AcDbEntity
  8
KCAD_DIMS
  6
Continuous
 62
     7
370
    15
100
AcDbPoint
 10
-193.8397036329
 20
122.54693693892
 30
0.0
1001
Sigma
1000
DIM_NORM1
  0
TEXT
  5
510
102
{ACAD_REACTORS
330
509
102
}
330
1F
100
AcDbEntity
  8
KCAD_DIMS
  6
Continuous
 62
     7
370
    30
100
AcDbText
 10
-157.1712661912999
 20
139.3388343721799
 30
0.0
 40
2.440799999999999
  1
78
  7
KCADDIMSTANDARD
100
AcDbText
1001
Sigma
1000
DIM_NORM1
  0
LINE
  5
512
102
{ACAD_REACTORS
330
509
102
}
330
1F
100
AcDbEntity
  8
KCAD_DIMS
  6
Continuous
 62
     7
370
    30
100
AcDbLine
 10
-115.8397036328999
 20
126.0469369239
 30
0.0
 11
-115.8397036328999
 21
139.1388343721899
 31
0.0
1001
Sigma
1000
DIM_NORM1
  0
LINE
  5
514
102
{ACAD_REACTORS
330
509
102
}
330
1F
100
AcDbEntity
  8
KCAD_DIMS
  6
Continuous
 62
     7
370
    30
100
AcDbLine
 10
-115.8397036328999
 20
138.1388343721899
 30
0.0
 11
-118.8397035878
 21
138.1388343721899
 31
0.0
1001
Sigma
1000
DIM_NORM1
  0
LINE
  5
516
102
{ACAD_REACTORS
330
509
102
}
330
1F
100
AcDbEntity
  8
KCAD_DIMS
  6
Continuous
 62
     7
370
    30
100
AcDbLine
 10
-115.8397036328999
 20
138.1388343721899
 30
0.0
 11
-118.8397035878
 21
139.13883435717
 31
0.0
1001
Sigma
1000
DIM_NORM1
  0
LINE
  5
518
102
{ACAD_REACTORS
330
509
102
}
330
1F
100
AcDbEntity
  8
KCAD_DIMS
  6
Continuous
 62
     7
370
    30
100
AcDbLine
 10
-115.8397036328999
 20
138.1388343721899
 30
0.0
 11
-118.8397035878
 21
137.1388343872
 31
0.0
1001
Sigma
1000
DIM_NORM1
  0
LINE
  5
51A
102
{ACAD_REACTORS
330
509
102
}
330
1F
100
AcDbEntity
  8
KCAD_DIMS
  6
Continuous
 62
     7
370
    30
100
AcDbLine
 10
-193.8397036329
 20
138.1388343721899
 30
0.0
 11
-190.839703678
 21
138.1388343721899
 31
0.0
1001
Sigma
1000
DIM_NORM1
  0
LINE
  5
51C
102
{ACAD_REACTORS
330
509
102
}
330
1F
100
AcDbEntity
  8
KCAD_DIMS
  6
Continuous
 62
     7
370
    30
100
AcDbLine
 10
-193.8397036329
 20
138.1388343721899
 30
0.0
 11
-190.839703678
 21
137.1388343872
 31
0.0
1001
Sigma
1000
DIM_NORM1
  0
LINE
  5
51E
102
{ACAD_REACTORS
330
509
102
}
330
1F
100
AcDbEntity
  8
KCAD_DIMS
  6
Continuous
 62
     7
370
    30
100
AcDbLine
 10
-193.8397036329
 20
138.1388343721899
 30
0.0
 11
-190.839703678
 21
139.13883435717
 31
0.0
1001
Sigma
1000
DIM_NORM1
  0
LINE
  5
520
102
{ACAD_REACTORS
330
509
102
}
330
1F
100
AcDbEntity
  8
KCAD_DIMS
  6
Continuous
 62
     7
370
    30
100
AcDbLine
 10
-190.839703678
 20
138.1388343721899
 30
0.0
 11
-118.8397035878
 21
138.1388343721899
 31
0.0
1001
Sigma
1000
DIM_NORM1
  0
POINT
  5
523
102
{ACAD_REACTORS
330
522
102
}
330
1F
100
AcDbEntity
  8
KCAD_DIMS
  6
Continuous
 62
     7
370
    15
100
AcDbPoint
 10
-96.83970363290001
 20
138.1388343721899
 30
0.0
1001
Sigma
1000
DIM_NORM1
  0
POINT
  5
525
102
{ACAD_REACTORS
330
522
102
}
330
1F
100
AcDbEntity
  8
KCAD_DIMS
  6
Continuous
 62
     7
370
    15
100
AcDbPoint
 10
-96.83970363290001
 20
128.54693693892
 30
0.0
1001
Sigma
1000
DIM_NORM1
  0
POINT
  5
527
102
{ACAD_REACTORS
330
522
102
}
330
1F
100
AcDbEntity
  8
KCAD_DIMS
  6
Continuous
 62
     7
370
    15
100
AcDbPoint
 10
-115.8397036328999
 20
125.0469369389199
 30
0.0
1001
Sigma
1000
DIM_NORM1
  0
TEXT
  5
529
102
{ACAD_REACTORS
330
522
102
}
330
1F
100
AcDbEntity
  8
KCAD_DIMS
  6
Continuous
 62
     7
370
    30
100
AcDbText
 10
-108.6712661913
 20
139.3388343721799
 30
0.0
 40
2.440799999999999
  1
19
  7
KCADDIMSTANDARD
100
AcDbText
1001
Sigma
1000
DIM_NORM1
  0
LINE
  5
52B
102
{ACAD_REACTORS
330
522
102
}
330
1F
100
AcDbEntity
  8
KCAD_DIMS
  6
Continuous
 62
     7
370
    30
100
AcDbLine
 10
-96.83970363290001
 20
129.5469369239
 30
0.0
 11
-96.83970363290001
 21
139.1388343721899
 31
0.0
1001
Sigma
1000
DIM_NORM1
  0
LINE
  5
52D
102
{ACAD_REACTORS
330
522
102
}
330
1F
100
AcDbEntity
  8
KCAD_DIMS
  6
Continuous
 62
     7
370
    30
100
AcDbLine
 10
-96.83970363290001
 20
138.1388343721899
 30
0.0
 11
-99.83970358784
 21
138.1388343721899
 31
0.0
1001
Sigma
1000
DIM_NORM1
  0
LINE
  5
52F
102
{ACAD_REACTORS
330
522
102
}
330
1F
100
AcDbEntity
  8
KCAD_DIMS
  6
Continuous
 62
     7
370
    30
100
AcDbLine
 10
-96.83970363290001
 20
138.1388343721899
 30
0.0
 11
-99.83970358784
 21
139.13883435717
 31
0.0
1001
Sigma
1000
DIM_NORM1
  0
LINE
  5
531
102
{ACAD_REACTORS
330
522
102
}
330
1F
100
AcDbEntity
  8
KCAD_DIMS
  6
Continuous
 62
     7
370
    30
100
AcDbLine
 10
-96.83970363290001
 20
138.1388343721899
 30
0.0
 11
-99.83970358784
 21
137.1388343872
 31
0.0
1001
Sigma
1000
DIM_NORM1
  0
LINE
  5
533
102
{ACAD_REACTORS
330
522
102
}
330
1F
100
AcDbEntity
  8
KCAD_DIMS
  6
Continuous
 62
     7
370
    30
100
AcDbLine
 10
-115.8397036328999
 20
138.1388343721899
 30
0.0
 11
-112.839703678
 21
138.1388343721899
 31
0.0
1001
Sigma
1000
DIM_NORM1
  0
LINE
  5
535
102
{ACAD_REACTORS
330
522
102
}
330
1F
100
AcDbEntity
  8
KCAD_DIMS
  6
Continuous
 62
     7
370
    30
100
AcDbLine
 10
-115.8397036328999
 20
138.1388343721899
 30
0.0
 11
-112.839703678
 21
137.1388343872
 31
0.0
1001
Sigma
1000
DIM_NORM1
  0
LINE
  5
537
102
{ACAD_REACTORS
330
522
102
}
330
1F
100
AcDbEntity
  8
KCAD_DIMS
  6
Continuous
 62
     7
370
    30
100
AcDbLine
 10
-115.8397036328999
 20
138.1388343721899
 30
0.0
 11
-112.839703678
 21
139.13883435717
 31
0.0
1001
Sigma
1000
DIM_NORM1
  0
LINE
  5
539
102
{ACAD_REACTORS
330
522
102
}
330
1F
100
AcDbEntity
  8
KCAD_DIMS
  6
Continuous
 62
     7
370
    30
100
AcDbLine
 10
-112.839703678
 20
138.1388343721899
 30
0.0
 11
-99.83970358784
 21
138.1388343721899
 31
0.0
1001
Sigma
1000
DIM_NORM1
  0
POINT
  5
53C
102
{ACAD_REACTORS
330
53B
102
}
330
1F
100
AcDbEntity
  8
KCAD_DIMS
  6
Continuous
 62
     7
370
    15
100
AcDbPoint
 10
-72.13970668466
 20
138.1388343721899
 30
0.0
1001
Sigma
1000
DIM_NORM1
  0
POINT
  5
53E
102
{ACAD_REACTORS
330
53B
102
}
330
1F
100
AcDbEntity
  8
KCAD_DIMS
  6
Continuous
 62
     7
370
    15
100
AcDbPoint
 10
-72.13970668466
 20
128.0469369389199
 30
0.0
1001
Sigma
1000
DIM_NORM1
  0
POINT
  5
540
102
{ACAD_REACTORS
330
53B
102
}
330
1F
100
AcDbEntity
  8
KCAD_DIMS
  6
Continuous
 62
     7
370
    15
100
AcDbPoint
 10
-96.83970363290001
 20
128.54693693892
 30
0.0
1001
Sigma
1000
DIM_NORM1
  0
TEXT
  5
542
102
{ACAD_REACTORS
330
53B
102
}
330
1F
100
AcDbEntity
  8
KCAD_DIMS
  6
Continuous
 62
     7
370
    30
100
AcDbText
 10
-89.82126777679998
 20
139.3388343721799
 30
0.0
 40
2.440799999999999
  1
24.7
  7
KCADDIMSTANDARD
100
AcDbText
1001
Sigma
1000
DIM_NORM1
  0
LINE
  5
544
102
{ACAD_REACTORS
330
53B
102
}
330
1F
100
AcDbEntity
  8
KCAD_DIMS
  6
Continuous
 62
     7
370
    30
100
AcDbLine
 10
-72.13970668466
 20
138.1388343721899
 30
0.0
 11
-75.1397066396
 21
138.1388343721899
 31
0.0
1001
Sigma
1000
DIM_NORM1
  0
LINE
  5
546
102
{ACAD_REACTORS
330
53B
102
}
330
1F
100
AcDbEntity
  8
KCAD_DIMS
  6
Continuous
 62
     7
370
    30
100
AcDbLine
 10
-72.13970668466
 20
138.1388343721899
 30
0.0
 11
-75.1397066396
 21
139.13883435717
 31
0.0
1001
Sigma
1000
DIM_NORM1
  0
LINE
  5
548
102
{ACAD_REACTORS
330
53B
102
}
330
1F
100
AcDbEntity
  8
KCAD_DIMS
  6
Continuous
 62
     7
370
    30
100
AcDbLine
 10
-72.13970668466
 20
138.1388343721899
 30
0.0
 11
-75.1397066396
 21
137.1388343872
 31
0.0
1001
Sigma
1000
DIM_NORM1
  0
LINE
  5
54A
102
{ACAD_REACTORS
330
53B
102
}
330
1F
100
AcDbEntity
  8
KCAD_DIMS
  6
Continuous
 62
     7
370
    30
100
AcDbLine
 10
-96.83970363290001
 20
138.1388343721899
 30
0.0
 11
-93.83970367796002
 21
138.1388343721899
 31
0.0
1001
Sigma
1000
DIM_NORM1
  0
LINE
  5
54C
102
{ACAD_REACTORS
330
53B
102
}
330
1F
100
AcDbEntity
  8
KCAD_DIMS
  6
Continuous
 62
     7
370
    30
100
AcDbLine
 10
-96.83970363290001
 20
138.1388343721899
 30
0.0
 11
-93.83970367796002
 21
137.1388343872
 31
0.0
1001
Sigma
1000
DIM_NORM1
  0
LINE
  5
54E
102
{ACAD_REACTORS
330
53B
102
}
330
1F
100
AcDbEntity
  8
KCAD_DIMS
  6
Continuous
 62
     7
370
    30
100
AcDbLine
 10
-96.83970363290001
 20
138.1388343721899
 30
0.0
 11
-93.83970367796002
 21
139.13883435717
 31
0.0
1001
Sigma
1000
DIM_NORM1
  0
LINE
  5
550
102
{ACAD_REACTORS
330
53B
102
}
330
1F
100
AcDbEntity
  8
KCAD_DIMS
  6
Continuous
 62
     7
370
    30
100
AcDbLine
 10
-93.83970367796002
 20
138.1388343721899
 30
0.0
 11
-75.1397066396
 21
138.1388343721899
 31
0.0
1001
Sigma
1000
DIM_NORM1
  0
POINT
  5
553
102
{ACAD_REACTORS
330
552
102
}
330
1F
100
AcDbEntity
  8
KCAD_DIMS
  6
Continuous
 62
     7
370
    15
100
AcDbPoint
 10
-68.13970668466
 20
138.1388343721899
 30
0.0
1001
Sigma
1000
DIM_NORM1
  0
POINT
  5
555
102
{ACAD_REACTORS
330
552
102
}
330
1F
100
AcDbEntity
  8
KCAD_DIMS
  6
Continuous
 62
     7
370
    15
100
AcDbPoint
 10
-68.13970668466
 20
126.24694914595
 30
0.0
1001
Sigma
1000
DIM_NORM1
  0
POINT
  5
557
102
{ACAD_REACTORS
330
552
102
}
330
1F
100
AcDbEntity
  8
KCAD_DIMS
  6
Continuous
 62
     7
370
    15
100
AcDbPoint
 10
-72.13970668466
 20
128.0469369389199
 30
0.0
1001
Sigma
1000
DIM_NORM1
  0
TEXT
  5
559
102
{ACAD_REACTORS
330
552
102
}
330
1F
100
AcDbEntity
  8
KCAD_DIMS
  6
Continuous
 62
     7
370
    30
100
AcDbText
 10
-70.97126921327
 20
139.3388343721799
 30
0.0
 40
2.440799999999999
  1
4
  7
KCADDIMSTANDARD
100
AcDbText
1001
Sigma
1000
DIM_NORM1
  0
LINE
  5
55B
102
{ACAD_REACTORS
330
552
102
}
330
1F
100
AcDbEntity
  8
KCAD_DIMS
  6
Continuous
 62
     7
370
    30
100
AcDbLine
 10
-68.13970668466
 20
127.2469491309299
 30
0.0
 11
-68.13970668466
 21
139.1388343721899
 31
0.0
1001
Sigma
1000
DIM_NORM1
  0
LINE
  5
55D
102
{ACAD_REACTORS
330
552
102
}
330
1F
100
AcDbEntity
  8
KCAD_DIMS
  6
Continuous
 62
     7
370
    30
100
AcDbLine
 10
-65.13970672971
 20
138.1388343721899
 30
0.0
 11
-61.78970678003
 21
138.1388343721899
 31
0.0
1001
Sigma
1000
DIM_NORM1
  0
LINE
  5
55F
102
{ACAD_REACTORS
330
552
102
}
330
1F
100
AcDbEntity
  8
KCAD_DIMS
  6
Continuous
 62
     7
370
    30
100
AcDbLine
 10
-68.13970668466
 20
138.1388343721899
 30
0.0
 11
-65.13970672971
 21
138.1388343721899
 31
0.0
1001
Sigma
1000
DIM_NORM1
  0
LINE
  5
561
102
{ACAD_REACTORS
330
552
102
}
330
1F
100
AcDbEntity
  8
KCAD_DIMS
  6
Continuous
 62
     7
370
    30
100
AcDbLine
 10
-68.13970668466
 20
138.1388343721899
 30
0.0
 11
-65.13970672971
 21
137.1388343872
 31
0.0
1001
Sigma
1000
DIM_NORM1
  0
LINE
  5
563
102
{ACAD_REACTORS
330
552
102
}
330
1F
100
AcDbEntity
  8
KCAD_DIMS
  6
Continuous
 62
     7
370
    30
100
AcDbLine
 10
-68.13970668466
 20
138.1388343721899
 30
0.0
 11
-65.13970672971
 21
139.13883435717
 31
0.0
1001
Sigma
1000
DIM_NORM1
  0
LINE
  5
565
102
{ACAD_REACTORS
330
552
102
}
330
1F
100
AcDbEntity
  8
KCAD_DIMS
  6
Continuous
 62
     7
370
    30
100
AcDbLine
 10
-72.13970668466
 20
138.1388343721899
 30
0.0
 11
-68.13970668466
 21
138.1388343721899
 31
0.0
1001
Sigma
1000
DIM_NORM1
  0
POINT
  5
568
102
{ACAD_REACTORS
330
567
102
}
330
1F
100
AcDbEntity
  8
KCAD_DIMS
  6
Continuous
 62
     7
370
    15
100
AcDbPoint
 10
-193.8397036329
 20
143.93883437218
 30
0.0
1001
Sigma
1000
DIM_NORM1
  0
POINT
  5
56A
102
{ACAD_REACTORS
330
567
102
}
330
1F
100
AcDbEntity
  8
KCAD_DIMS
  6
Continuous
 62
     7
370
    15
100
AcDbPoint
 10
-193.8397036329
 20
122.54693693892
 30
0.0
1001
Sigma
1000
DIM_NORM1
  0
POINT
  5
56C
102
{ACAD_REACTORS
330
567
102
}
330
1F
100
AcDbEntity
  8
KCAD_DIMS
  6
Continuous
 62
     7
370
    15
100
AcDbPoint
 10
-259.0897036329
 20
117.17607056552
 30
0.0
1001
Sigma
1000
DIM_NORM1
  0
TEXT
  5
56E
102
{ACAD_REACTORS
330
567
102
}
330
1F
100
AcDbEntity
  8
KCAD_DIMS
  6
Continuous
 62
     7
370
    30
100
AcDbText
 10
-237.7962663701
 20
145.1388343721799
 30
0.0
 40
2.440799999999999
  1
WD=65.25
  7
KCADDIMSTANDARD
100
AcDbText
1001
Sigma
1000
DIM_NORM1
  0
LINE
  5
570
102
{ACAD_REACTORS
330
567
102
}
330
1F
100
AcDbEntity
  8
KCAD_DIMS
  6
Continuous
 62
     7
370
    30
100
AcDbLine
 10
-193.8397036329
 20
123.5469369239
 30
0.0
 11
-193.8397036329
 21
144.93883437218
 31
0.0
1001
Sigma
1000
DIM_NORM1
  0
LINE
  5
572
102
{ACAD_REACTORS
330
567
102
}
330
1F
100
AcDbEntity
  8
KCAD_DIMS
  6
Continuous
 62
     7
370
    30
100
AcDbLine
 10
-259.0897036329
 20
118.1760705505
 30
0.0
 11
-259.0897036329
 21
144.93883437218
 31
0.0
1001
Sigma
1000
DIM_NORM1
  0
LINE
  5
574
102
{ACAD_REACTORS
330
567
102
}
330
1F
100
AcDbEntity
  8
KCAD_DIMS
  6
Continuous
 62
     7
370
    30
100
AcDbLine
 10
-193.8397036329
 20
143.93883437218
 30
0.0
 11
-196.8397035877999
 21
143.93883437218
 31
0.0
1001
Sigma
1000
DIM_NORM1
  0
LINE
  5
576
102
{ACAD_REACTORS
330
567
102
}
330
1F
100
AcDbEntity
  8
KCAD_DIMS
  6
Continuous
 62
     7
370
    30
100
AcDbLine
 10
-193.8397036329
 20
143.93883437218
 30
0.0
 11
-196.8397035877999
 21
144.93883435717
 31
0.0
1001
Sigma
1000
DIM_NORM1
  0
LINE
  5
578
102
{ACAD_REACTORS
330
567
102
}
330
1F
100
AcDbEntity
  8
KCAD_DIMS
  6
Continuous
 62
     7
370
    30
100
AcDbLine
 10
-193.8397036329
 20
143.93883437218
 30
0.0
 11
-196.8397035877999
 21
142.9388343871999
 31
0.0
1001
Sigma
1000
DIM_NORM1
  0
LINE
  5
57A
102
{ACAD_REACTORS
330
567
102
}
330
1F
100
AcDbEntity
  8
KCAD_DIMS
  6
Continuous
 62
     7
370
    30
100
AcDbLine
 10
-259.0897036329
 20
143.93883437218
 30
0.0
 11
-256.0897036779999
 21
143.93883437218
 31
0.0
1001
Sigma
1000
DIM_NORM1
  0
LINE
  5
57C
102
{ACAD_REACTORS
330
567
102
}
330
1F
100
AcDbEntity
  8
KCAD_DIMS
  6
Continuous
 62
     7
370
    30
100
AcDbLine
 10
-259.0897036329
 20
143.93883437218
 30
0.0
 11
-256.0897036779999
 21
142.9388343871999
 31
0.0
1001
Sigma
1000
DIM_NORM1
  0
LINE
  5
57E
102
{ACAD_REACTORS
330
567
102
}
330
1F
100
AcDbEntity
  8
KCAD_DIMS
  6
Continuous
 62
     7
370
    30
100
AcDbLine
 10
-259.0897036329
 20
143.93883437218
 30
0.0
 11
-256.0897036779999
 21
144.93883435717
 31
0.0
1001
Sigma
1000
DIM_NORM1
  0
LINE
  5
580
102
{ACAD_REACTORS
330
567
102
}
330
1F
100
AcDbEntity
  8
KCAD_DIMS
  6
Continuous
 62
     7
370
    30
100
AcDbLine
 10
-256.0897036779999
 20
143.93883437218
 30
0.0
 11
-196.8397035877999
 21
143.93883437218
 31
0.0
1001
Sigma
1000
DIM_NORM1
  0
POINT
  5
583
102
{ACAD_REACTORS
330
582
102
}
330
1F
100
AcDbEntity
  8
KCAD_DIMS
  6
Continuous
 62
     7
370
    15
100
AcDbPoint
 10
-72.13970668466
 20
143.93883437218
 30
0.0
1001
Sigma
1000
DIM_NORM1
  0
POINT
  5
585
102
{ACAD_REACTORS
330
582
102
}
330
1F
100
AcDbEntity
  8
KCAD_DIMS
  6
Continuous
 62
     7
370
    15
100
AcDbPoint
 10
-72.13970668466
 20
128.0469369389199
 30
0.0
1001
Sigma
1000
DIM_NORM1
  0
POINT
  5
587
102
{ACAD_REACTORS
330
582
102
}
330
1F
100
AcDbEntity
  8
KCAD_DIMS
  6
Continuous
 62
     7
370
    15
100
AcDbPoint
 10
-193.8397036329
 20
122.54693693892
 30
0.0
1001
Sigma
1000
DIM_NORM1
  0
TEXT
  5
589
102
{ACAD_REACTORS
330
582
102
}
330
1F
100
AcDbEntity
  8
KCAD_DIMS
  6
Continuous
 62
     7
370
    30
100
AcDbText
 10
-139.8212678066
 20
145.1388343721799
 30
0.0
 40
2.440799999999999
  1
121.7
  7
KCADDIMSTANDARD
100
AcDbText
1001
Sigma
1000
DIM_NORM1
  0
LINE
  5
58B
102
{ACAD_REACTORS
330
582
102
}
330
1F
100
AcDbEntity
  8
KCAD_DIMS
  6
Continuous
 62
     7
370
    30
100
AcDbLine
 10
-72.13970668466
 20
129.0469369239
 30
0.0
 11
-72.13970668466
 21
144.93883437218
 31
0.0
1001
Sigma
1000
DIM_NORM1
  0
LINE
  5
58D
102
{ACAD_REACTORS
330
582
102
}
330
1F
100
AcDbEntity
  8
KCAD_DIMS
  6
Continuous
 62
     7
370
    30
100
AcDbLine
 10
-72.13970668466
 20
143.93883437218
 30
0.0
 11
-75.1397066396
 21
143.93883437218
 31
0.0
1001
Sigma
1000
DIM_NORM1
  0
LINE
  5
58F
102
{ACAD_REACTORS
330
582
102
}
330
1F
100
AcDbEntity
  8
KCAD_DIMS
  6
Continuous
 62
     7
370
    30
100
AcDbLine
 10
-72.13970668466
 20
143.93883437218
 30
0.0
 11
-75.1397066396
 21
144.93883435717
 31
0.0
1001
Sigma
1000
DIM_NORM1
  0
LINE
  5
591
102
{ACAD_REACTORS
330
582
102
}
330
1F
100
AcDbEntity
  8
KCAD_DIMS
  6
Continuous
 62
     7
370
    30
100
AcDbLine
 10
-72.13970668466
 20
143.93883437218
 30
0.0
 11
-75.1397066396
 21
142.9388343871999
 31
0.0
1001
Sigma
1000
DIM_NORM1
  0
LINE
  5
593
102
{ACAD_REACTORS
330
582
102
}
330
1F
100
AcDbEntity
  8
KCAD_DIMS
  6
Continuous
 62
     7
370
    30
100
AcDbLine
 10
-193.8397036329
 20
143.93883437218
 30
0.0
 11
-190.839703678
 21
143.93883437218
 31
0.0
1001
Sigma
1000
DIM_NORM1
  0
LINE
  5
595
102
{ACAD_REACTORS
330
582
102
}
330
1F
100
AcDbEntity
  8
KCAD_DIMS
  6
Continuous
 62
     7
370
    30
100
AcDbLine
 10
-193.8397036329
 20
143.93883437218
 30
0.0
 11
-190.839703678
 21
142.9388343871999
 31
0.0
1001
Sigma
1000
DIM_NORM1
  0
LINE
  5
597
102
{ACAD_REACTORS
330
582
102
}
330
1F
100
AcDbEntity
  8
KCAD_DIMS
  6
Continuous
 62
     7
370
    30
100
AcDbLine
 10
-193.8397036329
 20
143.93883437218
 30
0.0
 11
-190.839703678
 21
144.93883435717
 31
0.0
1001
Sigma
1000
DIM_NORM1
  0
LINE
  5
599
102
{ACAD_REACTORS
330
582
102
}
330
1F
100
AcDbEntity
  8
KCAD_DIMS
  6
Continuous
 62
     7
370
    30
100
AcDbLine
 10
-190.839703678
 20
143.93883437218
 30
0.0
 11
-75.1397066396
 21
143.93883437218
 31
0.0
1001
Sigma
1000
DIM_NORM1
  0
POINT
  5
59C
102
{ACAD_REACTORS
330
59B
102
}
330
1F
100
AcDbEntity
  8
KCAD_DIMS
  6
Continuous
 62
     7
370
    15
100
AcDbPoint
 10
-54.60970409066
 20
143.93883437218
 30
0.0
1001
Sigma
1000
DIM_NORM1
  0
POINT
  5
59E
102
{ACAD_REACTORS
330
59B
102
}
330
1F
100
AcDbEntity
  8
KCAD_DIMS
  6
Continuous
 62
     7
370
    15
100
AcDbPoint
 10
-54.60970409066
 20
116.95318693892
 30
0.0
1001
Sigma
1000
DIM_NORM1
  0
POINT
  5
5A0
102
{ACAD_REACTORS
330
59B
102
}
330
1F
100
AcDbEntity
  8
KCAD_DIMS
  6
Continuous
 62
     7
370
    15
100
AcDbPoint
 10
-72.13970668466
 20
128.0469369389199
 30
0.0
1001
Sigma
1000
DIM_NORM1
  0
TEXT
  5
5A2
102
{ACAD_REACTORS
330
59B
102
}
330
1F
100
AcDbEntity
  8
KCAD_DIMS
  6
Continuous
 62
     7
370
    30
100
AcDbText
 10
-70.20626803548001
 20
145.1388343721799
 30
0.0
 40
2.440799999999999
  1
17.53
  7
KCADDIMSTANDARD
100
AcDbText
1001
Sigma
1000
DIM_NORM1
  0
LINE
  5
5A4
102
{ACAD_REACTORS
330
59B
102
}
330
1F
100
AcDbEntity
  8
KCAD_DIMS
  6
Continuous
 62
     7
370
    30
100
AcDbLine
 10
-54.60970409066
 20
117.9531869238999
 30
0.0
 11
-54.60970409066
 21
144.93883437218
 31
0.0
1001
Sigma
1000
DIM_NORM1
  0
LINE
  5
5A6
102
{ACAD_REACTORS
330
59B
102
}
330
1F
100
AcDbEntity
  8
KCAD_DIMS
  6
Continuous
 62
     7
370
    30
100
AcDbLine
 10
-54.60970409066
 20
143.93883437218
 30
0.0
 11
-57.60970404561
 21
143.93883437218
 31
0.0
1001
Sigma
1000
DIM_NORM1
  0
LINE
  5
5A8
102
{ACAD_REACTORS
330
59B
102
}
330
1F
100
AcDbEntity
  8
KCAD_DIMS
  6
Continuous
 62
     7
370
    30
100
AcDbLine
 10
-54.60970409066
 20
143.93883437218
 30
0.0
 11
-57.60970404561
 21
144.93883435717
 31
0.0
1001
Sigma
1000
DIM_NORM1
  0
LINE
  5
5AA
102
{ACAD_REACTORS
330
59B
102
}
330
1F
100
AcDbEntity
  8
KCAD_DIMS
  6
Continuous
 62
     7
370
    30
100
AcDbLine
 10
-54.60970409066
 20
143.93883437218
 30
0.0
 11
-57.60970404561
 21
142.9388343871999
 31
0.0
1001
Sigma
1000
DIM_NORM1
  0
LINE
  5
5AC
102
{ACAD_REACTORS
330
59B
102
}
330
1F
100
AcDbEntity
  8
KCAD_DIMS
  6
Continuous
 62
     7
370
    30
100
AcDbLine
 10
-72.13970668466
 20
143.93883437218
 30
0.0
 11
-69.13970672971
 21
143.93883437218
 31
0.0
1001
Sigma
1000
DIM_NORM1
  0
LINE
  5
5AE
102
{ACAD_REACTORS
330
59B
102
}
330
1F
100
AcDbEntity
  8
KCAD_DIMS
  6
Continuous
 62
     7
370
    30
100
AcDbLine
 10
-72.13970668466
 20
143.93883437218
 30
0.0
 11
-69.13970672971
 21
142.9388343871999
 31
0.0
1001
Sigma
1000
DIM_NORM1
  0
LINE
  5
5B0
102
{ACAD_REACTORS
330
59B
102
}
330
1F
100
AcDbEntity
  8
KCAD_DIMS
  6
Continuous
 62
     7
370
    30
100
AcDbLine
 10
-72.13970668466
 20
143.93883437218
 30
0.0
 11
-69.13970672971
 21
144.93883435717
 31
0.0
1001
Sigma
1000
DIM_NORM1
  0
LINE
  5
5B2
102
{ACAD_REACTORS
330
59B
102
}
330
1F
100
AcDbEntity
  8
KCAD_DIMS
  6
Continuous
 62
     7
370
    30
100
AcDbLine
 10
-69.13970672971
 20
143.93883437218
 30
0.0
 11
-57.60970404561
 21
143.93883437218
 31
0.0
1001
Sigma
1000
DIM_NORM1
  0
TEXT
  5
5B7
330
1F
100
AcDbEntity
  8
99
  6
Continuous
 62
     7
370
    30
100
AcDbText
 10
-105.2295097971368
 20
43.39901688026969
 30
0.0
 40
2.7
  1
取
 41
1.203333318233489
  7
KCADTEXTSTANDARD
100
AcDbText
1001
Sigma
1000

  0
OLE2FRAME
  5
5B9
330
1F
100
AcDbEntity
  8
0
  6
Continuous
 62
   134
370
    15
100
AcDbOle2Frame
 70
     2
 10
-166.8773460524754
 20
13.53026678694804
 30
0.0
 11
-128.5889317471742
 21
7.639741509209401
 31
0.0
 72
     0
 73
   205
 90
     9344
310
00550155073813DC64C09431D8207F0F2B40000000000000000010366487D812
310
60C09431D8207F0F2B40000000000000000010366487D81260C0D0CAEF65188F
310
1E4000000000000000000155073813DC64C0D0CAEF65188F1E40000000000000
310
0000000000000100000000010000010000000100000000000100000000240000
310
D0CF11E0A1B11AE1000000000000000000000000000000003E000300FEFF0900
310
0600000000000000000000000100000001000000000000000010000002000000
310
01000000FEFFFFFF0000000000000000FFFFFFFFFFFFFFFFFFFFFFFFFFFFFFFF
310
FFFFFFFFFFFFFFFFFFFFFFFFFFFFFFFFFFFFFFFFFFFFFFFFFFFFFFFFFFFFFFFF
310
FFFFFFFFFFFFFFFFFFFFFFFFFFFFFFFFFFFFFFFFFFFFFFFFFFFFFFFFFFFFFFFF
310
FFFFFFFFFFFFFFFFFFFFFFFFFFFFFFFFFFFFFFFFFFFFFFFFFFFFFFFFFFFFFFFF
310
FFFFFFFFFFFFFFFFFFFFFFFFFFFFFFFFFFFFFFFFFFFFFFFFFFFFFFFFFFFFFFFF
310
FFFFFFFFFFFFFFFFFFFFFFFFFFFFFFFFFFFFFFFFFFFFFFFFFFFFFFFFFFFFFFFF
310
FFFFFFFFFFFFFFFFFFFFFFFFFFFFFFFFFFFFFFFFFFFFFFFFFFFFFFFFFFFFFFFF
310
FFFFFFFFFFFFFFFFFFFFFFFFFFFFFFFFFFFFFFFFFFFFFFFFFFFFFFFFFFFFFFFF
310
FFFFFFFFFFFFFFFFFFFFFFFFFFFFFFFFFFFFFFFFFFFFFFFFFFFFFFFFFFFFFFFF
310
FFFFFFFFFFFFFFFFFFFFFFFFFFFFFFFFFFFFFFFFFFFFFFFFFFFFFFFFFFFFFFFF
310
FFFFFFFFFFFFFFFFFFFFFFFFFFFFFFFFFFFFFFFFFFFFFFFFFFFFFFFFFFFFFFFF
310
FFFFFFFFFFFFFFFFFFFFFFFFFFFFFFFFFFFFFFFFFFFFFFFFFFFFFFFFFFFFFFFF
310
FFFFFFFFFFFFFFFFFFFFFFFFFFFFFFFFFFFFFFFFFFFFFFFFFFFFFFFFFFFFFFFF
310
FFFFFFFFFFFFFFFFFFFFFFFFFFFFFFFFFFFFFFFFFFFFFFFFFFFFFFFFFFFFFFFF
310
FDFFFFFFFEFFFFFFFEFFFFFFFEFFFFFF05000000060000000700000008000000
310
090000000A0000000B0000000C0000000D0000000E0000000F00000010000000
310
FEFFFFFFFFFFFFFFFFFFFFFFFFFFFFFFFFFFFFFFFFFFFFFFFFFFFFFFFFFFFFFF
310
FFFFFFFFFFFFFFFFFFFFFFFFFFFFFFFFFFFFFFFFFFFFFFFFFFFFFFFFFFFFFFFF
310
FFFFFFFFFFFFFFFFFFFFFFFFFFFFFFFFFFFFFFFFFFFFFFFFFFFFFFFFFFFFFFFF
310
FFFFFFFFFFFFFFFFFFFFFFFFFFFFFFFFFFFFFFFFFFFFFFFFFFFFFFFFFFFFFFFF
310
FFFFFFFFFFFFFFFFFFFFFFFFFFFFFFFFFFFFFFFFFFFFFFFFFFFFFFFFFFFFFFFF
310
FFFFFFFFFFFFFFFFFFFFFFFFFFFFFFFFFFFFFFFFFFFFFFFFFFFFFFFFFFFFFFFF
310
FFFFFFFFFFFFFFFFFFFFFFFFFFFFFFFFFFFFFFFFFFFFFFFFFFFFFFFFFFFFFFFF
310
FFFFFFFFFFFFFFFFFFFFFFFFFFFFFFFFFFFFFFFFFFFFFFFFFFFFFFFFFFFFFFFF
310
FFFFFFFFFFFFFFFFFFFFFFFFFFFFFFFFFFFFFFFFFFFFFFFFFFFFFFFFFFFFFFFF
310
FFFFFFFFFFFFFFFFFFFFFFFFFFFFFFFFFFFFFFFFFFFFFFFFFFFFFFFFFFFFFFFF
310
FFFFFFFFFFFFFFFFFFFFFFFFFFFFFFFFFFFFFFFFFFFFFFFFFFFFFFFFFFFFFFFF
310
FFFFFFFFFFFFFFFFFFFFFFFFFFFFFFFFFFFFFFFFFFFFFFFFFFFFFFFFFFFFFFFF
310
FFFFFFFFFFFFFFFFFFFFFFFFFFFFFFFFFFFFFFFFFFFFFFFFFFFFFFFFFFFFFFFF
310
FFFFFFFFFFFFFFFFFFFFFFFFFFFFFFFFFFFFFFFFFFFFFFFFFFFFFFFFFFFFFFFF
310
52006F006F007400200045006E00740072007900000000000000000000000000
310
0000000000000000000000000000000000000000000000000000000000000000
310
16000500FFFFFFFFFFFFFFFF020000000A00030000000000C000000000000046
310
000000000000000000000000D0EDEC3CA99AC80103000000C000000000000000
310
01004F006C006500000000000000000000000000000000000000000000000000
310
0000000000000000000000000000000000000000000000000000000000000000
310
0A000200FFFFFFFFFFFFFFFFFFFFFFFF00000000000000000000000000000000
310
0000000000000000000000000000000000000000000000001400000000000000
310
010043006F006D0070004F0062006A0000000000000000000000000000000000
310
0000000000000000000000000000000000000000000000000000000000000000
310
120002010100000003000000FFFFFFFF00000000000000000000000000000000
310
0000000000000000000000000000000000000000010000004D00000000000000
310
01004F006C006500310030004E00610074006900760065000000000000000000
310
0000000000000000000000000000000000000000000000000000000000000000
310
1A000200FFFFFFFFFFFFFFFFFFFFFFFF00000000000000000000000000000000
310
0000000000000000000000000000000000000000040000000419000000000000
310
FEFFFFFF02000000FEFFFFFFFFFFFFFFFFFFFFFFFFFFFFFFFFFFFFFFFFFFFFFF
310
FFFFFFFFFFFFFFFFFFFFFFFFFFFFFFFFFFFFFFFFFFFFFFFFFFFFFFFFFFFFFFFF
310
FFFFFFFFFFFFFFFFFFFFFFFFFFFFFFFFFFFFFFFFFFFFFFFFFFFFFFFFFFFFFFFF
310
FFFFFFFFFFFFFFFFFFFFFFFFFFFFFFFFFFFFFFFFFFFFFFFFFFFFFFFFFFFFFFFF
310
FFFFFFFFFFFFFFFFFFFFFFFFFFFFFFFFFFFFFFFFFFFFFFFFFFFFFFFFFFFFFFFF
310
FFFFFFFFFFFFFFFFFFFFFFFFFFFFFFFFFFFFFFFFFFFFFFFFFFFFFFFFFFFFFFFF
310
FFFFFFFFFFFFFFFFFFFFFFFFFFFFFFFFFFFFFFFFFFFFFFFFFFFFFFFFFFFFFFFF
310
FFFFFFFFFFFFFFFFFFFFFFFFFFFFFFFFFFFFFFFFFFFFFFFFFFFFFFFFFFFFFFFF
310
FFFFFFFFFFFFFFFFFFFFFFFFFFFFFFFFFFFFFFFFFFFFFFFFFFFFFFFFFFFFFFFF
310
FFFFFFFFFFFFFFFFFFFFFFFFFFFFFFFFFFFFFFFFFFFFFFFFFFFFFFFFFFFFFFFF
310
FFFFFFFFFFFFFFFFFFFFFFFFFFFFFFFFFFFFFFFFFFFFFFFFFFFFFFFFFFFFFFFF
310
FFFFFFFFFFFFFFFFFFFFFFFFFFFFFFFFFFFFFFFFFFFFFFFFFFFFFFFFFFFFFFFF
310
FFFFFFFFFFFFFFFFFFFFFFFFFFFFFFFFFFFFFFFFFFFFFFFFFFFFFFFFFFFFFFFF
310
FFFFFFFFFFFFFFFFFFFFFFFFFFFFFFFFFFFFFFFFFFFFFFFFFFFFFFFFFFFFFFFF
310
FFFFFFFFFFFFFFFFFFFFFFFFFFFFFFFFFFFFFFFFFFFFFFFFFFFFFFFFFFFFFFFF
310
FFFFFFFFFFFFFFFFFFFFFFFFFFFFFFFFFFFFFFFFFFFFFFFFFFFFFFFFFFFFFFFF
310
0100000200000000000000000000000000000000000000000000000000000000
310
0000000000000000000000000000000000000000000000000000000000000000
310
0100FEFF030A0000FFFFFFFF0A00030000000000C00000000000004607000000
310
5042727573680007000000504272757368000700000050427275736800F439B2
310
7100000000000000000000000000000000000000000000000000000000000000
310
0000000000000000000000000000000000000000000000000000000000000000
310
0000000000000000000000000000000000000000000000000000000000000000
310
0000000000000000000000000000000000000000000000000000000000000000
310
0000000000000000000000000000000000000000000000000000000000000000
310
0000000000000000000000000000000000000000000000000000000000000000
310
0000000000000000000000000000000000000000000000000000000000000000
310
0000000000000000000000000000000000000000000000000000000000000000
310
0000000000000000000000000000000000000000000000000000000000000000
310
0000000000000000000000000000000000000000000000000000000000000000
310
0000000000000000000000000000000000000000000000000000000000000000
310
0000000000000000000000000000000000000000000000000000000000000000
310
00190000424DF618000000000000360000002800000075000000120000000100
310
180000000000C018000000000000000000000000000000000000FFFFFFFFFFFF
310
FFFFFFFFFFFFFFFFFFFFFFFFFFFFFFFFFFFF6666660808081212120C0C0C3535
310
35FFFFFFFFFFFFFFFFFFFFFFFFFFFFFFFFFFFFFFFFFFFFFFFFFFFFFFC0C0C045
310
4545151515121212121212121212131313141414151515151515161616181818
310
1818181919191919191E1E1E484848B0B0B0FFFFFFFFFFFFFFFFFFD4D4D42424
310
242424242424242E2E2EF1F1F1FFFFFFFFFFFFFFFFFFFFFFFFFFFFFFFFFFFFFF
310
FFFFDEDEDE4B4B4B3333333838383A3A3A3838382C2C2C5E5E5EEBEBEBFFFFFF
310
F1F1F14949494242424444444D4D4DF5F5F5FFFFFFA5A5A54343435050504848
310
48999999FFFFFFFFFFFFFFFFFFFFFFFFFFFFFFFFFFFFFFFFFFFFFFFFFFFFFFFF
310
FFFFFFFFFFBCBCBC6666667171716C6C6C9A9A9AFFFFFFFFFFFFFFFFFFE9E9E9
310
9393938181818080808282828484848484848585858888888888888989898B8B
310
8B8C8C8C8D8D8D8F8F8F90909090909092929291919199999900FFFFFFFFFFFF
310
FFFFFFFFFFFFFFFFFFFFFFFFFFFFFFFFFFFF5D5D5D0000000202020000002727
310
27FFFFFFFFFFFFFFFFFFFFFFFFFFFFFFFFFFFFFFFFFFFFFFFFA6A6A600000000
310
0000020202030303020202030303020202020202020202020202020202020202
310
0202020202020101010000000000000000006B6B6BFFFFFFFFFFFFCECECE0000
310
00000000000000080808EDEDEDFFFFFFFFFFFFFFFFFFFFFFFFFFFFFFFFFFFF9B
310
9B9B000000000000000000000000000000000000838383FFFFFFFFFFFFFFFFFF
310
ECECEC060606000000000000050505EEEEEEFFFFFF7B7B7B0000000000000000
310
00656565FFFFFFFFFFFFFFFFFFFFFFFFFFFFFFFFFFFFFFFFFFFFFFFFFFFFFFFF
310
FFFFFFFFFF8888880000000000000000003F3F3FFFFFFFFFFFFFC1C1C1000000
310
0000000000000000000000000000000000000000000000000000000000000000
310
0000000000000000000000000000000000000000000003030300FFFFFFFFFFFF
310
FFFFFFFFFFFFFFFFFFFFFFFFFFFFFFFFFFFF5E5E5E0000000404040000002525
310
25FFFFFFFFFFFFFFFFFFFFFFFFFFFFFFFFFFFFFFFFFFFEFEFE13131300000005
310
0505030303000000000000000000000000000000000000000000000000000000
310
000000000000000000000000050505010101000000CDCDCDFFFFFFCECECE0303
310
030202020101010B0B0BEDEDEDFFFFFFFFFFFFFFFFFFFFFFFFF7F7F759595900
310
0000000000050505000000000000383838D8D8D8FFFFFFFFFFFFFFFFFFFFFFFF
310
EDEDED0B0B0B0101010101010B0B0BEFEFEFFFFFFF7F7F7F0000000505050000
310
00686868FFFFFFFFFFFFFFFFFFFFFFFFFFFFFFFFFFFFFFFFFFFFFFFFFFFFFFFF
310
FFFFFFFFFF8D8D8D000000040404000000464646FFFFFFFFFFFF2E2E2E000000
310
0404040404040000000000000000000000000000000000000000000000000000
310
0000000000000000000000000003030305050503030312121200FFFFFFFFFFFF
310
FFFFFFFFFFFFFFFFFFFFFFFFFFFFFFFFFFFF5F5F5F0000000505050000002424
310
24FFFFFFFFFFFFFFFFFFFFFFFFFFFFFFFFFFFFFFFFFFD9D9D900000003030304
310
04040000007070709D9D9D9797979797979696969393939292928F8F8F8C8C8C
310
8A8A8A8B8B8B7E7E7E131313010101040404000000858585FFFFFFCECECE0404
310
040202020101010C0C0CEDEDEDFFFFFFFFFFFFFFFFFFCBCBCB23232300000003
310
03030404040000000606068D8D8DFFFFFFFFFFFFFFFFFFFFFFFFFFFFFFFFFFFF
310
EDEDED0C0C0C0101010101010B0B0BEFEFEFFFFFFF7F7F7F0000000505050000
310
00686868FFFFFFFFFFFFFFFFFFFFFFFFFFFFFFFFFFFFFFFFFFFFFFFFFFFFFFFF
310
FFFFFFFFFF8D8D8D000000050505000000444444FFFFFFFEFEFE050505010101
310
0404040101015A5A5A6666666464646464646464646464646363636262626262
310
626060606060606060605E5E5E00000004040403030312121200FFFFFFFFFFFF
310
FFFFFFFFFFFFFFFFFFFFFFFFFFFFFFFFFFFF5F5F5F0000000404040000002323
310
23FFFFFFFFFFFFFFFFFFFFFFFFFFFFFFFFFFFFFFFFFFD2D2D200000003030302
310
0202060606FFFFFFFFFFFFFFFFFFFFFFFFFFFFFFFFFFFFFFFFFFFFFFFFFFFFFF
310
FFFFFFFFFFFFFFFFFF666666000000040404000000808080FFFFFFCECECE0404
310
040202020101010B0B0BEDEDEDFFFFFFFFFFFF8C8C8C03030300000003030300
310
00000000003E3E3ED9D9D9FFFFFFFFFFFFFFFFFFFFFFFFFFFFFFFFFFFFFFFFFF
310
EDEDED0C0C0C0101010101010B0B0BEFEFEFFFFFFF7F7F7F0000000505050000
310
00676767FFFFFFFFFFFFFFFFFFFFFFFFFFFFFFFFFFFFFFFFFFFFFFFFFFFFFFFF
310
FFFFFFFFFF8D8D8D000000040404000000444444FFFFFFFFFFFF070707010101
310
030303000000F7F7F7FFFFFFFFFFFFFFFFFFFFFFFFFFFFFFFFFFFFFFFFFFFFFF
310
FFFFFFFFFFFFFFFFFFFFFFFFFF00000003030303030311111100FFFFFFFFFFFF
310
FFFFFFFFFFFFFFFFFFFFFFFFFFFFFFFFFFFF6161610000000404040000002222
310
22FFFFFFFFFFFFFFFFFFFFFFFFFFFFFFFFFFFFFFFFFFD3D3D300000002020202
310
0202070707FCFCFCFFFFFFFFFFFFFFFFFFFFFFFFFFFFFFFFFFFFFFFFFFFFFFFF
310
FFFFFFFFFFFFFFFFFF696969000000040404000000818181FFFFFFCECECE0404
310
040202020101010D0D0DFAFAFAEEEEEE4D4D4D0000000000000303030000000D
310
0D0D949494FFFFFFFFFFFFFFFFFFFFFFFFFFFFFFFFFFFFFFFFFFFFFFFFFFFFFF
310
EDEDED0C0C0C0101010101010B0B0BEFEFEFFFFFFF7F7F7F0000000505050000
310
00676767FFFFFFFFFFFFFFFFFFFFFFFFFFFFFFFFFFFFFFFFFFFFFFFFFFFFFFFF
310
FFFFFFFFFF8D8D8D000000040404000000434343FFFFFFFEFEFE050505010101
310
030303010101A9A9A9C1C1C1BEBEBEC1C1C1C1C1C1C2C2C2C3C3C3C4C4C4C5C5
310
C5C5C5C5C8C8C8CACACACCCCCC00000003030303030311111100FFFFFFFFFFFF
310
FFFFFFFFFFFFFFFFFFFFFFFFFFFFFFFFFFFF6161610000000404040000002121
310
21FFFFFFFFFFFFFFFFFFFFFFFFFFFFFFFFFFFFFFFFFFD5D5D500000002020202
310
0202060606FCFCFCFFFFFFFFFFFFFFFFFFFFFFFFFFFFFFFFFFFFFFFFFFFFFFFF
310
FFFFFFFFFFFFFFFFFF686868000000050505000000818181FFFFFFCCCCCC0303
310
030202020202020D0D0D9898981D1D1D000000030303040404010101545454E1
310
E1E1FFFFFFFFFFFFFFFFFFFFFFFFFFFFFFFFFFFFFFFFFFFFFFFFFFFFFFFFFFFF
310
EDEDED0C0C0C0101010101010B0B0BEFEFEFFFFFFF7F7F7F0000000505050000
310
00666666FFFFFFFFFFFFFFFFFFFFFFFFFFFFFFFFFFFFFFFFFFFFFFFFFFFFFFFF
310
FFFFFFFFFF8D8D8D000000040404000000424242FFFFFFFFFFFF1E1E1E000000
310
0505050303030000000000000000000000000000000101010101010101010202
310
0202020203030304040405050502020204040403030311111100FFFFFFFFFFFF
310
FFFFFFFFFFFFFFFFFFFFFFFFFFFFFFFFFFFF6363630000000505050000001F1F
310
1FFFFFFFFFFFFFFFFFFFFFFFFFFFFFFFFEFEFEFFFFFFD5D5D500000003030302
310
0202050505FCFCFCFFFFFFFFFFFFFFFFFFFFFFFFFFFFFFFFFFFFFFFFFFFFFFFF
310
FFFFFFFFFFFFFFFFFF686868000000040404000000818181FFFFFFCDCDCD0303
310
030202020303030707074545450000000000000404040303030303039E9E9EFF
310
FFFFFFFFFFFFFFFFFFFFFFFFFFFFFFFFFFFFFFFFFFFFFFFFFFFFFFFFFFFFFFFF
310
EDEDED0C0C0C0101010101010B0B0BEEEEEEFFFFFF7F7F7F0000000505050000
310
00666666FFFFFFFFFFFFFFFFFFFFFFFFFFFFFFFFFFFFFFFFFFFFFFFFFFFFFFFF
310
FFFFFFFFFF8D8D8D000000040404000000434343FFFFFFFFFFFF9C9C9C000000
310
0000000000000000000000000000000000000000000000000000000000000000
310
0000000000000000000000000004040405050503030311111100FFFFFFFFFFFF
310
FFFFFFFFFFFFFFFFFFFFFFFFFFFFFFFFFFFF6262620000000505050000002121
310
21FFFFFFFFFFFFFFFFFFFFFFFFFFFFFFFEFEFEFFFFFFD5D5D500000002020201
310
0101070707FDFDFDFFFFFFFFFFFFFFFFFFFFFFFFFFFFFFFFFFFFFFFFFFFFFFFF
310
FFFFFFFFFFFFFFFFFF696969000000050505000000818181FFFFFFCCCCCC0303
310
030202020101010D0D0DF6F6F6B3B3B319191900000003030302020200000057
310
5757E8E8E8FFFFFFFFFFFFFFFFFFFFFFFFFFFFFFFFFFFFFFFFFFFFFFFFFFFFFF
310
EDEDED0C0C0C0101010101010C0C0CEDEDEDFFFFFF7F7F7F0000000505050000
310
00666666FFFFFFFFFFFFFFFFFFFFFFFFFFFFFFFFFFFFFFFFFFFFFFFFFFFFFFFF
310
FFFFFFFFFF8D8D8D000000040404000000434343FFFFFFFFFFFFFFFFFFA8A8A8
310
3C3C3C2E2E2E2C2C2C2B2B2B2A2A2A2A2A2A2929292828282727272727272626
310
2626262625252525252524242400000004040403030311111100FFFFFFFFFFFF
310
FFFFFFFFFFFFFFFFFFFFFFFFFFFFFFFFFFFF6161610000000505050000002121
310
21FFFFFFFFFFFFFFFFFFFFFFFFFFFFFFFFFFFFFFFFFFD2D2D200000003030302
310
0202060606FFFFFFFFFFFFFFFFFFFFFFFFFFFFFFFFFFFFFFFFFFFFFFFFFFFFFF
310
FFFFFFFFFFFFFFFFFF666666000000050505000000808080FFFFFFCCCCCC0202
310
020202020101010B0B0BECECECFFFFFFE5E5E54D4D4D00000000000003030300
310
00001B1B1BABABABFFFFFFFFFFFFFFFFFFFFFFFFFFFFFFFFFFFFFFFFFFFFFFFF
310
EDEDED0C0C0C0101010101010B0B0BEEEEEEFFFFFF7F7F7F0000000505050000
310
00696969FFFFFFFFFFFFFFFFFFFFFFFFFFFFFFFFFFFFFFFFFFFFFFFFFFFFFFFF
310
FFFFFFFFFF909090000000040404000000414141FFFFFFFFFFFFFFFFFFFFFFFF
310
FFFFFFFDFDFDFAFAFAF9F9F9F9F9F9F7F7F7F7F7F7F7F7F7F5F5F5F5F5F5F4F4
310
F4F4F4F4F2F2F2F4F4F4F7F7F700000004040403030311111100FFFFFFFFFFFF
310
FFFFFFFFFFFFFFFFFFFFFFFFFFFFFFFFFFFF5F5F5F0000000505050000002222
310
22FFFFFFFFFFFFFFFFFFFFFFFFFFFFFFFFFFFFFFFFFFDBDBDB00000003030304
310
04040000005858588585858383838585858686868989898989898D8D8D8E8E8E
310
919191949494898989161616010101040404000000828282FFFFFFCCCCCC0303
310
030202020101010B0B0BECECECFFFFFFFFFFFFFFFFFF8F8F8F0A0A0A00000003
310
0303000000000000636363EDEDEDFFFFFFFFFFFFFFFFFFFFFFFFFFFFFFFFFFFF
310
ECECEC0C0C0C0101010101010B0B0BEFEFEFFFFFFF7F7F7F0000000505050000
310
00555555D8D8D8D1D1D1D1D1D1D2D2D2D2D2D2D2D2D2D4D4D4D4D4D4D4D4D4D5
310
D5D5DCDCDC565656000000050505000000424242FFFFFFFFFFFFFFFFFFFFFFFF
310
FFFFFFFFFFFFFFFFFFFFFFFFFFFFFFFFFFFFFFFFFFFFFFFFFFFFFFFFFFFFFFFF
310
FFFFFFFFFFFFFFFFFFFFFDFDFD00000003030303030310101000FFFFFFFFFFFF
310
FFFFFFFFFFFFFFFFFFFFFFFFFFFFFFFFFFFF5F5F5F0000000505050000002121
310
21FFFFFFFFFFFFFFFFFFFFFFFFFFFFFFFFFFFFFFFFFFFFFFFF1D1D1D00000004
310
0404040404000000000000000000000000000000000000000000000000000000
310
000000000000000000000000050505020202000000BFBFBFFFFFFFCBCBCB0202
310
020202020101010C0C0CECECECFFFFFFFFFFFFFFFFFFFFFFFFD2D2D235353500
310
00000101010202020000001F1F1FB5B5B5FFFFFFFFFFFFFFFFFFFFFFFFFFFFFF
310
ECECEC0C0C0C0101010101010B0B0BEFEFEFFFFFFF7F7F7F0000000505050404
310
0400000000000000000000000000000000000000000000000000000000000000
310
00000000000000000404040404040000006E6E6EFFFFFFFFFFFF7C7C7C464646
310
4D4D4D4D4D4D4D4D4D4D4D4D4D4D4D4D4D4D4D4D4D4D4D4D4C4C4C4D4D4D4E4E
310
4E4F4F4F50505055555530303000000004040401010115151500FFFFFFFFFFFF
310
FFFFFFFFFFFFFFFFFFFFFFFFFFFFFFFFFFFF6060600000000505050000001F1F
310
1FFFFFFFFFFFFFFFFFFFFFFFFFFFFFFFFFFFFFFFFFFFFFFFFFB3B3B300000000
310
0000000000000000000000000000000000000000000000000000000000000000
310
000000000000000000000000000000000000585858FFFFFFFFFFFFCCCCCC0303
310
030202020101010B0B0BEAEAEAFFFFFFFFFFFFFFFFFFFFFFFFFFFFFFFEFEFE77
310
7777010101000000010101000000000000656565F0F0F0FFFFFFFFFFFFFFFFFF
310
EDEDED0A0A0A0000000000000A0A0AEDEDEDFFFFFF7E7E7E0000000303030303
310
0303030302020202020202020202020202020202020202020202020202020202
310
0202020202030303020202000000040404DADADAFFFFFFFFFFFF3F3F3F000000
310
0000000000000000000000000000000000000000000000000000000000000000
310
0000000000000000000000000004040402020200000082828200F1F1F1F1F1F1
310
F1F1F1F1F1F1F2F2F2F2F2F2F3F3F3FFFFFF5F5F5F0000000505050000001E1E
310
1EFFFFFFFCFCFCFCFCFCFBFBFBFDFDFDFDFDFDFEFEFEFEFEFEFFFFFFC6C6C646
310
4646131313131313131313131313121212121212121212111111111111111111
310
1010101010101010100F0F0F1C1C1C848484FEFEFEFFFFFFFFFFFFCDCDCD0404
310
040202020101010B0B0BEBEBEBFFFFFFFFFFFFFFFFFFFFFFFFFFFFFFFFFFFFFF
310
FFFFC0C0C0222222030303060606030303000000222222BCBCBCFFFFFFFFFFFF
310
ECECEC0D0D0D0000000000000B0B0BECECECFFFFFF7E7E7E0000000000000000
310
0000000000000000000000000000000000000000000000000000000000000000
310
00000000000000000000001C1C1CBBBBBBFFFFFFFFFFFFFFFFFF3F3F3F000000
310
0000000000000000000000000000000000000000000000000000000000000000
310
000000000000000000000000000000000000004F4F4FFFFFFF00111111101010
310
1010101111111313131313131515151919190909090303030505050404040404
310
043030302E2E2E2F2F2F3131313333333333333636362F2F2F7F7F7FFFFFFFFF
310
FFFFFFFFFFFDFDFDFCFCFCFBFBFBFAFAFAF8F8F8F7F7F7F7F7F7F6F6F6F5F5F5
310
F3F3F3F3F3F3F0F0F0F4F4F4FFFFFFFFFFFFFFFFFFFFFFFFFFFFFFCECECE0404
310
040303030000000B0B0BEBEBEBFFFFFFFFFFFFFFFFFFFFFFFFFFFFFFFFFFFFFF
310
FFFFFFFFFFF5F5F5D3D3D3D5D5D5D3D3D3D1D1D1C6C6C6C9C9C9FCFCFCFFFFFF
310
FFFFFFD5D5D5D4D4D4D4D4D4D1D1D1FDFDFDFFFFFFDFDFDFBBBBBBBDBDBDBDBD
310
BDBBBBBBB9B9B9B8B8B8B5B5B5B4B4B4B3B3B3B1B1B1AFAFAFAEAEAEADADADAB
310
ABABA9A9A9A9A9A9C4C4C4FDFDFDFFFFFFFFFFFFFFFFFFFFFFFFB8B8B89B9B9B
310
9D9D9D9B9B9B9B9B9B9999999999999999999999999999999999999999999999
310
999A9A9A989898979797979797989898CCCCCCFFFFFFFFFFFF00010101000000
310
0000000000000000000000000000000000000303030505050505050404040404
310
04000000000000000000000000000000000000000000000000555555FFFFFFFF
310
FFFFFFFFFFFFFFFFFFFFFFFFFFFFFFFFFFFFFFFFFFFFFFFFFFFFFFFFFFFFFFFF
310
FFFFFFFFFFFFFFFFFFFFFFFFFFFFFFFFFFFFFFFFFFFFFFFFFFFFFFCECECE0404
310
040101010101010B0B0BEBEBEBFFFFFFFFFFFFFFFFFFFFFFFFFFFFFFFFFFFFFF
310
FFFFFFFFFFFFFFFFFFFFFFFFFFFFFFFFFFFFFFFFFFFFFFFFFFFFFFFFFFFFFFFF
310
F5F5F57979797272727373737A7A7AF6F6F6FFFFFFFFFFFFFFFFFFFFFFFFFFFF
310
FFFFFFFFFFFFFFFFFFFFFFFFFFFFFFFFFFFFFFFFFFFFFFFFFFFFFFFFFFFFFFFF
310
FFFFFFFFFFFFFFFFFFFFFFFFFFFFFFFFFFFFFFFFFFFFFFFFFFFFFFFFFFFFFFFF
310
FFFFFFFFFFFFFFFFFFFFFFFFFFFFFFFFFFFFFFFFFFFFFFFFFFFFFFFFFFFFFFFF
310
FFFFFFFFFFFFFFFFFFFFFFFFFFFFFFFFFFFFFFFFFFFFFFFFFF00030303020202
310
0303030202020303030303030303030303030303030303030303030303030303
310
030303030303030303030303030303030303030303030000005A5A5AFFFFFFFF
310
FFFFFFFFFFFFFFFFFFFFFFFFFFFFFFFFFFFFFFFFFFFFFFFFFFFFFFFFFFFFFFFF
310
FFFFFFFFFFFFFFFFFFFFFFFFFFFFFFFFFFFFFFFFFFFFFFFFFFFFFFCECECE0303
310
030202020101010A0A0AEBEBEBFFFFFFFFFFFFFFFFFFFFFFFFFFFFFFFFFFFFFF
310
FFFFFFFFFFFFFFFFFFFFFFFFFFFFFFFFFFFFFFFFFFFFFFFFFFFFFFFFFFFFFFFF
310
EDEDED000000000000000000000000EDEDEDFFFFFFFFFFFFFFFFFFFFFFFFFFFF
310
FFFFFFFFFFFFFFFFFFFFFFFFFFFFFFFFFFFFFFFFFFFFFFFFFFFFFFFFFFFFFFFF
310
FFFFFFFFFFFFFFFFFFFFFFFFFFFFFFFFFFFFFFFFFFFFFFFFFFFFFFFFFFFFFFFF
310
FFFFFFFFFFFFFFFFFFFFFFFFFFFFFFFFFFFFFFFFFFFFFFFFFFFFFFFFFFFFFFFF
310
FFFFFFFFFFFFFFFFFFFFFFFFFFFFFFFFFFFFFFFFFFFFFFFFFF00141414121212
310
1212121212121111111212121111111111111111111111111111111010101010
310
101010100F0F0F1010101010100F0F0F0F0F0F0F0F0F030303646464FFFFFFFF
310
FFFFFFFFFFFFFFFFFFFFFFFFFFFFFFFFFFFFFFFFFFFFFFFFFFFFFFFFFFFFFFFF
310
FFFFFFFFFFFFFFFFFFFFFFFFFFFFFFFFFFFFFFFFFFFFFFFFFFFFFFD0D0D00A0A
310
0A070707060606111111ECECECFFFFFFFFFFFFFFFFFFFFFFFFFFFFFFFFFFFFFF
310
FFFFFFFFFFFFFFFFFFFFFFFFFFFFFFFFFFFFFFFFFFFFFFFFFFFFFFFFFFFFFFFF
310
F0F0F00E0E0E0000000101010C0C0CEFEFEFFFFFFFFFFFFFFFFFFFFFFFFFFFFF
310
FFFFFFFFFFFFFFFFFFFFFFFFFFFFFFFFFFFFFFFFFFFFFFFFFFFFFFFFFFFFFFFF
310
FFFFFFFFFFFFFFFFFFFFFFFFFFFFFFFFFFFFFFFFFFFFFFFFFFFFFFFFFFFFFFFF
310
FFFFFFFFFFFFFFFFFFFFFFFFFFFFFFFFFFFFFFFFFFFFFFFFFFFFFFFFFFFFFFFF
310
FFFFFFFFFFFFFFFFFFFFFFFFFFFFFFFFFFFFFFFFFFFFFFFFFF00000000000000
310
0000000000000000000000000000000000000000000000000000000000000000
310
0000000000000000000000000000000000000000000000000000000000000000
310
0000000000000000000000000000000000000000000000000000000000000000
310
0000000000000000000000000000000000000000000000000000000000000000
310
0000000000000000000000000000000000000000000000000000000000000000
310
0000000000000000000000000000000000000000000000000000000000000000
310
0000000000000000000000000000000000000000000000000000000000000000
310
0000000000000000000000000000000000000000000000000000000000000000
  1
OLE
  0
TEXT
  5
5BA
330
1F
100
AcDbEntity
  8
99
  6
Continuous
 62
     7
370
    30
100
AcDbText
 10
-96.51829412393056
 20
9.530039877518114
 30
0.0
 40
4.0
  1
株式会社トキナー
  7
KCADTEXTSTANDARD
100
AcDbText
1001
Sigma
1000

  0
TEXT
  5
5BB
330
1F
100
AcDbEntity
  8
99
  6
Continuous
 62
     7
370
    30
100
AcDbText
 10
-49.00201233639719
 20
9.628747126484662
 30
0.0
 40
4.0
  1
Tokina Co.,Ltd.
 41
0.7000000000000001
  7
KCADTEXTSTANDARD
100
AcDbText
1001
Sigma
1000

  0
TEXT
  5
601
330
1F
100
AcDbEntity
  8
99
  6
Continuous
 62
     7
370
    30
100
AcDbText
 10
-118.9327263543026
 20
21.55552491032218
 30
0.0
 40
2.5
  1
図番登録
 41
0.9
  7
KCADTEXTSTANDARD
100
AcDbText
1001
Sigma
1000

  0
TEXT
  5
602
330
1F
100
AcDbEntity
  8
99
  6
Continuous
 62
     7
370
    30
100
AcDbText
 10
-118.50206474502
 20
16.31163651998807
 30
0.0
 40
2.0
  1
2008.5.15
 41
0.7000000000000001
  7
KCADTEXTSTANDARD
100
AcDbText
1001
Sigma
1000

  0
ENDSEC
  0
SECTION
  2
OBJECTS
  0
DICTIONARY
  5
C
330
0
100
AcDbDictionary
281
     1
  3
ACAD_COLOR
350
6C
  3
ACAD_GROUP
350
D
  3
ACAD_LAYOUT
350
1A
  3
ACAD_MATERIAL
350
6B
  3
ACAD_MLINESTYLE
350
17
  3
ACAD_PLOTSETTINGS
350
19
  3
ACAD_PLOTSTYLENAME
350
E
  3
ACAD_TABLESTYLE
350
92
  3
ACDBHEADERROUNDTRIPXREC
350
6C9
  3
AcDbVariableDictionary
350
59
  3
DWGPROPS
350
6CC
  3
KCADFRAMEINFO
350
2A7
  0
DICTIONARY
  5
6C
102
{ACAD_REACTORS
330
C
102
}
330
C
100
AcDbDictionary
281
     1
  0
DICTIONARY
  5
D
102
{ACAD_REACTORS
330
C
102
}
330
C
100
AcDbDictionary
281
     1
  3
*A1
350
428
  3
*A10
350
499
  3
*A11
350
4B4
  3
*A12
350
4CF
  3
*A13
350
4EA
  3
*A14
350
509
  3
*A15
350
522
  3
*A16
350
53B
  3
*A17
350
552
  3
*A18
350
567
  3
*A2
350
582
  3
*A3
350
59B
  3
*A4
350
431
  3
*A5
350
43A
  3
*A6
350
443
  3
*A7
350
44C
  3
*A8
350
461
  3
*A9
350
47A
  0
DICTIONARY
  5
1A
102
{ACAD_REACTORS
330
C
102
}
330
C
100
AcDbDictionary
281
     1
  3
Model
350
22
  3
ﾚｲｱｳﾄ1
350
22F
  0
DICTIONARY
  5
6B
102
{ACAD_REACTORS
330
C
102
}
330
C
100
AcDbDictionary
281
     1
  0
DICTIONARY
  5
17
102
{ACAD_REACTORS
330
C
102
}
330
C
100
AcDbDictionary
281
     1
  3
Standard
350
18
  0
DICTIONARY
  5
19
102
{ACAD_REACTORS
330
C
102
}
330
C
100
AcDbDictionary
281
     1
  0
ACDBDICTIONARYWDFLT
  5
E
102
{ACAD_REACTORS
330
C
102
}
330
C
100
AcDbDictionary
281
     1
  3
Normal
350
F
100
AcDbDictionaryWithDefault
340
F
  0
DICTIONARY
  5
92
102
{ACAD_REACTORS
330
C
102
}
330
C
100
AcDbDictionary
281
     1
  0
DICTIONARY
  5
6C9
102
{ACAD_REACTORS
330
C
102
}
330
C
100
AcDbDictionary
281
     1
  3
COLORDICT
350
6CA
  3
MATERIALDICT
350
6CB
  0
DICTIONARY
  5
59
102
{ACAD_REACTORS
330
C
102
}
330
C
100
AcDbDictionary
281
     1
  3
DIMASSOC
350
6C8
  0
XRECORD
  5
6CC
102
{ACAD_REACTORS
330
C
102
}
330
C
100
AcDbXrecord
280
     1
  1
DWGPROPS COOKIE
  2

  3

  4

  6

  7

  8
fottrem
  9

300
=
301
=
302
=
303
=
304
=
305
=
306
=
307
=
308
=
309
=
 40
0.0
 41
2453353.717125822
 42
2453294.207984664
  1

 90
        0
  0
XRECORD
  5
2A7
102
{ACAD_REACTORS
330
C
102
}
330
C
100
AcDbXrecord
280
     1
  1
A3
 40
420.0
 40
297.0
 90
        1
 90
        1
  0
GROUP
  5
428
102
{ACAD_REACTORS
330
D
102
}
330
D
100
AcDbGroup
300
group from kcad family
 70
     1
 71
     1
340
429
340
42B
340
42D
340
42F
  0
GROUP
  5
499
102
{ACAD_REACTORS
330
D
102
}
330
D
100
AcDbGroup
300
group from kcad family
 70
     1
 71
     1
340
49A
340
49C
340
49E
340
4A0
340
4A2
340
4A4
340
4A6
340
4A8
340
4AA
340
4AC
340
4AE
340
4B0
340
4B2
  0
GROUP
  5
4B4
102
{ACAD_REACTORS
330
D
102
}
330
D
100
AcDbGroup
300
group from kcad family
 70
     1
 71
     1
340
4B5
340
4B7
340
4B9
340
4BB
340
4BD
340
4BF
340
4C1
340
4C3
340
4C5
340
4C7
340
4C9
340
4CB
340
4CD
  0
GROUP
  5
4CF
102
{ACAD_REACTORS
330
D
102
}
330
D
100
AcDbGroup
300
group from kcad family
 70
     1
 71
     1
340
4D0
340
4D2
340
4D4
340
4D6
340
4D8
340
4DA
340
4DC
340
4DE
340
4E0
340
4E2
340
4E4
340
4E6
340
4E8
  0
GROUP
  5
4EA
102
{ACAD_REACTORS
330
D
102
}
330
D
100
AcDbGroup
300
group from kcad family
 70
     1
 71
     1
340
4EB
340
4ED
340
4EF
340
4F1
340
4F3
340
4F5
340
4F7
340
4F9
340
4FB
340
4FD
340
4FF
340
501
340
503
340
505
340
507
  0
GROUP
  5
509
102
{ACAD_REACTORS
330
D
102
}
330
D
100
AcDbGroup
300
group from kcad family
 70
     1
 71
     1
340
50A
340
50C
340
50E
340
510
340
512
340
514
340
516
340
518
340
51A
340
51C
340
51E
340
520
  0
GROUP
  5
522
102
{ACAD_REACTORS
330
D
102
}
330
D
100
AcDbGroup
300
group from kcad family
 70
     1
 71
     1
340
523
340
525
340
527
340
529
340
52B
340
52D
340
52F
340
531
340
533
340
535
340
537
340
539
  0
GROUP
  5
53B
102
{ACAD_REACTORS
330
D
102
}
330
D
100
AcDbGroup
300
group from kcad family
 70
     1
 71
     1
340
53C
340
53E
340
540
340
542
340
544
340
546
340
548
340
54A
340
54C
340
54E
340
550
  0
GROUP
  5
552
102
{ACAD_REACTORS
330
D
102
}
330
D
100
AcDbGroup
300
group from kcad family
 70
     1
 71
     1
340
553
340
555
340
557
340
559
340
55B
340
55D
340
55F
340
561
340
563
340
565
  0
GROUP
  5
567
102
{ACAD_REACTORS
330
D
102
}
330
D
100
AcDbGroup
300
group from kcad family
 70
     1
 71
     1
340
568
340
56A
340
56C
340
56E
340
570
340
572
340
574
340
576
340
578
340
57A
340
57C
340
57E
340
580
  0
GROUP
  5
582
102
{ACAD_REACTORS
330
D
102
}
330
D
100
AcDbGroup
300
group from kcad family
 70
     1
 71
     1
340
583
340
585
340
587
340
589
340
58B
340
58D
340
58F
340
591
340
593
340
595
340
597
340
599
  0
GROUP
  5
59B
102
{ACAD_REACTORS
330
D
102
}
330
D
100
AcDbGroup
300
group from kcad family
 70
     1
 71
     1
340
59C
340
59E
340
5A0
340
5A2
340
5A4
340
5A6
340
5A8
340
5AA
340
5AC
340
5AE
340
5B0
340
5B2
  0
GROUP
  5
431
102
{ACAD_REACTORS
330
D
102
}
330
D
100
AcDbGroup
300
group from kcad family
 70
     1
 71
     1
340
432
340
434
340
436
340
438
  0
GROUP
  5
43A
102
{ACAD_REACTORS
330
D
102
}
330
D
100
AcDbGroup
300
group from kcad family
 70
     1
 71
     1
340
43B
340
43D
340
43F
340
441
  0
GROUP
  5
443
102
{ACAD_REACTORS
330
D
102
}
330
D
100
AcDbGroup
300
group from kcad family
 70
     1
 71
     1
340
444
340
446
340
448
340
44A
  0
GROUP
  5
44C
102
{ACAD_REACTORS
330
D
102
}
330
D
100
AcDbGroup
300
group from kcad family
 70
     1
 71
     1
340
44D
340
44F
340
451
340
453
340
455
340
457
340
459
340
45B
340
45D
340
45F
  0
GROUP
  5
461
102
{ACAD_REACTORS
330
D
102
}
330
D
100
AcDbGroup
300
group from kcad family
 70
     1
 71
     1
340
462
340
464
340
466
340
468
340
46A
340
46C
340
46E
340
470
340
472
340
474
340
476
340
478
  0
GROUP
  5
47A
102
{ACAD_REACTORS
330
D
102
}
330
D
100
AcDbGroup
300
group from kcad family
 70
     1
 71
     1
340
47B
340
47D
340
47F
340
481
340
483
340
485
340
487
340
489
340
48B
340
48D
340
48F
340
491
340
493
340
495
340
497
  0
LAYOUT
  5
22
102
{ACAD_REACTORS
330
1A
102
}
330
1A
100
AcDbPlotSettings
  1

  2
DWF ePlot.pc3
  4
ISO_A3_(297.00_x_420.00_MM)
  6

 40
5.793749809265136
 41
17.79375076293945
 42
5.79376220703125
 43
17.79376220703125
 44
297.0
 45
420.0
 46
0.0
 47
0.0
 48
-296.915
 49
209.2087
140
0.1314
141
-0.1039
142
0.0
143
0.0
 70
 11952
 72
     1
 73
     0
 74
     4
  7

 75
     0
147
1.0
148
0.0
149
0.0
100
AcDbLayout
  1
Model
 70
     1
 71
     0
 10
-354.629
 20
-43.78333689299999
 11
65.37099999999998
 21
253.2166631069999
 12
0.0
 22
0.0
 32
0.0
 14
-297.0
 24
-0.283333331347
 34
0.0
 15
8.102596369743466
 25
209.7166595458999
 35
0.0
146
0.0
 13
0.0
 23
0.0
 33
0.0
 16
1.0
 26
0.0
 36
0.0
 17
0.0
 27
1.0
 37
0.0
 76
     0
330
1F
  0
LAYOUT
  5
22F
102
{ACAD_REACTORS
330
1A
102
}
330
1A
100
AcDbPlotSettings
  1

  2
D:\ACAD2000\plotters\HP DesignJet 700(System).pc3
  4

  6

 40
0.0
 41
0.0
 42
0.0
 43
0.0
 44
0.0
 45
0.0
 46
0.0
 47
0.0
 48
0.0
 49
0.0
140
0.0
141
0.0
142
1.0
143
1.0
 70
   688
 72
     0
 73
     0
 74
     5
  7
monochrome.ctb
 75
    16
147
1.0
148
0.0
149
0.0
100
AcDbLayout
  1
ﾚｲｱｳﾄ1
 70
     1
 71
     1
 10
0.0
 20
0.0
 11
12.0
 21
9.0
 12
0.0
 22
0.0
 32
0.0
 14
0.0
 24
0.0
 34
0.0
 15
0.0
 25
0.0
 35
0.0
146
0.0
 13
0.0
 23
0.0
 33
0.0
 16
1.0
 26
0.0
 36
0.0
 17
0.0
 27
1.0
 37
0.0
 76
     0
330
73
  0
MLINESTYLE
  5
18
102
{ACAD_REACTORS
330
17
102
}
330
17
100
AcDbMlineStyle
  2
Standard
 70
     0
  3

 62
   256
 51
90.0
 52
90.0
 71
     2
 49
0.5
 62
   256
  6
BYLAYER
 49
-0.5
 62
   256
  6
BYLAYER
  0
ACDBPLACEHOLDER
  5
F
102
{ACAD_REACTORS
330
E
102
}
330
E
  0
XRECORD
  5
6CA
102
{ACAD_REACTORS
330
6C9
102
}
330
6C9
100
AcDbXrecord
280
     1
340
6C
  0
XRECORD
  5
6CB
102
{ACAD_REACTORS
330
6C9
102
}
330
6C9
100
AcDbXrecord
280
     1
340
6B
  0
DICTIONARYVAR
  5
6C8
102
{ACAD_REACTORS
330
59
102
}
330
59
100
DictionaryVariables
280
     0
  1
1
  0
ENDSEC
  0
EOF
