999
Outputted By AR_CAD Ver.1.5.4
  0
SECTION
  2
HEADER
  9
$ACADVER
  1
AC1014
  9
$DWGCODEPAGE
  3
ANSI_932
  9
$EXTMIN
 10
0
 20
0
  9
$EXTMAX
 10
297
 20
210
  9
$INSBASE
 10
0.0
 20
0.0
 30
0.0
  9
$HANDLING
 70
     1
  9
$HANDSEED
  5
4CF
  9
$LTSCALE
 40
1
  0
ENDSEC
  0
SECTION
  2
TABLES
  0
TABLE
  2
VPORT
  5
1
100
AcDbSymbolTable
 70
     1
  0
VPORT
  5
30
100
AcDbSymbolTableRecord
100
AcDbViewportTableRecord
  2
*ACTIVE
 70
     0
 10
0.0
 20
0.0
 11
1.0
 21
1.0
 12
210.0
 22
148.5
 13
0.0
 23
0.0
 14
10.0
 24
10.0
 15
10.0
 25
10.0
 16
0.0
 26
0.0
 36
1.0
 17
0.0
 27
0.0
 37
0.0
 40
302.94
 41
1.333333
 42
50.0
 43
0.0
 44
0.0
 50
0.0
 51
0.0
 71
     0
 72
   100
 73
     1
 74
     1
 75
     0
 76
     0
 77
     0
 78
     0
  0
ENDTAB
  0
TABLE
  2
LTYPE
  5
2
100
AcDbSymbolTable
 70
     11
  0
LTYPE
  5
31
100
AcDbSymbolTableRecord
100
AcDbLinetypeTableRecord
  2
BYBLOCK
 70
    64
 3

 72
    65
 73
    0
 40
    0
  0
LTYPE
  5
32
100
AcDbSymbolTableRecord
100
AcDbLinetypeTableRecord
  2
BYLAYER
 70
    64
 3

 72
    65
 73
    0
 40
    0
  0
LTYPE
  5
33
100
AcDbSymbolTableRecord
100
AcDbLinetypeTableRecord
  2
CONTINUOUS
 70
    64
 3
CONTINUOUS
 72
    65
 73
    0
 40
    0
  0
LTYPE
  5
34
100
AcDbSymbolTableRecord
100
AcDbLinetypeTableRecord
  2
DASHED
 70
    64
 3

 72
    65
 73
    2
 40
    3.5
 49
    2.91666666666667
 74
    0
 49
    -0.583333333333333
 74
    0
  0
LTYPE
  5
35
100
AcDbSymbolTableRecord
100
AcDbLinetypeTableRecord
  2
DOT
 70
    64
 3

 72
    65
 73
    2
 40
    0.5
 49
    0.25
 74
    0
 49
    -0.25
 74
    0
  0
LTYPE
  5
36
100
AcDbSymbolTableRecord
100
AcDbLinetypeTableRecord
  2
DASHDOT
 70
    64
 3

 72
    65
 73
    4
 40
    3.5
 49
    1.84210526315789
 74
    0
 49
    -0.552631578947368
 74
    0
 49
    0.552631578947368
 74
    0
 49
    -0.552631578947368
 74
    0
  0
LTYPE
  5
37
100
AcDbSymbolTableRecord
100
AcDbLinetypeTableRecord
  2
DIVIDE
 70
    64
 3

 72
    65
 73
    6
 40
    3.5
 49
    1.4
 74
    0
 49
    -0.42
 74
    0
 49
    0.42
 74
    0
 49
    -0.42
 74
    0
 49
    0.42
 74
    0
 49
    -0.42
 74
    0
  0
LTYPE
  5
38
100
AcDbSymbolTableRecord
100
AcDbLinetypeTableRecord
  2
HIDDEN
 70
    64
 3

 72
    65
 73
    2
 40
    1.905
 49
    1.27
 74
    0
 49
    -0.635
 74
    0
  0
LTYPE
  5
39
100
AcDbSymbolTableRecord
100
AcDbLinetypeTableRecord
  2
PHANTOM
 70
    64
 3

 72
    65
 73
    6
 40
    12.7
 49
    6.35
 74
    0
 49
    -1.27
 74
    0
 49
    1.27
 74
    0
 49
    -1.27
 74
    0
 49
    1.27
 74
    0
 49
    -1.27
 74
    0
  0
LTYPE
  5
3A
100
AcDbSymbolTableRecord
100
AcDbLinetypeTableRecord
  2
CENTER
 70
    64
 3

 72
    65
 73
    4
 40
    10.16
 49
    6.35
 74
    0
 49
    -1.27
 74
    0
 49
    1.27
 74
    0
 49
    -1.27
 74
    0
  0
LTYPE
  5
3B
100
AcDbSymbolTableRecord
100
AcDbLinetypeTableRecord
  2
CENTERX2
 70
    64
 3

 72
    65
 73
    4
 40
    20.32
 49
    12.7
 74
    0
 49
    -2.54
 74
    0
 49
    2.54
 74
    0
 49
    -2.54
 74
    0
  0
LTYPE
  5
3C
100
AcDbSymbolTableRecord
100
AcDbLinetypeTableRecord
  2
DOT2
 70
    64
 3

 72
    65
 73
    2
 40
    0.635
 49
    0
 74
    0
 49
    -0.635
 74
    0
  0
ENDTAB
  0
TABLE
  2
LAYER
  5
3
100
AcDbSymbolTable
 70
   257
  0
LAYER
  5
3D
100
AcDbSymbolTableRecord
100
AcDbLayerTableRecord
  2
0
 70
    0
 62
7
  6
CONTINUOUS
  0
LAYER
  5
3E
100
AcDbSymbolTableRecord
100
AcDbLayerTableRecord
  2
SLD-0
 70
    0
 62
7
  6
CONTINUOUS
  0
LAYER
  5
3F
100
AcDbSymbolTableRecord
100
AcDbLayerTableRecord
  2
$DDT_AUDIT_GENERATED__30_
 70
    0
 62
7
  6
CONTINUOUS
  0
LAYER
  5
40
100
AcDbSymbolTableRecord
100
AcDbLayerTableRecord
  2
シリズムカグ_
 70
    0
 62
7
  6
CONTINUOUS
  0
LAYER
  5
41
100
AcDbSymbolTableRecord
100
AcDbLayerTableRecord
  2
ﾌﾟﾘ_ﾞﾑﾎﾙﾀﾞ_
 70
    0
 62
7
  6
CONTINUOUS
  0
LAYER
  5
42
100
AcDbSymbolTableRecord
100
AcDbLayerTableRecord
  2
シリズム2
 70
    0
 62
7
  6
CONTINUOUS
  0
LAYER
  5
43
100
AcDbSymbolTableRecord
100
AcDbLayerTableRecord
  2
光源_LED_
 70
    0
 62
7
  6
CONTINUOUS
  0
LAYER
  5
44
100
AcDbSymbolTableRecord
100
AcDbLayerTableRecord
  2
LAYER1
 70
    0
 62
7
  6
CONTINUOUS
  0
LAYER
  5
45
100
AcDbSymbolTableRecord
100
AcDbLayerTableRecord
  2
$DDT_AUDIT_GENERATED__36_
 70
    0
 62
7
  6
CONTINUOUS
  0
LAYER
  5
46
100
AcDbSymbolTableRecord
100
AcDbLayerTableRecord
  2
カグ_板
 70
    0
 62
7
  6
CONTINUOUS
  0
LAYER
  5
47
100
AcDbSymbolTableRecord
100
AcDbLayerTableRecord
  2
DIMENSION
 70
    0
 62
7
  6
CONTINUOUS
  0
LAYER
  5
48
100
AcDbSymbolTableRecord
100
AcDbLayerTableRecord
  2
$DDT_AUDIT_GENERATED__39_
 70
    0
 62
7
  6
CONTINUOUS
  0
LAYER
  5
49
100
AcDbSymbolTableRecord
100
AcDbLayerTableRecord
  2
KCM-4
 70
    0
 62
7
  6
CONTINUOUS
  0
LAYER
  5
4A
100
AcDbSymbolTableRecord
100
AcDbLayerTableRecord
  2
LAYER7
 70
    0
 62
7
  6
CONTINUOUS
  0
LAYER
  5
4B
100
AcDbSymbolTableRecord
100
AcDbLayerTableRecord
  2
LAYER4
 70
    0
 62
7
  6
CONTINUOUS
  0
LAYER
  5
4C
100
AcDbSymbolTableRecord
100
AcDbLayerTableRecord
  2
LAYER6
 70
    0
 62
7
  6
CONTINUOUS
  0
LAYER
  5
4D
100
AcDbSymbolTableRecord
100
AcDbLayerTableRecord
  2
LAYER5
 70
    0
 62
7
  6
CONTINUOUS
  0
LAYER
  5
4E
100
AcDbSymbolTableRecord
100
AcDbLayerTableRecord
  2
LAYER11
 70
    0
 62
7
  6
CONTINUOUS
  0
LAYER
  5
4F
100
AcDbSymbolTableRecord
100
AcDbLayerTableRecord
  2
LAYER12
 70
    0
 62
7
  6
CONTINUOUS
  0
LAYER
  5
50
100
AcDbSymbolTableRecord
100
AcDbLayerTableRecord
  2
LAYER2
 70
    0
 62
7
  6
CONTINUOUS
  0
LAYER
  5
51
100
AcDbSymbolTableRecord
100
AcDbLayerTableRecord
  2
LAYER9
 70
    0
 62
7
  6
CONTINUOUS
  0
LAYER
  5
52
100
AcDbSymbolTableRecord
100
AcDbLayerTableRecord
  2
LAYER3
 70
    0
 62
7
  6
CONTINUOUS
  0
LAYER
  5
53
100
AcDbSymbolTableRecord
100
AcDbLayerTableRecord
  2
$CONSTRUCTION
 70
    0
 62
-9
  6
CONTINUOUS
  0
LAYER
  5
54
100
AcDbSymbolTableRecord
100
AcDbLayerTableRecord
  2
SLD-DEFPOINTS
 70
    0
 62
7
  6
CONTINUOUS
  0
LAYER
  5
55
100
AcDbSymbolTableRecord
100
AcDbLayerTableRecord
  2
99
 70
    0
 62
-3
  6
CONTINUOUS
  0
LAYER
  5
56
100
AcDbSymbolTableRecord
100
AcDbLayerTableRecord
  2
KCAD_DIMS
 70
    0
 62
134
  6
CONTINUOUS
  0
LAYER
  5
57
100
AcDbSymbolTableRecord
100
AcDbLayerTableRecord
  2
KCAD_ASST
 70
    0
 62
134
  6
CONTINUOUS
  0
LAYER
  5
58
100
AcDbSymbolTableRecord
100
AcDbLayerTableRecord
  2
KCAD_RASTER
 70
    0
 62
7
  6
CONTINUOUS
  0
LAYER
  5
59
100
AcDbSymbolTableRecord
100
AcDbLayerTableRecord
  2
SYBCENTER
 70
    0
 62
134
  6
CONTINUOUS
  0
LAYER
  5
5A
100
AcDbSymbolTableRecord
100
AcDbLayerTableRecord
  2
SYBHIDE
 70
    0
 62
134
  6
CONTINUOUS
  0
LAYER
  5
5B
100
AcDbSymbolTableRecord
100
AcDbLayerTableRecord
  2
SYBOUTLINE
 70
    0
 62
7
  6
CONTINUOUS
  0
LAYER
  5
5C
100
AcDbSymbolTableRecord
100
AcDbLayerTableRecord
  2
SYBTHREAD
 70
    0
 62
134
  6
CONTINUOUS
  0
LAYER
  5
5D
100
AcDbSymbolTableRecord
100
AcDbLayerTableRecord
  2
SYBTHRHID
 70
    0
 62
134
  6
CONTINUOUS
  0
LAYER
  5
5E
100
AcDbSymbolTableRecord
100
AcDbLayerTableRecord
  2
KCAD_UIR_TMP_LAYER_
 70
    0
 62
7
  6
CONTINUOUS
  0
LAYER
  5
5F
100
AcDbSymbolTableRecord
100
AcDbLayerTableRecord
  2
KCAD_CPM_MAX_LAYER
 70
    0
 62
-7
  6
CONTINUOUS
  0
LAYER
  5
60
100
AcDbSymbolTableRecord
100
AcDbLayerTableRecord
  2
11
 70
    0
 62
7
  6
CONTINUOUS
  0
LAYER
  5
61
100
AcDbSymbolTableRecord
100
AcDbLayerTableRecord
  2
19
 70
    0
 62
7
  6
CONTINUOUS
  0
LAYER
  5
62
100
AcDbSymbolTableRecord
100
AcDbLayerTableRecord
  2
1
 70
    0
 62
7
  6
CONTINUOUS
  0
LAYER
  5
63
100
AcDbSymbolTableRecord
100
AcDbLayerTableRecord
  2
16
 70
    0
 62
7
  6
CONTINUOUS
  0
LAYER
  5
64
100
AcDbSymbolTableRecord
100
AcDbLayerTableRecord
  2
15
 70
    0
 62
7
  6
CONTINUOUS
  0
LAYER
  5
65
100
AcDbSymbolTableRecord
100
AcDbLayerTableRecord
  2
3
 70
    0
 62
7
  6
CONTINUOUS
  0
LAYER
  5
66
100
AcDbSymbolTableRecord
100
AcDbLayerTableRecord
  2
4
 70
    0
 62
7
  6
CONTINUOUS
  0
LAYER
  5
67
100
AcDbSymbolTableRecord
100
AcDbLayerTableRecord
  2
5
 70
    0
 62
7
  6
CONTINUOUS
  0
LAYER
  5
68
100
AcDbSymbolTableRecord
100
AcDbLayerTableRecord
  2
6
 70
    0
 62
7
  6
CONTINUOUS
  0
LAYER
  5
69
100
AcDbSymbolTableRecord
100
AcDbLayerTableRecord
  2
2
 70
    0
 62
7
  6
CONTINUOUS
  0
LAYER
  5
6A
100
AcDbSymbolTableRecord
100
AcDbLayerTableRecord
  2
7
 70
    0
 62
7
  6
CONTINUOUS
  0
LAYER
  5
6B
100
AcDbSymbolTableRecord
100
AcDbLayerTableRecord
  2
8
 70
    0
 62
7
  6
CONTINUOUS
  0
LAYER
  5
6C
100
AcDbSymbolTableRecord
100
AcDbLayerTableRecord
  2
9
 70
    0
 62
7
  6
CONTINUOUS
  0
LAYER
  5
6D
100
AcDbSymbolTableRecord
100
AcDbLayerTableRecord
  2
10
 70
    0
 62
7
  6
CONTINUOUS
  0
LAYER
  5
6E
100
AcDbSymbolTableRecord
100
AcDbLayerTableRecord
  2
12
 70
    0
 62
7
  6
CONTINUOUS
  0
LAYER
  5
6F
100
AcDbSymbolTableRecord
100
AcDbLayerTableRecord
  2
13
 70
    0
 62
7
  6
CONTINUOUS
  0
LAYER
  5
70
100
AcDbSymbolTableRecord
100
AcDbLayerTableRecord
  2
14
 70
    0
 62
7
  6
CONTINUOUS
  0
LAYER
  5
71
100
AcDbSymbolTableRecord
100
AcDbLayerTableRecord
  2
17
 70
    0
 62
7
  6
CONTINUOUS
  0
LAYER
  5
72
100
AcDbSymbolTableRecord
100
AcDbLayerTableRecord
  2
18
 70
    0
 62
7
  6
CONTINUOUS
  0
LAYER
  5
73
100
AcDbSymbolTableRecord
100
AcDbLayerTableRecord
  2
20
 70
    0
 62
7
  6
CONTINUOUS
  0
LAYER
  5
74
100
AcDbSymbolTableRecord
100
AcDbLayerTableRecord
  2
21
 70
    0
 62
7
  6
CONTINUOUS
  0
LAYER
  5
75
100
AcDbSymbolTableRecord
100
AcDbLayerTableRecord
  2
22
 70
    0
 62
7
  6
CONTINUOUS
  0
LAYER
  5
76
100
AcDbSymbolTableRecord
100
AcDbLayerTableRecord
  2
23
 70
    0
 62
7
  6
CONTINUOUS
  0
LAYER
  5
77
100
AcDbSymbolTableRecord
100
AcDbLayerTableRecord
  2
24
 70
    0
 62
7
  6
CONTINUOUS
  0
LAYER
  5
78
100
AcDbSymbolTableRecord
100
AcDbLayerTableRecord
  2
25
 70
    0
 62
7
  6
CONTINUOUS
  0
LAYER
  5
79
100
AcDbSymbolTableRecord
100
AcDbLayerTableRecord
  2
26
 70
    0
 62
7
  6
CONTINUOUS
  0
LAYER
  5
7A
100
AcDbSymbolTableRecord
100
AcDbLayerTableRecord
  2
27
 70
    0
 62
3
  6
CONTINUOUS
  0
LAYER
  5
7B
100
AcDbSymbolTableRecord
100
AcDbLayerTableRecord
  2
28
 70
    0
 62
3
  6
CONTINUOUS
  0
LAYER
  5
7C
100
AcDbSymbolTableRecord
100
AcDbLayerTableRecord
  2
29
 70
    0
 62
3
  6
CONTINUOUS
  0
LAYER
  5
7D
100
AcDbSymbolTableRecord
100
AcDbLayerTableRecord
  2
30
 70
    0
 62
3
  6
CONTINUOUS
  0
LAYER
  5
7E
100
AcDbSymbolTableRecord
100
AcDbLayerTableRecord
  2
31
 70
    0
 62
3
  6
CONTINUOUS
  0
LAYER
  5
7F
100
AcDbSymbolTableRecord
100
AcDbLayerTableRecord
  2
32
 70
    0
 62
3
  6
CONTINUOUS
  0
LAYER
  5
80
100
AcDbSymbolTableRecord
100
AcDbLayerTableRecord
  2
33
 70
    0
 62
3
  6
CONTINUOUS
  0
LAYER
  5
81
100
AcDbSymbolTableRecord
100
AcDbLayerTableRecord
  2
34
 70
    0
 62
3
  6
CONTINUOUS
  0
LAYER
  5
82
100
AcDbSymbolTableRecord
100
AcDbLayerTableRecord
  2
35
 70
    0
 62
3
  6
CONTINUOUS
  0
LAYER
  5
83
100
AcDbSymbolTableRecord
100
AcDbLayerTableRecord
  2
36
 70
    0
 62
3
  6
CONTINUOUS
  0
LAYER
  5
84
100
AcDbSymbolTableRecord
100
AcDbLayerTableRecord
  2
37
 70
    0
 62
3
  6
CONTINUOUS
  0
LAYER
  5
85
100
AcDbSymbolTableRecord
100
AcDbLayerTableRecord
  2
38
 70
    0
 62
3
  6
CONTINUOUS
  0
LAYER
  5
86
100
AcDbSymbolTableRecord
100
AcDbLayerTableRecord
  2
39
 70
    0
 62
3
  6
CONTINUOUS
  0
LAYER
  5
87
100
AcDbSymbolTableRecord
100
AcDbLayerTableRecord
  2
40
 70
    0
 62
3
  6
CONTINUOUS
  0
LAYER
  5
88
100
AcDbSymbolTableRecord
100
AcDbLayerTableRecord
  2
41
 70
    0
 62
3
  6
CONTINUOUS
  0
LAYER
  5
89
100
AcDbSymbolTableRecord
100
AcDbLayerTableRecord
  2
42
 70
    0
 62
3
  6
CONTINUOUS
  0
LAYER
  5
8A
100
AcDbSymbolTableRecord
100
AcDbLayerTableRecord
  2
43
 70
    0
 62
3
  6
CONTINUOUS
  0
LAYER
  5
8B
100
AcDbSymbolTableRecord
100
AcDbLayerTableRecord
  2
44
 70
    0
 62
3
  6
CONTINUOUS
  0
LAYER
  5
8C
100
AcDbSymbolTableRecord
100
AcDbLayerTableRecord
  2
45
 70
    0
 62
3
  6
CONTINUOUS
  0
LAYER
  5
8D
100
AcDbSymbolTableRecord
100
AcDbLayerTableRecord
  2
46
 70
    0
 62
3
  6
CONTINUOUS
  0
LAYER
  5
8E
100
AcDbSymbolTableRecord
100
AcDbLayerTableRecord
  2
47
 70
    0
 62
3
  6
CONTINUOUS
  0
LAYER
  5
8F
100
AcDbSymbolTableRecord
100
AcDbLayerTableRecord
  2
48
 70
    0
 62
3
  6
CONTINUOUS
  0
LAYER
  5
90
100
AcDbSymbolTableRecord
100
AcDbLayerTableRecord
  2
49
 70
    0
 62
3
  6
CONTINUOUS
  0
LAYER
  5
91
100
AcDbSymbolTableRecord
100
AcDbLayerTableRecord
  2
50
 70
    0
 62
3
  6
CONTINUOUS
  0
LAYER
  5
92
100
AcDbSymbolTableRecord
100
AcDbLayerTableRecord
  2
51
 70
    0
 62
3
  6
CONTINUOUS
  0
LAYER
  5
93
100
AcDbSymbolTableRecord
100
AcDbLayerTableRecord
  2
52
 70
    0
 62
3
  6
CONTINUOUS
  0
LAYER
  5
94
100
AcDbSymbolTableRecord
100
AcDbLayerTableRecord
  2
53
 70
    0
 62
3
  6
CONTINUOUS
  0
LAYER
  5
95
100
AcDbSymbolTableRecord
100
AcDbLayerTableRecord
  2
54
 70
    0
 62
3
  6
CONTINUOUS
  0
LAYER
  5
96
100
AcDbSymbolTableRecord
100
AcDbLayerTableRecord
  2
55
 70
    0
 62
3
  6
CONTINUOUS
  0
LAYER
  5
97
100
AcDbSymbolTableRecord
100
AcDbLayerTableRecord
  2
56
 70
    0
 62
3
  6
CONTINUOUS
  0
LAYER
  5
98
100
AcDbSymbolTableRecord
100
AcDbLayerTableRecord
  2
57
 70
    0
 62
3
  6
CONTINUOUS
  0
LAYER
  5
99
100
AcDbSymbolTableRecord
100
AcDbLayerTableRecord
  2
58
 70
    0
 62
3
  6
CONTINUOUS
  0
LAYER
  5
9A
100
AcDbSymbolTableRecord
100
AcDbLayerTableRecord
  2
59
 70
    0
 62
3
  6
CONTINUOUS
  0
LAYER
  5
9B
100
AcDbSymbolTableRecord
100
AcDbLayerTableRecord
  2
60
 70
    0
 62
3
  6
CONTINUOUS
  0
LAYER
  5
9C
100
AcDbSymbolTableRecord
100
AcDbLayerTableRecord
  2
61
 70
    0
 62
3
  6
CONTINUOUS
  0
LAYER
  5
9D
100
AcDbSymbolTableRecord
100
AcDbLayerTableRecord
  2
62
 70
    0
 62
3
  6
CONTINUOUS
  0
LAYER
  5
9E
100
AcDbSymbolTableRecord
100
AcDbLayerTableRecord
  2
63
 70
    0
 62
3
  6
CONTINUOUS
  0
LAYER
  5
9F
100
AcDbSymbolTableRecord
100
AcDbLayerTableRecord
  2
64
 70
    0
 62
3
  6
CONTINUOUS
  0
LAYER
  5
A0
100
AcDbSymbolTableRecord
100
AcDbLayerTableRecord
  2
65
 70
    0
 62
3
  6
CONTINUOUS
  0
LAYER
  5
A1
100
AcDbSymbolTableRecord
100
AcDbLayerTableRecord
  2
66
 70
    0
 62
3
  6
CONTINUOUS
  0
LAYER
  5
A2
100
AcDbSymbolTableRecord
100
AcDbLayerTableRecord
  2
67
 70
    0
 62
3
  6
CONTINUOUS
  0
LAYER
  5
A3
100
AcDbSymbolTableRecord
100
AcDbLayerTableRecord
  2
68
 70
    0
 62
3
  6
CONTINUOUS
  0
LAYER
  5
A4
100
AcDbSymbolTableRecord
100
AcDbLayerTableRecord
  2
69
 70
    0
 62
3
  6
CONTINUOUS
  0
LAYER
  5
A5
100
AcDbSymbolTableRecord
100
AcDbLayerTableRecord
  2
70
 70
    0
 62
3
  6
CONTINUOUS
  0
LAYER
  5
A6
100
AcDbSymbolTableRecord
100
AcDbLayerTableRecord
  2
71
 70
    0
 62
3
  6
CONTINUOUS
  0
LAYER
  5
A7
100
AcDbSymbolTableRecord
100
AcDbLayerTableRecord
  2
72
 70
    0
 62
3
  6
CONTINUOUS
  0
LAYER
  5
A8
100
AcDbSymbolTableRecord
100
AcDbLayerTableRecord
  2
73
 70
    0
 62
3
  6
CONTINUOUS
  0
LAYER
  5
A9
100
AcDbSymbolTableRecord
100
AcDbLayerTableRecord
  2
74
 70
    0
 62
3
  6
CONTINUOUS
  0
LAYER
  5
AA
100
AcDbSymbolTableRecord
100
AcDbLayerTableRecord
  2
75
 70
    0
 62
3
  6
CONTINUOUS
  0
LAYER
  5
AB
100
AcDbSymbolTableRecord
100
AcDbLayerTableRecord
  2
76
 70
    0
 62
3
  6
CONTINUOUS
  0
LAYER
  5
AC
100
AcDbSymbolTableRecord
100
AcDbLayerTableRecord
  2
77
 70
    0
 62
3
  6
CONTINUOUS
  0
LAYER
  5
AD
100
AcDbSymbolTableRecord
100
AcDbLayerTableRecord
  2
78
 70
    0
 62
3
  6
CONTINUOUS
  0
LAYER
  5
AE
100
AcDbSymbolTableRecord
100
AcDbLayerTableRecord
  2
79
 70
    0
 62
3
  6
CONTINUOUS
  0
LAYER
  5
AF
100
AcDbSymbolTableRecord
100
AcDbLayerTableRecord
  2
80
 70
    0
 62
3
  6
CONTINUOUS
  0
LAYER
  5
B0
100
AcDbSymbolTableRecord
100
AcDbLayerTableRecord
  2
81
 70
    0
 62
3
  6
CONTINUOUS
  0
LAYER
  5
B1
100
AcDbSymbolTableRecord
100
AcDbLayerTableRecord
  2
82
 70
    0
 62
3
  6
CONTINUOUS
  0
LAYER
  5
B2
100
AcDbSymbolTableRecord
100
AcDbLayerTableRecord
  2
83
 70
    0
 62
3
  6
CONTINUOUS
  0
LAYER
  5
B3
100
AcDbSymbolTableRecord
100
AcDbLayerTableRecord
  2
84
 70
    0
 62
3
  6
CONTINUOUS
  0
LAYER
  5
B4
100
AcDbSymbolTableRecord
100
AcDbLayerTableRecord
  2
85
 70
    0
 62
3
  6
CONTINUOUS
  0
LAYER
  5
B5
100
AcDbSymbolTableRecord
100
AcDbLayerTableRecord
  2
86
 70
    0
 62
3
  6
CONTINUOUS
  0
LAYER
  5
B6
100
AcDbSymbolTableRecord
100
AcDbLayerTableRecord
  2
87
 70
    0
 62
3
  6
CONTINUOUS
  0
LAYER
  5
B7
100
AcDbSymbolTableRecord
100
AcDbLayerTableRecord
  2
88
 70
    0
 62
3
  6
CONTINUOUS
  0
LAYER
  5
B8
100
AcDbSymbolTableRecord
100
AcDbLayerTableRecord
  2
89
 70
    0
 62
3
  6
CONTINUOUS
  0
LAYER
  5
B9
100
AcDbSymbolTableRecord
100
AcDbLayerTableRecord
  2
90
 70
    0
 62
3
  6
CONTINUOUS
  0
LAYER
  5
BA
100
AcDbSymbolTableRecord
100
AcDbLayerTableRecord
  2
91
 70
    0
 62
3
  6
CONTINUOUS
  0
LAYER
  5
BB
100
AcDbSymbolTableRecord
100
AcDbLayerTableRecord
  2
92
 70
    0
 62
3
  6
CONTINUOUS
  0
LAYER
  5
BC
100
AcDbSymbolTableRecord
100
AcDbLayerTableRecord
  2
93
 70
    0
 62
3
  6
CONTINUOUS
  0
LAYER
  5
BD
100
AcDbSymbolTableRecord
100
AcDbLayerTableRecord
  2
94
 70
    0
 62
3
  6
CONTINUOUS
  0
LAYER
  5
BE
100
AcDbSymbolTableRecord
100
AcDbLayerTableRecord
  2
95
 70
    0
 62
3
  6
CONTINUOUS
  0
LAYER
  5
BF
100
AcDbSymbolTableRecord
100
AcDbLayerTableRecord
  2
96
 70
    0
 62
3
  6
CONTINUOUS
  0
LAYER
  5
C0
100
AcDbSymbolTableRecord
100
AcDbLayerTableRecord
  2
97
 70
    0
 62
3
  6
CONTINUOUS
  0
LAYER
  5
C1
100
AcDbSymbolTableRecord
100
AcDbLayerTableRecord
  2
98
 70
    0
 62
3
  6
CONTINUOUS
  0
LAYER
  5
C2
100
AcDbSymbolTableRecord
100
AcDbLayerTableRecord
  2
レイアウト
 70
    0
 62
-3
  6
CONTINUOUS
  0
LAYER
  5
C3
100
AcDbSymbolTableRecord
100
AcDbLayerTableRecord
  2
0-SCALER2
 70
    0
 62
7
  6
CONTINUOUS
  0
LAYER
  5
C4
100
AcDbSymbolTableRecord
100
AcDbLayerTableRecord
  2
KCM-Z2
 70
    0
 62
7
  6
CONTINUOUS
  0
LAYER
  5
C5
100
AcDbSymbolTableRecord
100
AcDbLayerTableRecord
  2
KCM-2EX
 70
    0
 62
7
  6
CONTINUOUS
  0
LAYER
  5
C6
100
AcDbSymbolTableRecord
100
AcDbLayerTableRecord
  2
KCM-0_5XFC
 70
    0
 62
7
  6
CONTINUOUS
  0
LAYER
  5
C7
100
AcDbSymbolTableRecord
100
AcDbLayerTableRecord
  2
LAYER10
 70
    0
 62
7
  6
CONTINUOUS
  0
LAYER
  5
C8
100
AcDbSymbolTableRecord
100
AcDbLayerTableRecord
  2
光源部
 70
    0
 62
7
  6
CONTINUOUS
  0
LAYER
  5
C9
100
AcDbSymbolTableRecord
100
AcDbLayerTableRecord
  2
シリズム
 70
    0
 62
7
  6
CONTINUOUS
  0
LAYER
  5
CA
100
AcDbSymbolTableRecord
100
AcDbLayerTableRecord
  2
BORDER__ISO_
 70
    0
 62
7
  6
CONTINUOUS
  0
LAYER
  5
CB
100
AcDbSymbolTableRecord
100
AcDbLayerTableRecord
  2
CENTER_MARK__ISO_
 70
    0
 62
7
  6
CONTINUOUS
  0
LAYER
  5
CC
100
AcDbSymbolTableRecord
100
AcDbLayerTableRecord
  2
CENTERLINE__ISO_
 70
    0
 62
7
  6
CONTINUOUS
  0
LAYER
  5
CD
100
AcDbSymbolTableRecord
100
AcDbLayerTableRecord
  2
DIMENSION__ISO_
 70
    0
 62
7
  6
CONTINUOUS
  0
LAYER
  5
CE
100
AcDbSymbolTableRecord
100
AcDbLayerTableRecord
  2
HATCH__ISO_
 70
    0
 62
7
  6
CONTINUOUS
  0
LAYER
  5
CF
100
AcDbSymbolTableRecord
100
AcDbLayerTableRecord
  2
SECTION_LINE__ISO_
 70
    0
 62
7
  6
CONTINUOUS
  0
LAYER
  5
D0
100
AcDbSymbolTableRecord
100
AcDbLayerTableRecord
  2
SYMBOL__ISO_
 70
    0
 62
7
  6
CONTINUOUS
  0
LAYER
  5
D1
100
AcDbSymbolTableRecord
100
AcDbLayerTableRecord
  2
TITLE__ISO_
 70
    0
 62
7
  6
CONTINUOUS
  0
LAYER
  5
D2
100
AcDbSymbolTableRecord
100
AcDbLayerTableRecord
  2
VISIBLE__ISO_
 70
    0
 62
7
  6
CONTINUOUS
  0
LAYER
  5
D3
100
AcDbSymbolTableRecord
100
AcDbLayerTableRecord
  2
VISIBLE_NARROW__ISO_
 70
    0
 62
7
  6
CONTINUOUS
  0
LAYER
  5
D4
100
AcDbSymbolTableRecord
100
AcDbLayerTableRecord
  2
画層151
 70
    0
 62
7
  6
CONTINUOUS
  0
LAYER
  5
D5
100
AcDbSymbolTableRecord
100
AcDbLayerTableRecord
  2
画層152
 70
    0
 62
7
  6
CONTINUOUS
  0
LAYER
  5
D6
100
AcDbSymbolTableRecord
100
AcDbLayerTableRecord
  2
画層153
 70
    0
 62
7
  6
CONTINUOUS
  0
LAYER
  5
D7
100
AcDbSymbolTableRecord
100
AcDbLayerTableRecord
  2
画層154
 70
    0
 62
7
  6
CONTINUOUS
  0
LAYER
  5
D8
100
AcDbSymbolTableRecord
100
AcDbLayerTableRecord
  2
画層155
 70
    0
 62
7
  6
CONTINUOUS
  0
LAYER
  5
D9
100
AcDbSymbolTableRecord
100
AcDbLayerTableRecord
  2
画層156
 70
    0
 62
7
  6
CONTINUOUS
  0
LAYER
  5
DA
100
AcDbSymbolTableRecord
100
AcDbLayerTableRecord
  2
画層157
 70
    0
 62
7
  6
CONTINUOUS
  0
LAYER
  5
DB
100
AcDbSymbolTableRecord
100
AcDbLayerTableRecord
  2
画層158
 70
    0
 62
7
  6
CONTINUOUS
  0
LAYER
  5
DC
100
AcDbSymbolTableRecord
100
AcDbLayerTableRecord
  2
画層159
 70
    0
 62
7
  6
CONTINUOUS
  0
LAYER
  5
DD
100
AcDbSymbolTableRecord
100
AcDbLayerTableRecord
  2
画層160
 70
    0
 62
7
  6
CONTINUOUS
  0
LAYER
  5
DE
100
AcDbSymbolTableRecord
100
AcDbLayerTableRecord
  2
画層161
 70
    0
 62
7
  6
CONTINUOUS
  0
LAYER
  5
DF
100
AcDbSymbolTableRecord
100
AcDbLayerTableRecord
  2
画層162
 70
    0
 62
7
  6
CONTINUOUS
  0
LAYER
  5
E0
100
AcDbSymbolTableRecord
100
AcDbLayerTableRecord
  2
画層163
 70
    0
 62
7
  6
CONTINUOUS
  0
LAYER
  5
E1
100
AcDbSymbolTableRecord
100
AcDbLayerTableRecord
  2
画層164
 70
    0
 62
7
  6
CONTINUOUS
  0
LAYER
  5
E2
100
AcDbSymbolTableRecord
100
AcDbLayerTableRecord
  2
画層165
 70
    0
 62
7
  6
CONTINUOUS
  0
LAYER
  5
E3
100
AcDbSymbolTableRecord
100
AcDbLayerTableRecord
  2
画層166
 70
    0
 62
7
  6
CONTINUOUS
  0
LAYER
  5
E4
100
AcDbSymbolTableRecord
100
AcDbLayerTableRecord
  2
画層167
 70
    0
 62
7
  6
CONTINUOUS
  0
LAYER
  5
E5
100
AcDbSymbolTableRecord
100
AcDbLayerTableRecord
  2
画層168
 70
    0
 62
7
  6
CONTINUOUS
  0
LAYER
  5
E6
100
AcDbSymbolTableRecord
100
AcDbLayerTableRecord
  2
画層169
 70
    0
 62
7
  6
CONTINUOUS
  0
LAYER
  5
E7
100
AcDbSymbolTableRecord
100
AcDbLayerTableRecord
  2
画層170
 70
    0
 62
7
  6
CONTINUOUS
  0
LAYER
  5
E8
100
AcDbSymbolTableRecord
100
AcDbLayerTableRecord
  2
画層171
 70
    0
 62
7
  6
CONTINUOUS
  0
LAYER
  5
E9
100
AcDbSymbolTableRecord
100
AcDbLayerTableRecord
  2
画層172
 70
    0
 62
7
  6
CONTINUOUS
  0
LAYER
  5
EA
100
AcDbSymbolTableRecord
100
AcDbLayerTableRecord
  2
画層173
 70
    0
 62
7
  6
CONTINUOUS
  0
LAYER
  5
EB
100
AcDbSymbolTableRecord
100
AcDbLayerTableRecord
  2
画層174
 70
    0
 62
7
  6
CONTINUOUS
  0
LAYER
  5
EC
100
AcDbSymbolTableRecord
100
AcDbLayerTableRecord
  2
画層175
 70
    0
 62
7
  6
CONTINUOUS
  0
LAYER
  5
ED
100
AcDbSymbolTableRecord
100
AcDbLayerTableRecord
  2
画層176
 70
    0
 62
7
  6
CONTINUOUS
  0
LAYER
  5
EE
100
AcDbSymbolTableRecord
100
AcDbLayerTableRecord
  2
画層177
 70
    0
 62
7
  6
CONTINUOUS
  0
LAYER
  5
EF
100
AcDbSymbolTableRecord
100
AcDbLayerTableRecord
  2
画層178
 70
    0
 62
7
  6
CONTINUOUS
  0
LAYER
  5
F0
100
AcDbSymbolTableRecord
100
AcDbLayerTableRecord
  2
画層179
 70
    0
 62
7
  6
CONTINUOUS
  0
LAYER
  5
F1
100
AcDbSymbolTableRecord
100
AcDbLayerTableRecord
  2
画層180
 70
    0
 62
7
  6
CONTINUOUS
  0
LAYER
  5
F2
100
AcDbSymbolTableRecord
100
AcDbLayerTableRecord
  2
画層181
 70
    0
 62
7
  6
CONTINUOUS
  0
LAYER
  5
F3
100
AcDbSymbolTableRecord
100
AcDbLayerTableRecord
  2
画層182
 70
    0
 62
7
  6
CONTINUOUS
  0
LAYER
  5
F4
100
AcDbSymbolTableRecord
100
AcDbLayerTableRecord
  2
画層183
 70
    0
 62
7
  6
CONTINUOUS
  0
LAYER
  5
F5
100
AcDbSymbolTableRecord
100
AcDbLayerTableRecord
  2
画層184
 70
    0
 62
7
  6
CONTINUOUS
  0
LAYER
  5
F6
100
AcDbSymbolTableRecord
100
AcDbLayerTableRecord
  2
画層185
 70
    0
 62
7
  6
CONTINUOUS
  0
LAYER
  5
F7
100
AcDbSymbolTableRecord
100
AcDbLayerTableRecord
  2
画層186
 70
    0
 62
7
  6
CONTINUOUS
  0
LAYER
  5
F8
100
AcDbSymbolTableRecord
100
AcDbLayerTableRecord
  2
画層187
 70
    0
 62
7
  6
CONTINUOUS
  0
LAYER
  5
F9
100
AcDbSymbolTableRecord
100
AcDbLayerTableRecord
  2
画層188
 70
    0
 62
7
  6
CONTINUOUS
  0
LAYER
  5
FA
100
AcDbSymbolTableRecord
100
AcDbLayerTableRecord
  2
画層189
 70
    0
 62
7
  6
CONTINUOUS
  0
LAYER
  5
FB
100
AcDbSymbolTableRecord
100
AcDbLayerTableRecord
  2
画層190
 70
    0
 62
7
  6
CONTINUOUS
  0
LAYER
  5
FC
100
AcDbSymbolTableRecord
100
AcDbLayerTableRecord
  2
画層191
 70
    0
 62
7
  6
CONTINUOUS
  0
LAYER
  5
FD
100
AcDbSymbolTableRecord
100
AcDbLayerTableRecord
  2
画層192
 70
    0
 62
7
  6
CONTINUOUS
  0
LAYER
  5
FE
100
AcDbSymbolTableRecord
100
AcDbLayerTableRecord
  2
画層193
 70
    0
 62
7
  6
CONTINUOUS
  0
LAYER
  5
FF
100
AcDbSymbolTableRecord
100
AcDbLayerTableRecord
  2
画層194
 70
    0
 62
7
  6
CONTINUOUS
  0
LAYER
  5
100
100
AcDbSymbolTableRecord
100
AcDbLayerTableRecord
  2
画層195
 70
    0
 62
7
  6
CONTINUOUS
  0
LAYER
  5
101
100
AcDbSymbolTableRecord
100
AcDbLayerTableRecord
  2
画層196
 70
    0
 62
7
  6
CONTINUOUS
  0
LAYER
  5
102
100
AcDbSymbolTableRecord
100
AcDbLayerTableRecord
  2
画層197
 70
    0
 62
7
  6
CONTINUOUS
  0
LAYER
  5
103
100
AcDbSymbolTableRecord
100
AcDbLayerTableRecord
  2
画層198
 70
    0
 62
7
  6
CONTINUOUS
  0
LAYER
  5
104
100
AcDbSymbolTableRecord
100
AcDbLayerTableRecord
  2
画層199
 70
    0
 62
7
  6
CONTINUOUS
  0
LAYER
  5
105
100
AcDbSymbolTableRecord
100
AcDbLayerTableRecord
  2
画層200
 70
    0
 62
7
  6
CONTINUOUS
  0
LAYER
  5
106
100
AcDbSymbolTableRecord
100
AcDbLayerTableRecord
  2
画層201
 70
    0
 62
7
  6
CONTINUOUS
  0
LAYER
  5
107
100
AcDbSymbolTableRecord
100
AcDbLayerTableRecord
  2
画層202
 70
    0
 62
7
  6
CONTINUOUS
  0
LAYER
  5
108
100
AcDbSymbolTableRecord
100
AcDbLayerTableRecord
  2
画層203
 70
    0
 62
7
  6
CONTINUOUS
  0
LAYER
  5
109
100
AcDbSymbolTableRecord
100
AcDbLayerTableRecord
  2
画層204
 70
    0
 62
7
  6
CONTINUOUS
  0
LAYER
  5
10A
100
AcDbSymbolTableRecord
100
AcDbLayerTableRecord
  2
画層205
 70
    0
 62
7
  6
CONTINUOUS
  0
LAYER
  5
10B
100
AcDbSymbolTableRecord
100
AcDbLayerTableRecord
  2
画層206
 70
    0
 62
7
  6
CONTINUOUS
  0
LAYER
  5
10C
100
AcDbSymbolTableRecord
100
AcDbLayerTableRecord
  2
画層207
 70
    0
 62
7
  6
CONTINUOUS
  0
LAYER
  5
10D
100
AcDbSymbolTableRecord
100
AcDbLayerTableRecord
  2
画層208
 70
    0
 62
7
  6
CONTINUOUS
  0
LAYER
  5
10E
100
AcDbSymbolTableRecord
100
AcDbLayerTableRecord
  2
画層209
 70
    0
 62
7
  6
CONTINUOUS
  0
LAYER
  5
10F
100
AcDbSymbolTableRecord
100
AcDbLayerTableRecord
  2
画層210
 70
    0
 62
7
  6
CONTINUOUS
  0
LAYER
  5
110
100
AcDbSymbolTableRecord
100
AcDbLayerTableRecord
  2
画層211
 70
    0
 62
7
  6
CONTINUOUS
  0
LAYER
  5
111
100
AcDbSymbolTableRecord
100
AcDbLayerTableRecord
  2
画層212
 70
    0
 62
7
  6
CONTINUOUS
  0
LAYER
  5
112
100
AcDbSymbolTableRecord
100
AcDbLayerTableRecord
  2
画層213
 70
    0
 62
7
  6
CONTINUOUS
  0
LAYER
  5
113
100
AcDbSymbolTableRecord
100
AcDbLayerTableRecord
  2
画層214
 70
    0
 62
7
  6
CONTINUOUS
  0
LAYER
  5
114
100
AcDbSymbolTableRecord
100
AcDbLayerTableRecord
  2
画層215
 70
    0
 62
7
  6
CONTINUOUS
  0
LAYER
  5
115
100
AcDbSymbolTableRecord
100
AcDbLayerTableRecord
  2
画層216
 70
    0
 62
7
  6
CONTINUOUS
  0
LAYER
  5
116
100
AcDbSymbolTableRecord
100
AcDbLayerTableRecord
  2
画層217
 70
    0
 62
7
  6
CONTINUOUS
  0
LAYER
  5
117
100
AcDbSymbolTableRecord
100
AcDbLayerTableRecord
  2
画層218
 70
    0
 62
7
  6
CONTINUOUS
  0
LAYER
  5
118
100
AcDbSymbolTableRecord
100
AcDbLayerTableRecord
  2
画層219
 70
    0
 62
7
  6
CONTINUOUS
  0
LAYER
  5
119
100
AcDbSymbolTableRecord
100
AcDbLayerTableRecord
  2
画層220
 70
    0
 62
7
  6
CONTINUOUS
  0
LAYER
  5
11A
100
AcDbSymbolTableRecord
100
AcDbLayerTableRecord
  2
画層221
 70
    0
 62
7
  6
CONTINUOUS
  0
LAYER
  5
11B
100
AcDbSymbolTableRecord
100
AcDbLayerTableRecord
  2
画層222
 70
    0
 62
7
  6
CONTINUOUS
  0
LAYER
  5
11C
100
AcDbSymbolTableRecord
100
AcDbLayerTableRecord
  2
画層223
 70
    0
 62
7
  6
CONTINUOUS
  0
LAYER
  5
11D
100
AcDbSymbolTableRecord
100
AcDbLayerTableRecord
  2
画層224
 70
    0
 62
7
  6
CONTINUOUS
  0
LAYER
  5
11E
100
AcDbSymbolTableRecord
100
AcDbLayerTableRecord
  2
画層225
 70
    0
 62
7
  6
CONTINUOUS
  0
LAYER
  5
11F
100
AcDbSymbolTableRecord
100
AcDbLayerTableRecord
  2
画層226
 70
    0
 62
7
  6
CONTINUOUS
  0
LAYER
  5
120
100
AcDbSymbolTableRecord
100
AcDbLayerTableRecord
  2
画層227
 70
    0
 62
7
  6
CONTINUOUS
  0
LAYER
  5
121
100
AcDbSymbolTableRecord
100
AcDbLayerTableRecord
  2
画層228
 70
    0
 62
7
  6
CONTINUOUS
  0
LAYER
  5
122
100
AcDbSymbolTableRecord
100
AcDbLayerTableRecord
  2
画層229
 70
    0
 62
7
  6
CONTINUOUS
  0
LAYER
  5
123
100
AcDbSymbolTableRecord
100
AcDbLayerTableRecord
  2
画層230
 70
    0
 62
7
  6
CONTINUOUS
  0
LAYER
  5
124
100
AcDbSymbolTableRecord
100
AcDbLayerTableRecord
  2
画層231
 70
    0
 62
7
  6
CONTINUOUS
  0
LAYER
  5
125
100
AcDbSymbolTableRecord
100
AcDbLayerTableRecord
  2
画層232
 70
    0
 62
7
  6
CONTINUOUS
  0
LAYER
  5
126
100
AcDbSymbolTableRecord
100
AcDbLayerTableRecord
  2
画層233
 70
    0
 62
7
  6
CONTINUOUS
  0
LAYER
  5
127
100
AcDbSymbolTableRecord
100
AcDbLayerTableRecord
  2
画層234
 70
    0
 62
7
  6
CONTINUOUS
  0
LAYER
  5
128
100
AcDbSymbolTableRecord
100
AcDbLayerTableRecord
  2
画層235
 70
    0
 62
7
  6
CONTINUOUS
  0
LAYER
  5
129
100
AcDbSymbolTableRecord
100
AcDbLayerTableRecord
  2
画層236
 70
    0
 62
7
  6
CONTINUOUS
  0
LAYER
  5
12A
100
AcDbSymbolTableRecord
100
AcDbLayerTableRecord
  2
画層237
 70
    0
 62
7
  6
CONTINUOUS
  0
LAYER
  5
12B
100
AcDbSymbolTableRecord
100
AcDbLayerTableRecord
  2
画層238
 70
    0
 62
7
  6
CONTINUOUS
  0
LAYER
  5
12C
100
AcDbSymbolTableRecord
100
AcDbLayerTableRecord
  2
画層239
 70
    0
 62
7
  6
CONTINUOUS
  0
LAYER
  5
12D
100
AcDbSymbolTableRecord
100
AcDbLayerTableRecord
  2
画層240
 70
    0
 62
7
  6
CONTINUOUS
  0
LAYER
  5
12E
100
AcDbSymbolTableRecord
100
AcDbLayerTableRecord
  2
画層241
 70
    0
 62
7
  6
CONTINUOUS
  0
LAYER
  5
12F
100
AcDbSymbolTableRecord
100
AcDbLayerTableRecord
  2
画層242
 70
    0
 62
7
  6
CONTINUOUS
  0
LAYER
  5
130
100
AcDbSymbolTableRecord
100
AcDbLayerTableRecord
  2
画層243
 70
    0
 62
7
  6
CONTINUOUS
  0
LAYER
  5
131
100
AcDbSymbolTableRecord
100
AcDbLayerTableRecord
  2
画層244
 70
    0
 62
7
  6
CONTINUOUS
  0
LAYER
  5
132
100
AcDbSymbolTableRecord
100
AcDbLayerTableRecord
  2
画層245
 70
    0
 62
7
  6
CONTINUOUS
  0
LAYER
  5
133
100
AcDbSymbolTableRecord
100
AcDbLayerTableRecord
  2
画層246
 70
    0
 62
7
  6
CONTINUOUS
  0
LAYER
  5
134
100
AcDbSymbolTableRecord
100
AcDbLayerTableRecord
  2
画層247
 70
    0
 62
7
  6
CONTINUOUS
  0
LAYER
  5
135
100
AcDbSymbolTableRecord
100
AcDbLayerTableRecord
  2
画層248
 70
    0
 62
7
  6
CONTINUOUS
  0
LAYER
  5
136
100
AcDbSymbolTableRecord
100
AcDbLayerTableRecord
  2
画層249
 70
    0
 62
7
  6
CONTINUOUS
  0
LAYER
  5
137
100
AcDbSymbolTableRecord
100
AcDbLayerTableRecord
  2
画層250
 70
    0
 62
7
  6
CONTINUOUS
  0
LAYER
  5
138
100
AcDbSymbolTableRecord
100
AcDbLayerTableRecord
  2
画層251
 70
    0
 62
7
  6
CONTINUOUS
  0
LAYER
  5
139
100
AcDbSymbolTableRecord
100
AcDbLayerTableRecord
  2
画層252
 70
    0
 62
7
  6
CONTINUOUS
  0
LAYER
  5
13A
100
AcDbSymbolTableRecord
100
AcDbLayerTableRecord
  2
画層253
 70
    0
 62
7
  6
CONTINUOUS
  0
LAYER
  5
13B
100
AcDbSymbolTableRecord
100
AcDbLayerTableRecord
  2
画層254
 70
    0
 62
7
  6
CONTINUOUS
  0
LAYER
  5
13C
100
AcDbSymbolTableRecord
100
AcDbLayerTableRecord
  2
画層255
 70
    0
 62
7
  6
CONTINUOUS
  0
ENDTAB
  0
TABLE
  2
STYLE
  5
4
100
AcDbSymbolTable
 70
     1
  0
STYLE
  5
13D
100
AcDbSymbolTableRecord
100
AcDbTextStyleTableRecord
  2
Standard
 70
     0
 40
0.0
 41
1.0
 50
0.0
 71
     0
 42
3.2
  3
TXT
  4
BIGFONT
  0
STYLE
  5
13E
100
AcDbSymbolTableRecord
100
AcDbTextStyleTableRecord
  2
Font_0
 70
     0
 40
0.0
 41
1.0
 50
0.0
 71
     0
 42
3.2
  3
MS Gothic.ttf
  4

1001
ACAD
1000
MS Gothic
1071
  32817
  0
ENDTAB
  0
TABLE
  2
VIEW
  5
5
100
AcDbSymbolTable
 70
     0
  0
ENDTAB
  0
TABLE
  2
UCS
  5
6
100
AcDbSymbolTable
 70
     0
  0
ENDTAB
  0
TABLE
  2
APPID
  5
7
100
AcDbSymbolTable
 70
     1
  0
APPID
  5
13F
100
AcDbSymbolTableRecord
100
AcDbRegAppTableRecord
  2
ACAD
 70
     0
  0
ENDTAB
  0
TABLE
  2
DIMSTYLE
  5
8
100
AcDbSymbolTable
 70
     1
  0
DIMSTYLE
105
2A
100
AcDbSymbolTableRecord
100
AcDbDimStyleTableRecord
  2
STANDARD
 70
     0
  3

  4

  5

  6

  7

 40
1.0
 41
2.5
 42
2.0
 43
7.0
 44
1.25
 45
0.0
 46
0.0
 47
0.0
 48
0.0
 71
     0
 72
     0
 73
     0
 74
     0
 75
     0
 76
     0
 77
     1
 78
     0
140
2.5
141
2.5
142
0.0
143
0.0394
144
1.0
145
0.0
146
1.0
147
1.0
170
     0
171
     2
172
     0
173
     0
174
     1
175
     0
176
     0
177
     0
178
     0
270
     2
271
     2
272
     4
273
     2
274
     2
275
     0
280
     0
281
     0
282
     0
283
     1
284
     0
285
     0
286
     0
287
     3
288
     0
  0
ENDTAB
  0
TABLE
  2
BLOCK_RECORD
  5
9
100
AcDbSymbolTable
 70
     0
  0
BLOCK_RECORD
  5
140
100
AcDbSymbolTableRecord
100
AcDbBlockTableRecord
  2
*MODEL_SPACE
  0
BLOCK_RECORD
  5
141
100
AcDbSymbolTableRecord
100
AcDbBlockTableRecord
  2
*PAPER_SPACE
  0
BLOCK_RECORD
  5
142
100
AcDbSymbolTableRecord
100
AcDbBlockTableRecord
  2
穴注記1
  0
BLOCK_RECORD
  5
143
100
AcDbSymbolTableRecord
100
AcDbBlockTableRecord
  2
穴注記2
  0
BLOCK_RECORD
  5
144
100
AcDbSymbolTableRecord
100
AcDbBlockTableRecord
  2
SW_NOTE_0
  0
BLOCK_RECORD
  5
145
100
AcDbSymbolTableRecord
100
AcDbBlockTableRecord
  2
SW_NOTE_1
  0
BLOCK_RECORD
  5
146
100
AcDbSymbolTableRecord
100
AcDbBlockTableRecord
  2
SW_TABLEANNOTATION_0
  0
BLOCK_RECORD
  5
147
100
AcDbSymbolTableRecord
100
AcDbBlockTableRecord
  2
_OPEN30
  0
ENDTAB
  0
ENDSEC
  0
SECTION
  2
BLOCKS
  0
BLOCK
  5
149
100
AcDbEntity
  8
0
100
AcDbBlockBegin
2
*MODEL_SPACE
 70
     0
 10
0.0
 20
0.0
 30
0.0
  3
*MODEL_SPACE
  1

  0
ENDBLK
  5
14A
100
AcDbEntity
  8
0
100
AcDbBlockEnd
  0
BLOCK
  5
14B
100
AcDbEntity
 67
     1
  8
0
100
AcDbBlockBegin
  2
*PAPER_SPACE
 70
     0
 10
0.0
 20
0.0
 30
0.0
  3
*PAPER_SPACE
  1

  0
ENDBLK
  5
14C
100
AcDbEntity
 67
     1
  8
0
100
AcDbBlockEnd
  0
BLOCK
  5
14D
100
AcDbEntity
  8
0
100
AcDbBlockBegin
  2
穴注記1
 70
    0
 10
0
 20
0
 30
0.0
  3
穴注記1
  1

  0
TEXT
  5
14E
100
AcDbEntity
  8
SYMBOL__ISO_
100
AcDbText
  6
BYLAYER
 10
155.269362632
 20
120.4706754431
 40
3.0000001192
  1
2-1/4-20 UNC深6
  7
Font_0
 11
155.269362632
 21
123.4706755623
100
AcDbText
 73
3
  0
ENDBLK
  5
14F
100
AcDbEntity
  8
0
 67
     1
100
AcDbBlockEnd
  0
BLOCK
  5
150
100
AcDbEntity
  8
0
100
AcDbBlockBegin
  2
穴注記2
 70
    0
 10
0
 20
0
 30
0.0
  3
穴注記2
  1

  0
TEXT
  5
151
100
AcDbEntity
  8
SYMBOL__ISO_
100
AcDbText
  6
BYLAYER
 10
155.8920463629
 20
129.4482415804
 40
3.0000001192
  1
8-M3x0.5深5
  7
Font_0
 11
155.8920463629
 21
132.4482416996
100
AcDbText
 73
3
  0
ENDBLK
  5
152
100
AcDbEntity
  8
0
 67
     1
100
AcDbBlockEnd
  0
BLOCK
  5
153
100
AcDbEntity
  8
0
100
AcDbBlockBegin
  2
SW_NOTE_0
 70
    0
 10
0
 20
0
 30
0.0
  3
SW_NOTE_0
  1

  0
TEXT
  5
154
100
AcDbEntity
  8
0
 62
0
100
AcDbText
  6
BYLAYER
 62
0
 10
-1.83690953073357E-16
 20
0.4909090909
 40
3
  1
一般
  7
Font_0
 11
0
 21
3.4909090909
100
AcDbText
 73
3
  0
TEXT
  5
155
100
AcDbEntity
  8
0
 62
0
100
AcDbText
  6
BYLAYER
 62
0
 10
-1.83690953073357E-16
 20
-3.2090909102
 40
3
  1
公差
  7
Font_0
 11
0
 21
-0.2090909102
100
AcDbText
 73
3
  0
ENDBLK
  5
156
100
AcDbEntity
  8
0
 67
     1
100
AcDbBlockEnd
  0
BLOCK
  5
157
100
AcDbEntity
  8
0
100
AcDbBlockBegin
  2
SW_NOTE_1
 70
    0
 10
0
 20
0
 30
0.0
  3
SW_NOTE_1
  1

  0
TEXT
  5
158
100
AcDbEntity
  8
0
 62
0
100
AcDbText
  6
BYLAYER
 62
0
 10
-1.29604172448243E-16
 20
0.3463636363
 40
2.1166666667
  1
1
  7
Font_0
 11
0
 21
2.463030303
100
AcDbText
 73
3
  0
TEXT
  5
159
100
AcDbEntity
  8
0
 62
0
100
AcDbText
  6
BYLAYER
 62
0
 10
1.4111110941
 20
0.3463636363
 40
2.1166666667
  1
.6
  7
Font_0
 11
1.4111110941
 21
2.463030303
100
AcDbText
 73
3
  0
ENDBLK
  5
15A
100
AcDbEntity
  8
0
 67
     1
100
AcDbBlockEnd
  0
BLOCK
  5
15B
100
AcDbEntity
  8
0
100
AcDbBlockBegin
  2
SW_TABLEANNOTATION_0
 70
    0
 10
0
 20
0
 30
0.0
  3
SW_TABLEANNOTATION_0
  1

  0
LINE
  5
15C
100
AcDbEntity
  8
DIMENSION__ISO_
100
AcDbLine
  6
BYLAYER
 62
0
 10
0
 20
0
 11
0
 21
-65.9569429345
  0
LINE
  5
15D
100
AcDbEntity
  8
DIMENSION__ISO_
100
AcDbLine
  6
BYLAYER
 62
0
 10
0
 20
-65.9569429345
 11
73.5025396541
 21
-65.9569429345
  0
LINE
  5
15E
100
AcDbEntity
  8
DIMENSION__ISO_
100
AcDbLine
  6
BYLAYER
 62
0
 10
73.5025396541
 20
-65.9569429345
 11
73.5025396541
 21
0
  0
LINE
  5
15F
100
AcDbEntity
  8
DIMENSION__ISO_
100
AcDbLine
  6
BYLAYER
 62
0
 10
73.5025396541
 20
0
 11
0
 21
0
  0
LINE
  5
160
100
AcDbEntity
  8
DIMENSION__ISO_
100
AcDbLine
  6
BYLAYER
 62
0
 10
31.8611331942
 20
0
 11
31.8611331942
 21
-65.9569429345
  0
LINE
  5
161
100
AcDbEntity
  8
DIMENSION__ISO_
100
AcDbLine
  6
BYLAYER
 62
0
 10
0
 20
-5.073610995
 11
73.5025396541
 21
-5.073610995
  0
LINE
  5
162
100
AcDbEntity
  8
DIMENSION__ISO_
100
AcDbLine
  6
BYLAYER
 62
0
 10
0
 20
-10.1472219899
 11
73.5025396541
 21
-10.1472219899
  0
LINE
  5
163
100
AcDbEntity
  8
DIMENSION__ISO_
100
AcDbLine
  6
BYLAYER
 62
0
 10
0
 20
-15.2208329849
 11
73.5025396541
 21
-15.2208329849
  0
LINE
  5
164
100
AcDbEntity
  8
DIMENSION__ISO_
100
AcDbLine
  6
BYLAYER
 62
0
 10
0
 20
-20.2944439799
 11
73.5025396541
 21
-20.2944439799
  0
LINE
  5
165
100
AcDbEntity
  8
DIMENSION__ISO_
100
AcDbLine
  6
BYLAYER
 62
0
 10
0
 20
-25.3680549748
 11
73.5025396541
 21
-25.3680549748
  0
LINE
  5
166
100
AcDbEntity
  8
DIMENSION__ISO_
100
AcDbLine
  6
BYLAYER
 62
0
 10
0
 20
-30.4416659698
 11
73.5025396541
 21
-30.4416659698
  0
LINE
  5
167
100
AcDbEntity
  8
DIMENSION__ISO_
100
AcDbLine
  6
BYLAYER
 62
0
 10
0
 20
-35.5152769648
 11
73.5025396541
 21
-35.5152769648
  0
LINE
  5
168
100
AcDbEntity
  8
DIMENSION__ISO_
100
AcDbLine
  6
BYLAYER
 62
0
 10
0
 20
-40.5888879597
 11
73.5025396541
 21
-40.5888879597
  0
LINE
  5
169
100
AcDbEntity
  8
DIMENSION__ISO_
100
AcDbLine
  6
BYLAYER
 62
0
 10
0
 20
-45.6624989547
 11
73.5025396541
 21
-45.6624989547
  0
LINE
  5
16A
100
AcDbEntity
  8
DIMENSION__ISO_
100
AcDbLine
  6
BYLAYER
 62
0
 10
0
 20
-50.7361099496
 11
73.5025396541
 21
-50.7361099496
  0
LINE
  5
16B
100
AcDbEntity
  8
DIMENSION__ISO_
100
AcDbLine
  6
BYLAYER
 62
0
 10
0
 20
-55.8097209446
 11
73.5025396541
 21
-55.8097209446
  0
LINE
  5
16C
100
AcDbEntity
  8
DIMENSION__ISO_
100
AcDbLine
  6
BYLAYER
 62
0
 10
0
 20
-60.8833319396
 11
73.5025396541
 21
-60.8833319396
  0
ENDBLK
  5
16D
100
AcDbEntity
  8
0
 67
     1
100
AcDbBlockEnd
  0
BLOCK
  5
16E
100
AcDbEntity
  8
0
100
AcDbBlockBegin
  2
_OPEN30
 70
    0
 10
0
 20
0
 30
0.0
  3
_OPEN30
  1

  0
LINE
  5
16F
100
AcDbEntity
  8
0
100
AcDbLine
  6
BYBLOCK
 62
0
370
  -2
 10
-1
 20
0.267949
 11
0
 21
0
  0
LINE
  5
170
100
AcDbEntity
  8
0
100
AcDbLine
  6
BYBLOCK
 62
0
370
  -2
 10
0
 20
0
 11
-1
 21
-0.267949
  0
LINE
  5
171
100
AcDbEntity
  8
0
100
AcDbLine
  6
BYBLOCK
 62
0
370
  -2
 10
0
 20
0
 11
-1
 21
0
  0
ENDBLK
  5
172
100
AcDbEntity
  8
0
 67
     1
100
AcDbBlockEnd
  0
ENDSEC
  0
SECTION
  2
ENTITIES
  0
LINE
  5
173
100
AcDbEntity
  8
0
100
AcDbLine
  6
CONTINUOUS
 62
7
370
15
 10
161
 20
15
 11
21
 21
15
  0
LINE
  5
174
100
AcDbEntity
  8
0
100
AcDbLine
  6
CONTINUOUS
 62
7
370
15
 10
21
 20
15
 11
21
 21
275.5
  0
LINE
  5
175
100
AcDbEntity
  8
0
100
AcDbLine
  6
CONTINUOUS
 62
7
370
15
 10
294.5020114515
 20
19.2729041081
 11
297.5020114515
 21
19.2729041081
  0
LINE
  5
176
100
AcDbEntity
  8
0
100
AcDbLine
  6
CONTINUOUS
 62
7
370
15
 10
297.5020114515
 20
19.2729041081
 11
296.0020114515
 21
16.6748278967
  0
LINE
  5
177
100
AcDbEntity
  8
0
100
AcDbLine
  6
CONTINUOUS
 62
7
370
15
 10
294.5020114515
 20
19.2729041081
 11
296.0020114515
 21
16.6748278967
  0
LINE
  5
178
100
AcDbEntity
  8
0
100
AcDbLine
  6
CONTINUOUS
 62
7
370
15
 10
280.5463005651
 20
19.2729041081
 11
283.5463005651
 21
19.2729041081
  0
LINE
  5
179
100
AcDbEntity
  8
0
100
AcDbLine
  6
CONTINUOUS
 62
7
370
15
 10
283.5463005651
 20
19.2729041081
 11
282.0463005651
 21
16.6748278967
  0
LINE
  5
17A
100
AcDbEntity
  8
0
100
AcDbLine
  6
CONTINUOUS
 62
7
370
15
 10
266.455201517
 20
19.4082922699
 11
269.455201517
 21
19.4082922699
  0
LINE
  5
17B
100
AcDbEntity
  8
0
100
AcDbLine
  6
CONTINUOUS
 62
7
370
15
 10
269.455201517
 20
19.4082922699
 11
267.955201517
 21
16.8102160585
  0
LINE
  5
17C
100
AcDbEntity
  8
0
100
AcDbLine
  6
CONTINUOUS
 62
7
370
15
 10
266.455201517
 20
19.4082922699
 11
267.955201517
 21
16.8102160585
  0
LINE
  5
17D
100
AcDbEntity
  8
0
100
AcDbLine
  6
CENTER
 62
7
370
15
 10
269.455201517
 20
19.4082922699
 11
272.455201517
 21
19.4082922699
  0
LINE
  5
17E
100
AcDbEntity
  8
0
100
AcDbLine
  6
CONTINUOUS
 62
7
370
0
 10
383.3333333333
 20
22.25
 11
379.5
 21
22.25
  0
LINE
  5
17F
100
AcDbEntity
  8
0
100
AcDbLine
  6
CONTINUOUS
 62
7
370
15
 10
383.3333333333
 20
15
 11
374.3333333333
 21
15
  0
LINE
  5
180
100
AcDbEntity
  8
0
100
AcDbLine
  6
CONTINUOUS
 62
7
370
0
 10
383.3333333333
 20
15
 11
383.3333333333
 21
22.25
  0
LINE
  5
181
100
AcDbEntity
  8
0
100
AcDbLine
  6
CONTINUOUS
 62
7
370
0
 10
374.3333333333
 20
22.25
 11
369.5
 21
22.25
  0
LINE
  5
182
100
AcDbEntity
  8
0
100
AcDbLine
  6
CONTINUOUS
 62
7
370
15
 10
374.3333333333
 20
15
 11
353.6666666667
 21
15
  0
LINE
  5
183
100
AcDbEntity
  8
0
100
AcDbLine
  6
CONTINUOUS
 62
7
370
0
 10
374.3333333333
 20
15
 11
374.3333333333
 21
22.25
  0
LINE
  5
184
100
AcDbEntity
  8
0
100
AcDbLine
  6
CONTINUOUS
 62
7
370
0
 10
353.6666666667
 20
22.25
 11
358
 21
22.25
  0
LINE
  5
185
100
AcDbEntity
  8
0
100
AcDbLine
  6
CONTINUOUS
 62
7
370
15
 10
353.6666666667
 20
15
 11
344.6666666667
 21
15
  0
LINE
  5
186
100
AcDbEntity
  8
0
100
AcDbLine
  6
CONTINUOUS
 62
7
370
0
 10
353.6666666667
 20
15
 11
353.6666666667
 21
22.25
  0
LINE
  5
187
100
AcDbEntity
  8
0
100
AcDbLine
  6
CONTINUOUS
 62
7
370
15
 10
344.6666666667
 20
15
 11
324
 21
15
  0
LINE
  5
188
100
AcDbEntity
  8
0
100
AcDbLine
  6
CONTINUOUS
 62
7
370
0
 10
344.6666666667
 20
22.25
 11
348
 21
22.25
  0
LINE
  5
189
100
AcDbEntity
  8
0
100
AcDbLine
  6
CONTINUOUS
 62
7
370
0
 10
344.6666666667
 20
22.25
 11
344.6666666667
 21
15
  0
LINE
  5
18A
100
AcDbEntity
  8
0
100
AcDbLine
  6
CONTINUOUS
 62
7
370
15
 10
324
 20
15
 11
315
 21
15
  0
LINE
  5
18B
100
AcDbEntity
  8
0
100
AcDbLine
  6
CONTINUOUS
 62
7
370
0
 10
324
 20
22.25
 11
326.5
 21
22.25
  0
LINE
  5
18C
100
AcDbEntity
  8
0
100
AcDbLine
  6
CONTINUOUS
 62
7
370
0
 10
324
 20
22.25
 11
324
 21
15
  0
LINE
  5
18D
100
AcDbEntity
  8
0
100
AcDbLine
  6
CONTINUOUS
 62
7
370
0
 10
390
 20
22.25
 11
383.3333333333
 21
22.25
  0
LINE
  5
18E
100
AcDbEntity
  8
0
100
AcDbLine
  6
CONTINUOUS
 62
7
370
0
 10
390
 20
29.5
 11
382
 21
29.5
  0
LINE
  5
18F
100
AcDbEntity
  8
0
100
AcDbLine
  6
CONTINUOUS
 62
7
370
0
 10
390
 20
29.5
 11
390
 21
22.25
  0
LINE
  5
190
100
AcDbEntity
  8
0
100
AcDbLine
  6
CONTINUOUS
 62
7
370
0
 10
379.5
 20
22.25
 11
374.3333333333
 21
22.25
  0
LINE
  5
191
100
AcDbEntity
  8
0
100
AcDbLine
  6
CONTINUOUS
 62
7
370
0
 10
379.5
 20
29.5
 11
382
 21
29.5
  0
LINE
  5
192
100
AcDbEntity
  8
0
100
AcDbLine
  6
CONTINUOUS
 62
7
370
0
 10
379.5
 20
29.5
 11
379.5
 21
22.25
  0
LINE
  5
193
100
AcDbEntity
  8
0
100
AcDbLine
  6
CONTINUOUS
 62
7
370
0
 10
369.5
 20
29.5
 11
379.5
 21
29.5
  0
LINE
  5
194
100
AcDbEntity
  8
0
100
AcDbLine
  6
CONTINUOUS
 62
7
370
0
 10
369.5
 20
29.5
 11
369.5
 21
22.25
  0
LINE
  5
195
100
AcDbEntity
  8
0
100
AcDbLine
  6
CONTINUOUS
 62
7
370
0
 10
358
 20
22.25
 11
369.5
 21
22.25
  0
LINE
  5
196
100
AcDbEntity
  8
0
100
AcDbLine
  6
CONTINUOUS
 62
7
370
0
 10
358
 20
29.5
 11
369.5
 21
29.5
  0
LINE
  5
197
100
AcDbEntity
  8
0
100
AcDbLine
  6
CONTINUOUS
 62
7
370
0
 10
358
 20
29.5
 11
358
 21
22.25
  0
LINE
  5
198
100
AcDbEntity
  8
0
100
AcDbLine
  6
CONTINUOUS
 62
7
370
0
 10
348
 20
22.25
 11
353.6666666667
 21
22.25
  0
LINE
  5
199
100
AcDbEntity
  8
0
100
AcDbLine
  6
CONTINUOUS
 62
7
370
0
 10
348
 20
29.5
 11
358
 21
29.5
  0
LINE
  5
19A
100
AcDbEntity
  8
0
100
AcDbLine
  6
CONTINUOUS
 62
7
370
0
 10
348
 20
29.5
 11
348
 21
22.25
  0
LINE
  5
19B
100
AcDbEntity
  8
0
100
AcDbLine
  6
CONTINUOUS
 62
7
370
0
 10
336.5
 20
22.25
 11
344.6666666667
 21
22.25
  0
LINE
  5
19C
100
AcDbEntity
  8
0
100
AcDbLine
  6
CONTINUOUS
 62
7
370
0
 10
336.5
 20
29.5
 11
348
 21
29.5
  0
LINE
  5
19D
100
AcDbEntity
  8
0
100
AcDbLine
  6
CONTINUOUS
 62
7
370
0
 10
336.5
 20
29.5
 11
336.5
 21
22.25
  0
LINE
  5
19E
100
AcDbEntity
  8
0
100
AcDbLine
  6
CONTINUOUS
 62
7
370
0
 10
326.5
 20
22.25
 11
336.5
 21
22.25
  0
LINE
  5
19F
100
AcDbEntity
  8
0
100
AcDbLine
  6
CONTINUOUS
 62
7
370
0
 10
326.5
 20
29.5
 11
336.5
 21
29.5
  0
LINE
  5
1A0
100
AcDbEntity
  8
0
100
AcDbLine
  6
CONTINUOUS
 62
7
370
0
 10
326.5
 20
29.5
 11
326.5
 21
22.25
  0
LINE
  5
1A1
100
AcDbEntity
  8
0
100
AcDbLine
  6
CONTINUOUS
 62
7
370
0
 10
366.6
 20
29.5
 11
366.6
 21
49.3
  0
LINE
  5
1A2
100
AcDbEntity
  8
0
100
AcDbLine
  6
CONTINUOUS
 62
7
370
15
 10
404
 20
15
 11
404
 21
22.25
  0
LINE
  5
1A3
100
AcDbEntity
  8
0
100
AcDbLine
  6
CONTINUOUS
 62
7
370
15
 10
404
 20
275.5
 11
21
 21
275.5
  0
LINE
  5
1A4
100
AcDbEntity
  8
0
100
AcDbLine
  6
CONTINUOUS
 62
7
370
15
 10
280.5463005651
 20
19.2729041081
 11
282.0463005651
 21
16.6748278967
  0
LINE
  5
1A5
100
AcDbEntity
  8
0
100
AcDbLine
  6
CONTINUOUS
 62
7
370
0
 10
161
 20
60
 11
171
 21
60
  0
LINE
  5
1A6
100
AcDbEntity
  8
0
100
AcDbLine
  6
CONTINUOUS
 62
7
370
0
 10
161
 20
60
 11
161
 21
52.5
  0
LINE
  5
1A7
100
AcDbEntity
  8
0
100
AcDbLine
  6
CONTINUOUS
 62
7
370
0
 10
265
 20
60
 11
265
 21
56
  0
LINE
  5
1A8
100
AcDbEntity
  8
0
100
AcDbLine
  6
CONTINUOUS
 62
7
370
15
 10
265
 20
15
 11
277.5
 21
15
  0
LINE
  5
1A9
100
AcDbEntity
  8
0
100
AcDbLine
  6
CONTINUOUS
 62
7
370
0
 10
265
 20
22.5
 11
232.9735538908
 21
22.5
  0
LINE
  5
1AA
100
AcDbEntity
  8
0
100
AcDbLine
  6
CONTINUOUS
 62
7
370
0
 10
265
 20
22.5
 11
265
 21
15
  0
LINE
  5
1AB
100
AcDbEntity
  8
0
100
AcDbLine
  6
CONTINUOUS
 62
7
370
0
 10
161
 20
22.5
 11
161
 21
15
  0
LINE
  5
1AC
100
AcDbEntity
  8
0
100
AcDbLine
  6
CONTINUOUS
 62
7
370
0
 10
265
 20
60
 11
315
 21
60
  0
LINE
  5
1AD
100
AcDbEntity
  8
0
100
AcDbLine
  6
CONTINUOUS
 62
7
370
15
 10
404
 20
60
 11
404
 21
275.5
  0
LINE
  5
1AE
100
AcDbEntity
  8
0
100
AcDbLine
  6
CONTINUOUS
 62
7
370
0
 10
315
 20
60
 11
315
 21
56
  0
LINE
  5
1AF
100
AcDbEntity
  8
0
100
AcDbLine
  6
CONTINUOUS
 62
7
370
0
 10
315
 20
60
 11
404
 21
60
  0
LINE
  5
1B0
100
AcDbEntity
  8
0
100
AcDbLine
  6
CONTINUOUS
 62
7
370
0
 10
251.7569070807
 20
60
 11
251.7569070807
 21
22.5
  0
LINE
  5
1B1
100
AcDbEntity
  8
0
100
AcDbLine
  6
CONTINUOUS
 62
7
370
0
 10
251.7569070807
 20
60
 11
265
 21
60
  0
LINE
  5
1B2
100
AcDbEntity
  8
0
100
AcDbLine
  6
CONTINUOUS
 62
7
370
0
 10
191
 20
60
 11
191
 21
22.5
  0
LINE
  5
1B3
100
AcDbEntity
  8
0
100
AcDbLine
  6
CONTINUOUS
 62
7
370
0
 10
191
 20
60
 11
251.7569070807
 21
60
  0
LINE
  5
1B4
100
AcDbEntity
  8
0
100
AcDbLine
  6
CONTINUOUS
 62
7
370
0
 10
265
 20
56
 11
284.5
 21
56
  0
LINE
  5
1B5
100
AcDbEntity
  8
0
100
AcDbLine
  6
CONTINUOUS
 62
7
370
0
 10
265
 20
56
 11
265
 21
52.5
  0
LINE
  5
1B6
100
AcDbEntity
  8
0
100
AcDbLine
  6
CONTINUOUS
 62
7
370
0
 10
315
 20
56
 11
315
 21
52
  0
LINE
  5
1B7
100
AcDbEntity
  8
0
100
AcDbLine
  6
CONTINUOUS
 62
7
370
0
 10
265
 20
32
 11
284.5
 21
32
  0
LINE
  5
1B8
100
AcDbEntity
  8
0
100
AcDbLine
  6
CONTINUOUS
 62
7
370
0
 10
265
 20
32
 11
265
 21
30
  0
LINE
  5
1B9
100
AcDbEntity
  8
0
100
AcDbLine
  6
CONTINUOUS
 62
7
370
0
 10
315
 20
32
 11
315
 21
29.5
  0
LINE
  5
1BA
100
AcDbEntity
  8
0
100
AcDbLine
  6
CONTINUOUS
 62
7
370
0
 10
265
 20
27.5
 11
277.5
 21
27.5
  0
LINE
  5
1BB
100
AcDbEntity
  8
0
100
AcDbLine
  6
CONTINUOUS
 62
7
370
0
 10
265
 20
27.5
 11
265
 21
23
  0
LINE
  5
1BC
100
AcDbEntity
  8
0
100
AcDbLine
  6
CONTINUOUS
 62
7
370
0
 10
315
 20
27.5
 11
315
 21
20.6139351576
  0
LINE
  5
1BD
100
AcDbEntity
  8
0
100
AcDbLine
  6
CONTINUOUS
 62
7
370
15
 10
404
 20
49.3
 11
404
 21
60
  0
LINE
  5
1BE
100
AcDbEntity
  8
0
100
AcDbLine
  6
CONTINUOUS
 62
7
370
0
 10
315
 20
49.3
 11
315
 21
48
  0
LINE
  5
1BF
100
AcDbEntity
  8
0
100
AcDbLine
  6
CONTINUOUS
 62
7
370
0
 10
265
 20
21.087793724
 11
315
 21
21.087793724
  0
LINE
  5
1C0
100
AcDbEntity
  8
0
100
AcDbLine
  6
CONTINUOUS
 62
7
370
0
 10
265
 20
23
 11
265
 21
22.5
  0
LINE
  5
1C1
100
AcDbEntity
  8
0
100
AcDbLine
  6
CONTINUOUS
 62
7
370
0
 10
315
 20
23
 11
315
 21
22.25
  0
LINE
  5
1C2
100
AcDbEntity
  8
0
100
AcDbLine
  6
CONTINUOUS
 62
7
370
15
 10
404
 20
29.5
 11
404
 21
39.4
  0
LINE
  5
1C3
100
AcDbEntity
  8
0
100
AcDbLine
  6
CONTINUOUS
 62
7
370
0
 10
315
 20
29.5
 11
315
 21
27.5
  0
LINE
  5
1C4
100
AcDbEntity
  8
0
100
AcDbLine
  6
CONTINUOUS
 62
7
370
0
 10
277.5
 20
27.5
 11
277.5
 21
15
  0
LINE
  5
1C5
100
AcDbEntity
  8
0
100
AcDbLine
  6
CONTINUOUS
 62
7
370
0
 10
277.5
 20
27.5
 11
290
 21
27.5
  0
LINE
  5
1C6
100
AcDbEntity
  8
0
100
AcDbLine
  6
CONTINUOUS
 62
7
370
15
 10
277.5
 20
15
 11
290
 21
15
  0
LINE
  5
1C7
100
AcDbEntity
  8
0
100
AcDbLine
  6
CONTINUOUS
 62
7
370
0
 10
290
 20
15
 11
290
 21
27.5
  0
LINE
  5
1C8
100
AcDbEntity
  8
0
100
AcDbLine
  6
CONTINUOUS
 62
7
370
15
 10
290
 20
15
 11
302.5
 21
15
  0
LINE
  5
1C9
100
AcDbEntity
  8
0
100
AcDbLine
  6
CONTINUOUS
 62
7
370
0
 10
290
 20
27.5
 11
302.5
 21
27.5
  0
LINE
  5
1CA
100
AcDbEntity
  8
0
100
AcDbLine
  6
CONTINUOUS
 62
7
370
0
 10
302.5
 20
27.5
 11
302.5
 21
15
  0
LINE
  5
1CB
100
AcDbEntity
  8
0
100
AcDbLine
  6
CONTINUOUS
 62
7
370
0
 10
302.5
 20
27.5
 11
315
 21
27.5
  0
LINE
  5
1CC
100
AcDbEntity
  8
0
100
AcDbLine
  6
CONTINUOUS
 62
7
370
15
 10
302.5
 20
15
 11
315
 21
15
  0
LINE
  5
1CD
100
AcDbEntity
  8
0
100
AcDbLine
  6
CONTINUOUS
 62
7
370
15
 10
404
 20
22.25
 11
404
 21
29.5
  0
LINE
  5
1CE
100
AcDbEntity
  8
0
100
AcDbLine
  6
CONTINUOUS
 62
7
370
0
 10
315
 20
22.25
 11
315
 21
15
  0
LINE
  5
1CF
100
AcDbEntity
  8
0
100
AcDbLine
  6
CONTINUOUS
 62
7
370
0
 10
315
 20
39.4
 11
404
 21
39.4
  0
LINE
  5
1D0
100
AcDbEntity
  8
0
100
AcDbLine
  6
CONTINUOUS
 62
7
370
0
 10
315
 20
39.4
 11
315
 21
36
  0
LINE
  5
1D1
100
AcDbEntity
  8
0
100
AcDbLine
  6
CONTINUOUS
 62
7
370
15
 10
404
 20
39.4
 11
404
 21
49.3
  0
LINE
  5
1D2
100
AcDbEntity
  8
0
100
AcDbLine
  6
CONTINUOUS
 62
7
370
0
 10
404
 20
49.3
 11
382
 21
49.3
  0
LINE
  5
1D3
100
AcDbEntity
  8
0
100
AcDbLine
  6
CONTINUOUS
 62
7
370
0
 10
404
 20
29.5
 11
390
 21
29.5
  0
LINE
  5
1D4
100
AcDbEntity
  8
0
100
AcDbLine
  6
CONTINUOUS
 62
7
370
0
 10
404
 20
22.25
 11
390
 21
22.25
  0
LINE
  5
1D5
100
AcDbEntity
  8
0
100
AcDbLine
  6
CONTINUOUS
 62
7
370
15
 10
404
 20
15
 11
383.3333333333
 21
15
  0
LINE
  5
1D6
100
AcDbEntity
  8
0
100
AcDbLine
  6
CONTINUOUS
 62
7
370
0
 10
330.5
 20
49.3
 11
330.5
 21
29.5
  0
LINE
  5
1D7
100
AcDbEntity
  8
0
100
AcDbLine
  6
CONTINUOUS
 62
7
370
0
 10
330.5
 20
49.3
 11
315
 21
49.3
  0
LINE
  5
1D8
100
AcDbEntity
  8
0
100
AcDbLine
  6
CONTINUOUS
 62
7
370
0
 10
315
 20
29.5
 11
326.5
 21
29.5
  0
LINE
  5
1D9
100
AcDbEntity
  8
0
100
AcDbLine
  6
CONTINUOUS
 62
7
370
0
 10
315
 20
22.25
 11
324
 21
22.25
  0
LINE
  5
1DA
100
AcDbEntity
  8
0
100
AcDbLine
  6
CONTINUOUS
 62
7
370
0
 10
366.6
 20
49.3
 11
330.5
 21
49.3
  0
LINE
  5
1DB
100
AcDbEntity
  8
0
100
AcDbLine
  6
CONTINUOUS
 62
7
370
0
 10
382
 20
49.3
 11
382
 21
29.5
  0
LINE
  5
1DC
100
AcDbEntity
  8
0
100
AcDbLine
  6
CONTINUOUS
 62
7
370
0
 10
382
 20
49.3
 11
366.6
 21
49.3
  0
LINE
  5
1DD
100
AcDbEntity
  8
0
100
AcDbLine
  6
CONTINUOUS
 62
7
370
0
 10
284.5
 20
56
 11
284.5
 21
32
  0
LINE
  5
1DE
100
AcDbEntity
  8
0
100
AcDbLine
  6
CONTINUOUS
 62
7
370
0
 10
284.5
 20
56
 11
294.6666666667
 21
56
  0
LINE
  5
1DF
100
AcDbEntity
  8
0
100
AcDbLine
  6
CONTINUOUS
 62
7
370
0
 10
284.5
 20
32
 11
294.6666666667
 21
32
  0
LINE
  5
1E0
100
AcDbEntity
  8
0
100
AcDbLine
  6
CONTINUOUS
 62
7
370
0
 10
294.6666666667
 20
32
 11
294.6666666667
 21
56
  0
LINE
  5
1E1
100
AcDbEntity
  8
0
100
AcDbLine
  6
CONTINUOUS
 62
7
370
0
 10
294.6666666667
 20
32
 11
304.8333333333
 21
32
  0
LINE
  5
1E2
100
AcDbEntity
  8
0
100
AcDbLine
  6
CONTINUOUS
 62
7
370
0
 10
294.6666666667
 20
56
 11
304.8333333333
 21
56
  0
LINE
  5
1E3
100
AcDbEntity
  8
0
100
AcDbLine
  6
CONTINUOUS
 62
7
370
0
 10
304.8333333333
 20
56
 11
304.8333333333
 21
32
  0
LINE
  5
1E4
100
AcDbEntity
  8
0
100
AcDbLine
  6
CONTINUOUS
 62
7
370
0
 10
304.8333333333
 20
56
 11
315
 21
56
  0
LINE
  5
1E5
100
AcDbEntity
  8
0
100
AcDbLine
  6
CONTINUOUS
 62
7
370
0
 10
304.8333333333
 20
32
 11
315
 21
32
  0
LINE
  5
1E6
100
AcDbEntity
  8
0
100
AcDbLine
  6
CONTINUOUS
 62
7
370
0
 10
171
 20
60
 11
171
 21
22.5
  0
LINE
  5
1E7
100
AcDbEntity
  8
0
100
AcDbLine
  6
CONTINUOUS
 62
7
370
0
 10
171
 20
60
 11
191
 21
60
  0
LINE
  5
1E8
100
AcDbEntity
  8
0
100
AcDbLine
  6
CONTINUOUS
 62
7
370
15
 10
161
 20
15
 11
173.9503430537
 21
15
  0
LINE
  5
1E9
100
AcDbEntity
  8
0
100
AcDbLine
  6
CONTINUOUS
 62
7
370
0
 10
161
 20
52.5
 11
265
 21
52.5
  0
LINE
  5
1EA
100
AcDbEntity
  8
0
100
AcDbLine
  6
CONTINUOUS
 62
7
370
0
 10
161
 20
52.5
 11
161
 21
45
  0
LINE
  5
1EB
100
AcDbEntity
  8
0
100
AcDbLine
  6
CONTINUOUS
 62
7
370
0
 10
265
 20
52.5
 11
265
 21
52
  0
LINE
  5
1EC
100
AcDbEntity
  8
0
100
AcDbLine
  6
CONTINUOUS
 62
7
370
0
 10
265
 20
45
 11
161
 21
45
  0
LINE
  5
1ED
100
AcDbEntity
  8
0
100
AcDbLine
  6
CONTINUOUS
 62
7
370
0
 10
265
 20
45
 11
265
 21
44
  0
LINE
  5
1EE
100
AcDbEntity
  8
0
100
AcDbLine
  6
CONTINUOUS
 62
7
370
0
 10
161
 20
45
 11
161
 21
37.5
  0
LINE
  5
1EF
100
AcDbEntity
  8
0
100
AcDbLine
  6
CONTINUOUS
 62
7
370
0
 10
161
 20
37.5
 11
265
 21
37.5
  0
LINE
  5
1F0
100
AcDbEntity
  8
0
100
AcDbLine
  6
CONTINUOUS
 62
7
370
0
 10
161
 20
37.5
 11
161
 21
30
  0
LINE
  5
1F1
100
AcDbEntity
  8
0
100
AcDbLine
  6
CONTINUOUS
 62
7
370
0
 10
265
 20
37.5
 11
265
 21
36
  0
LINE
  5
1F2
100
AcDbEntity
  8
0
100
AcDbLine
  6
CONTINUOUS
 62
7
370
0
 10
161
 20
30
 11
265
 21
30
  0
LINE
  5
1F3
100
AcDbEntity
  8
0
100
AcDbLine
  6
CONTINUOUS
 62
7
370
0
 10
161
 20
30
 11
161
 21
22.5
  0
LINE
  5
1F4
100
AcDbEntity
  8
0
100
AcDbLine
  6
CONTINUOUS
 62
7
370
0
 10
265
 20
30
 11
265
 21
27.5
  0
LINE
  5
1F5
100
AcDbEntity
  8
0
100
AcDbLine
  6
CONTINUOUS
 62
7
370
0
 10
315
 20
52
 11
265
 21
52
  0
LINE
  5
1F6
100
AcDbEntity
  8
0
100
AcDbLine
  6
CONTINUOUS
 62
7
370
0
 10
315
 20
52
 11
315
 21
49.3
  0
LINE
  5
1F7
100
AcDbEntity
  8
0
100
AcDbLine
  6
CONTINUOUS
 62
7
370
0
 10
265
 20
52
 11
265
 21
48
  0
LINE
  5
1F8
100
AcDbEntity
  8
0
100
AcDbLine
  6
CONTINUOUS
 62
7
370
0
 10
315
 20
48
 11
265
 21
48
  0
LINE
  5
1F9
100
AcDbEntity
  8
0
100
AcDbLine
  6
CONTINUOUS
 62
7
370
0
 10
315
 20
48
 11
315
 21
44
  0
LINE
  5
1FA
100
AcDbEntity
  8
0
100
AcDbLine
  6
CONTINUOUS
 62
7
370
0
 10
265
 20
48
 11
265
 21
45
  0
LINE
  5
1FB
100
AcDbEntity
  8
0
100
AcDbLine
  6
CONTINUOUS
 62
7
370
0
 10
265
 20
44
 11
315
 21
44
  0
LINE
  5
1FC
100
AcDbEntity
  8
0
100
AcDbLine
  6
CONTINUOUS
 62
7
370
0
 10
265
 20
44
 11
265
 21
40
  0
LINE
  5
1FD
100
AcDbEntity
  8
0
100
AcDbLine
  6
CONTINUOUS
 62
7
370
0
 10
315
 20
44
 11
315
 21
40
  0
LINE
  5
1FE
100
AcDbEntity
  8
0
100
AcDbLine
  6
CONTINUOUS
 62
7
370
0
 10
315
 20
40
 11
265
 21
40
  0
LINE
  5
1FF
100
AcDbEntity
  8
0
100
AcDbLine
  6
CONTINUOUS
 62
7
370
0
 10
315
 20
40
 11
315
 21
39.4
  0
LINE
  5
200
100
AcDbEntity
  8
0
100
AcDbLine
  6
CONTINUOUS
 62
7
370
0
 10
265
 20
40
 11
265
 21
37.5
  0
LINE
  5
201
100
AcDbEntity
  8
0
100
AcDbLine
  6
CONTINUOUS
 62
7
370
0
 10
265
 20
36
 11
315
 21
36
  0
LINE
  5
202
100
AcDbEntity
  8
0
100
AcDbLine
  6
CONTINUOUS
 62
7
370
0
 10
265
 20
36
 11
265
 21
32
  0
LINE
  5
203
100
AcDbEntity
  8
0
100
AcDbLine
  6
CONTINUOUS
 62
7
370
0
 10
315
 20
36
 11
315
 21
32
  0
LINE
  5
204
100
AcDbEntity
  8
0
100
AcDbLine
  6
CONTINUOUS
 62
7
370
0
 10
173.9503430537
 20
15
 11
173.9503430537
 21
22.5
  0
LINE
  5
205
100
AcDbEntity
  8
0
100
AcDbLine
  6
CONTINUOUS
 62
7
370
15
 10
173.9503430537
 20
15
 11
186.7632108866
 21
15
  0
LINE
  5
206
100
AcDbEntity
  8
0
100
AcDbLine
  6
CONTINUOUS
 62
7
370
0
 10
173.9503430537
 20
22.5
 11
161
 21
22.5
  0
LINE
  5
207
100
AcDbEntity
  8
0
100
AcDbLine
  6
CONTINUOUS
 62
7
370
0
 10
186.7632108866
 20
22.5
 11
186.7632108866
 21
15
  0
LINE
  5
208
100
AcDbEntity
  8
0
100
AcDbLine
  6
CONTINUOUS
 62
7
370
0
 10
186.7632108866
 20
22.5
 11
173.9503430537
 21
22.5
  0
LINE
  5
209
100
AcDbEntity
  8
0
100
AcDbLine
  6
CONTINUOUS
 62
7
370
15
 10
186.7632108866
 20
15
 11
221.6310151534
 21
15
  0
LINE
  5
20A
100
AcDbEntity
  8
0
100
AcDbLine
  6
CONTINUOUS
 62
7
370
0
 10
221.6310151534
 20
22.5
 11
221.6310151534
 21
15
  0
LINE
  5
20B
100
AcDbEntity
  8
0
100
AcDbLine
  6
CONTINUOUS
 62
7
370
0
 10
221.6310151534
 20
22.5
 11
186.7632108866
 21
22.5
  0
LINE
  5
20C
100
AcDbEntity
  8
0
100
AcDbLine
  6
CONTINUOUS
 62
7
370
15
 10
221.6310151534
 20
15
 11
232.9735538908
 21
15
  0
LINE
  5
20D
100
AcDbEntity
  8
0
100
AcDbLine
  6
CONTINUOUS
 62
7
370
0
 10
232.9735538908
 20
22.5
 11
232.9735538908
 21
15
  0
LINE
  5
20E
100
AcDbEntity
  8
0
100
AcDbLine
  6
CONTINUOUS
 62
7
370
0
 10
232.9735538908
 20
22.5
 11
221.6310151534
 21
22.5
  0
LINE
  5
20F
100
AcDbEntity
  8
0
100
AcDbLine
  6
CONTINUOUS
 62
7
370
15
 10
232.9735538908
 20
15
 11
265
 21
15
  0
LINE
  5
210
100
AcDbEntity
  8
0
100
AcDbLine
  6
CENTER
 62
7
370
15
 10
269.455201517
 20
19.4082922699
 11
270.955201517
 21
16.8102160585
  0
LINE
  5
211
100
AcDbEntity
  8
0
100
AcDbLine
  6
CENTER
 62
7
370
15
 10
272.455201517
 20
19.4082922699
 11
270.955201517
 21
16.8102160585
  0
LINE
  5
212
100
AcDbEntity
  8
0
100
AcDbLine
  6
CENTER
 62
7
370
15
 10
272.455201517
 20
19.4082922699
 11
275.455201517
 21
19.4082922699
  0
LINE
  5
213
100
AcDbEntity
  8
0
100
AcDbLine
  6
CENTER
 62
7
370
15
 10
272.455201517
 20
19.4082922699
 11
273.955201517
 21
16.8102160585
  0
LINE
  5
214
100
AcDbEntity
  8
0
100
AcDbLine
  6
CENTER
 62
7
370
15
 10
275.455201517
 20
19.4082922699
 11
273.955201517
 21
16.8102160585
  0
LINE
  5
215
100
AcDbEntity
  8
0
100
AcDbLine
  6
CENTER
 62
7
370
15
 10
283.5463005651
 20
19.2729041081
 11
286.5463005651
 21
19.2729041081
  0
LINE
  5
216
100
AcDbEntity
  8
0
100
AcDbLine
  6
CENTER
 62
7
370
15
 10
286.5463005651
 20
19.2729041081
 11
285.0463005651
 21
16.6748278967
  0
LINE
  5
217
100
AcDbEntity
  8
0
100
AcDbLine
  6
CENTER
 62
7
370
15
 10
283.5463005651
 20
19.2729041081
 11
285.0463005651
 21
16.6748278967
  0
LINE
  5
218
100
AcDbEntity
  8
0
100
AcDbLine
  6
CONTINUOUS
 62
7
370
15
 10
297.5020114515
 20
24.492264999
 11
296.0020114515
 21
21.8950048289
  0
LINE
  5
219
100
AcDbEntity
  8
0
100
AcDbLine
  6
CONTINUOUS
 62
7
370
15
 10
294.5020114515
 20
24.6435617079
 11
296.0020114515
 21
21.8950048289
  0
LINE
  5
21A
100
AcDbEntity
  8
0
100
AcDbLine
  6
CONTINUOUS
 62
7
370
15
 10
285.0463005651
 20
24.6435617079
 11
283.5463005651
 21
21.6516027322
  0
LINE
  5
21B
100
AcDbEntity
  8
0
100
AcDbLine
  6
CONTINUOUS
 62
7
370
15
 10
282.0463005651
 20
24.6435617079
 11
283.5463005651
 21
21.6516027322
  0
LINE
  5
21C
100
AcDbEntity
  8
0
100
AcDbLine
  6
CONTINUOUS
 62
7
370
15
 10
272.455201517
 20
24.492264999
 11
270.955201517
 21
21.6516027322
  0
LINE
  5
21D
100
AcDbEntity
  8
0
100
AcDbLine
  6
CONTINUOUS
 62
7
370
15
 10
269.455201517
 20
24.492264999
 11
270.955201517
 21
21.6516027322
  0
LINE
  5
21E
100
AcDbEntity
  8
0
100
AcDbLine
  6
CONTINUOUS
 62
7
370
15
 10
310.2556415815
 20
24.2496789436
 11
308.7556415815
 21
21.6516027322
  0
LINE
  5
21F
100
AcDbEntity
  8
0
100
AcDbLine
  6
CONTINUOUS
 62
7
370
15
 10
307.2556415815
 20
24.2496789436
 11
308.7556415815
 21
21.6516027322
  0
LWPOLYLINE
  5
220
100
AcDbEntity
  8
0
 62
8
100
AcDbPolyline
  6
CONTINUOUS
370
15
 90
     37
 10
306.630478438881
  20
17.4500196677625
 10
306.768909133223
  20
17.6155393352848
 10
306.904276801062
  20
17.7740818854566
 10
307.036404744658
  20
17.9221328207829
 10
307.165116266275
  20
18.0561776437688
 10
307.290234668176
  20
18.1727018569191
 10
307.411583252623
  20
18.2681909627389
 10
307.528985321877
  20
18.3391304637331
 10
307.642264178203
  20
18.3820058624066
 10
307.751243123862
  20
18.3933026612646
 10
307.855914966526
  20
18.3707968378283
 10
307.956950535503
  20
18.317426269685
 10
308.055190165511
  20
18.2374193094385
 10
308.151474191268
  20
18.1350043096924
 10
308.246642947491
  20
18.0144096230506
 10
308.341536768898
  20
17.8798636021166
 10
308.436995990207
  20
17.7355945994942
 10
308.533860946135
  20
17.5858309677871
 10
308.6329719714
  20
17.434801059599
 10
308.734951484197
  20
17.2865510837725
 10
308.839550236634
  20
17.1443986741055
 10
308.946301064295
  20
17.0114793206347
 10
309.054736802766
  20
16.8909285133969
 10
309.16439028763
  20
16.7858817424288
 10
309.274794354474
  20
16.6994744977672
 10
309.385481838882
  20
16.6348422694489
 10
309.495985576439
  20
16.5951205475105
 10
309.605838402729
  20
16.5834448219888
 10
309.714665885652
  20
16.601842531728
 10
309.822464522361
  20
16.6479089108024
 10
309.929323542322
  20
16.7181311420935
 10
310.035332175002
  20
16.8089964084829
 10
310.140579649867
  20
16.9169918928523
 10
310.245155196386
  20
17.0386047780834
 10
310.349148044023
  20
17.1703222470577
 10
310.452647422247
  20
17.3086314826569
 10
310.555742560524
  20
17.4500196677625
  0
TEXT
  5
221
100
AcDbEntity
  8
DIMENSION__ISO_
 62
7
100
AcDbText
  6
BYLAYER
 62
7
 10
55.1617358964
 20
79.4225053624
 40
2.38125
  1
倍　率
  7
Font_0
 11
55.1617358964
 21
81.8037553624
100
AcDbText
 73
3
  0
TEXT
  5
222
100
AcDbEntity
  8
DIMENSION__ISO_
 62
7
100
AcDbText
  6
BYLAYER
 62
7
 10
98.8858201739
 20
79.4225053624
 40
2.38125
  1
×10
  7
Font_0
 11
98.8858201739
 21
81.8037553624
100
AcDbText
 73
3
  0
TEXT
  5
223
100
AcDbEntity
  8
DIMENSION__ISO_
 62
7
100
AcDbText
  6
BYLAYER
 62
7
 10
99.4999820257
 20
73.9422798742
 40
2.38125
  1
64mm
  7
Font_0
 11
99.4999820257
 21
76.3235298742
100
AcDbText
 73
3
  0
TEXT
  5
224
100
AcDbEntity
  8
DIMENSION__ISO_
 62
7
100
AcDbText
  6
BYLAYER
 62
7
 10
99.4999820257
 20
69.3128692459
 40
2.38125
  1
0.24
  7
Font_0
 11
99.4999820257
 21
71.6941192459
100
AcDbText
 73
3
  0
TEXT
  5
225
100
AcDbEntity
  8
DIMENSION__ISO_
 62
7
100
AcDbText
  6
BYLAYER
 62
7
 10
55.1617358964
 20
63.9467627303
 40
2.38125
  1
分解能550nm
  7
Font_0
 11
55.1617358964
 21
66.3280127303
100
AcDbText
 73
3
  0
TEXT
  5
226
100
AcDbEntity
  8
DIMENSION__ISO_
 62
7
100
AcDbText
  6
BYLAYER
 62
7
 10
97.9124819285
 20
63.9467627303
 40
2.38125
  1
1.4μm
  7
Font_0
 11
97.9124819285
 21
66.3280127303
100
AcDbText
 73
3
  0
TEXT
  5
227
100
AcDbEntity
  8
DIMENSION__ISO_
 62
7
100
AcDbText
  6
BYLAYER
 62
7
 10
55.1617358964
 20
59.0336591389
 40
2.38125
  1
被写界深度 550nm
  7
Font_0
 11
55.1617358964
 21
61.4149091389
100
AcDbText
 73
3
  0
TEXT
  5
228
100
AcDbEntity
  8
DIMENSION__ISO_
 62
7
100
AcDbText
  6
BYLAYER
 62
7
 10
98.0917079938
 20
59.0336591389
 40
2.38125
  1
13.7μm
  7
Font_0
 11
98.0917079938
 21
61.4149091389
100
AcDbText
 73
3
  0
TEXT
  5
229
100
AcDbEntity
  8
DIMENSION__ISO_
 62
7
100
AcDbText
  6
BYLAYER
 62
7
 10
55.1617358964
 20
53.9740153735
 40
2.38125
  1
有効 Fno.
  7
Font_0
 11
55.1617358964
 21
56.3552653735
100
AcDbText
 73
3
  0
TEXT
  5
22A
100
AcDbEntity
  8
DIMENSION__ISO_
 62
7
100
AcDbText
  6
BYLAYER
 62
7
 10
99.4999820257
 20
53.9740153735
 40
2.38125
  1
20.9
  7
Font_0
 11
99.4999820257
 21
56.3552653735
100
AcDbText
 73
3
  0
TEXT
  5
22B
100
AcDbEntity
  8
DIMENSION__ISO_
 62
7
100
AcDbText
  6
BYLAYER
 62
7
 10
55.4044946817
 20
48.9234058862
 40
2.38125
  1
物像間距離(O-I)
  7
Font_0
 11
55.4044946817
 21
51.3046558862
100
AcDbText
 73
3
  0
TEXT
  5
22C
100
AcDbEntity
  8
DIMENSION__ISO_
 62
7
100
AcDbText
  6
BYLAYER
 62
7
 10
98.7062318607
 20
48.9234058862
 40
2.38125
  1
268mm
  7
Font_0
 11
98.7062318607
 21
51.3046558862
100
AcDbText
 73
3
  0
TEXT
  5
22D
100
AcDbEntity
  8
DIMENSION__ISO_
 62
7
100
AcDbText
  6
BYLAYER
 62
7
 10
55.4044946817
 20
43.325656575
 40
2.38125
  1
撮像サイズ
  7
Font_0
 11
55.4044946817
 21
45.706906575
100
AcDbText
 73
3
  0
TEXT
  5
22E
100
AcDbEntity
  8
DIMENSION__ISO_
 62
7
100
AcDbText
  6
BYLAYER
 62
7
 10
97.0427312983
 20
43.325656575
 40
2.38125
  1
＜2/3"
  7
Font_0
 11
97.0427312983
 21
45.706906575
100
AcDbText
 73
3
  0
TEXT
  5
22F
100
AcDbEntity
  8
DIMENSION__ISO_
 62
7
100
AcDbText
  6
BYLAYER
 62
7
 10
55.4634444785
 20
38.1920321403
 40
2.38125
  1
TVﾃﾞｨｽﾄｰｼｮﾝ
  7
Font_0
 11
55.4634444785
 21
40.5732821403
100
AcDbText
 73
3
  0
TEXT
  5
230
100
AcDbEntity
  8
DIMENSION__ISO_
 62
7
100
AcDbText
  6
BYLAYER
 62
7
 10
97.4558489858
 20
38.5284546838
 40
2.38125
  1
0.024%%%
  7
Font_0
 11
97.4558489858
 21
40.9097046838
100
AcDbText
 73
3
  0
TEXT
  5
231
100
AcDbEntity
  8
DIMENSION__ISO_
 62
7
100
AcDbText
  6
BYLAYER
 62
7
 10
55.4634444785
 20
33.7073766262
 40
2.38125
  1
全長
  7
Font_0
 11
55.4634444785
 21
36.0886266262
100
AcDbText
 73
3
  0
TEXT
  5
232
100
AcDbEntity
  8
DIMENSION__ISO_
 62
7
100
AcDbText
  6
BYLAYER
 62
7
 10
96.6620990536
 20
33.7073766262
 40
2.38125
  1
186.6mm
  7
Font_0
 11
96.6620990536
 21
36.0886266262
100
AcDbText
 73
3
  0
TEXT
  5
233
100
AcDbEntity
  8
DIMENSION__ISO_
 62
7
100
AcDbText
  6
BYLAYER
 62
7
 10
55.4634444785
 20
28.7513955851
 40
2.38125
  1
ﾏｳﾝﾄ
  7
Font_0
 11
55.4634444785
 21
31.1326455851
100
AcDbText
 73
3
  0
TEXT
  5
234
100
AcDbEntity
  8
DIMENSION__ISO_
 62
7
100
AcDbText
  6
BYLAYER
 62
7
 10
99.7684674009
 20
28.7174797267
 40
2.38125
  1
Cﾏｳﾝﾄ
  7
Font_0
 11
99.7684674009
 21
31.0987297267
100
AcDbText
 73
3
  0
TEXT
  5
235
100
AcDbEntity
  8
DIMENSION__ISO_
 62
7
100
AcDbText
  6
BYLAYER
 62
7
 10
55.4634444785
 20
23.7225754618
 40
2.38125
  1
先端径
  7
Font_0
 11
55.4634444785
 21
26.1038254618
100
AcDbText
 73
3
  0
TEXT
  5
236
100
AcDbEntity
  8
DIMENSION__ISO_
 62
7
100
AcDbText
  6
BYLAYER
 62
7
 10
99.043349083
 20
23.7225754618
 40
2.38125
  1
φ43mm
  7
Font_0
 11
99.043349083
 21
26.1038254618
100
AcDbText
 73
3
  0
TEXT
  5
237
100
AcDbEntity
  8
DIMENSION__ISO_
 62
7
100
AcDbText
  6
BYLAYER
 62
7
 10
55.4634444785
 20
18.7013505818
 40
2.38125
  1
質量
  7
Font_0
 11
55.4634444785
 21
21.0826005818
100
AcDbText
 73
3
  0
TEXT
  5
238
100
AcDbEntity
  8
DIMENSION__ISO_
 62
7
100
AcDbText
  6
BYLAYER
 62
7
 10
100.6308491802
 20
18.3626299212
 40
2.38125
  1
512g
  7
Font_0
 11
100.6308491802
 21
20.7438799212
100
AcDbText
 73
3
  0
TEXT
  5
239
100
AcDbEntity
  8
DIMENSION__ISO_
 62
7
100
AcDbText
  6
BYLAYER
 62
7
 10
61.8100863682
 20
85.6809410247
 40
3.5
  1
仕 様
  7
Font_0
 11
61.8100863682
 21
89.1809410247
100
AcDbText
 73
3
  0
TEXT
  5
23A
100
AcDbEntity
  8
0
 62
7
100
AcDbText
  6
BYLAYER
 62
7
 10
398.0528735715
 20
10.1176800467
 40
3.5
  1
A3
  7
Font_0
 11
398.0528735715
 21
13.6176800467
100
AcDbText
 73
3
  0
TEXT
  5
23B
100
AcDbEntity
  8
0
 62
7
100
AcDbText
  6
BYLAYER
 62
7
 10
370.5589626647
 20
10.1315990709
 40
3.5
  1
〔ｍｍ〕
  7
Font_0
 11
370.5589626647
 21
13.6315990709
100
AcDbText
 73
3
  0
TEXT
  5
23C
100
AcDbEntity
  8
0
 62
7
100
AcDbText
  6
BYLAYER
 62
7
 10
360.5598753271
 20
24.038308925
 40
3
  1
仕上
  7
Font_0
 11
360.5598753271
 21
27.038308925
100
AcDbText
 73
3
  0
TEXT
  5
23D
100
AcDbEntity
  8
0
 62
7
100
AcDbText
  6
BYLAYER
 62
7
 10
276.7345323148
 20
28.1710043023
 40
3
  1
仕         上
  7
Font_0
 11
276.7345323148
 21
31.1710043023
100
AcDbText
 73
3
  0
TEXT
  5
23E
100
AcDbEntity
  8
0
 62
7
100
AcDbText
  6
BYLAYER
 62
7
 10
162.4376543937
 20
24.3812966666
 40
3
  1
符号
  7
Font_0
 11
162.4376543937
 21
27.3812966666
100
AcDbText
 73
3
  0
TEXT
  5
23F
100
AcDbEntity
  8
0
 62
7
100
AcDbText
  6
BYLAYER
 62
7
 10
171.8192414679
 20
24.3534799816
 40
3
  1
年　月　日
  7
Font_0
 11
171.8192414679
 21
27.3534799816
100
AcDbText
 73
3
  0
TEXT
  5
240
100
AcDbEntity
  8
0
 62
7
100
AcDbText
  6
BYLAYER
 62
7
 10
205.2524169639
 20
24.3102880661
 40
3
  1
変   更   内   容
  7
Font_0
 11
205.2524169639
 21
27.3102880661
100
AcDbText
 73
3
  0
TEXT
  5
241
100
AcDbEntity
  8
0
 62
7
100
AcDbText
  6
BYLAYER
 62
7
 10
254.7476428436
 20
24.3102880661
 40
3
  1
担 当
  7
Font_0
 11
254.7476428436
 21
27.3102880661
100
AcDbText
 73
3
  0
TEXT
  5
242
100
AcDbEntity
  8
0
 62
7
100
AcDbText
  6
BYLAYER
 62
7
 10
206.3418650732
 20
32.0549382443
 40
3.5
  1
図  面  登  録
  7
Font_0
 11
206.3418650732
 21
35.5549382443
100
AcDbText
 73
3
  0
TEXT
  5
243
100
AcDbEntity
  8
0
 62
7
100
AcDbText
  6
BYLAYER
 62
7
 10
280.83333333335
 20
56.7593473392
 40
2.5
  1
一  般  公  差
  7
Font_0
 11
280.83333333335
 21
59.2593473392
100
AcDbText
 73
3
  0
TEXT
  5
244
100
AcDbEntity
  8
0
 62
7
100
AcDbText
  6
BYLAYER
 62
7
 10
267.25
 20
52.7732889271
 40
2.5
  1
呼び寸法区分
  7
Font_0
 11
267.25
 21
55.2732889271
100
AcDbText
 73
3
  0
TEXT
  5
245
100
AcDbEntity
  8
0
 62
7
100
AcDbText
  6
BYLAYER
 62
7
 10
267.0279122674
 20
40.7570923087
 40
2.5
 41
0.923467397435664
  1
63をこえ250以下
  7
Font_0
 11
267.0279122674
 21
43.2570923087
100
AcDbText
 73
3
  0
TEXT
  5
246
100
AcDbEntity
  8
0
 62
7
100
AcDbText
  6
BYLAYER
 62
7
 10
265.7873906708
 20
36.7224660086
 40
2.5
 41
0.922063463550455
  1
250をこえ500以下
  7
Font_0
 11
265.7873906708
 21
39.2224660086
100
AcDbText
 73
3
  0
TEXT
  5
247
100
AcDbEntity
  8
0
 62
7
100
AcDbText
  6
BYLAYER
 62
7
 10
268.0786997474
 20
44.8646934888
 40
2.5
 41
0.929384355538211
  1
16をこえ63以下
  7
Font_0
 11
268.0786997474
 21
47.3646934888
100
AcDbText
 73
3
  0
TEXT
  5
248
100
AcDbEntity
  8
0
 62
7
100
AcDbText
  6
BYLAYER
 62
7
 10
265.6571779143
 20
32.7468206455
 40
2.5
 41
0.867600400103115
  1
500をこえ1000以下
  7
Font_0
 11
265.6571779143
 21
35.2468206455
100
AcDbText
 73
3
  0
TEXT
  5
249
100
AcDbEntity
  8
0
 62
7
100
AcDbText
  6
BYLAYER
 62
7
 10
286.0933026879
 20
52.777150895
 40
2.5
  1
Ａ　級
  7
Font_0
 11
286.0933026879
 21
55.277150895
100
AcDbText
 73
3
  0
TEXT
  5
24A
100
AcDbEntity
  8
0
 62
7
100
AcDbText
  6
BYLAYER
 62
7
 10
296.3123513361
 20
52.777150895
 40
2.5
  1
Ｂ　級
  7
Font_0
 11
296.3123513361
 21
55.277150895
100
AcDbText
 73
3
  0
TEXT
  5
24B
100
AcDbEntity
  8
0
 62
7
100
AcDbText
  6
BYLAYER
 62
7
 10
306.4527919177
 20
52.7807392727
 40
2.5
  1
Ｃ　級
  7
Font_0
 11
306.4527919177
 21
55.2807392727
100
AcDbText
 73
3
  0
TEXT
  5
24C
100
AcDbEntity
  8
0
 62
7
100
AcDbText
  6
BYLAYER
 62
7
 10
317.2663015457
 20
42.472108028
 40
3
  1
製品名
  7
Font_0
 11
317.2663015457
 21
45.472108028
100
AcDbText
 73
3
  0
TEXT
  5
24D
100
AcDbEntity
  8
0
 62
7
100
AcDbText
  6
BYLAYER
 62
7
 10
316.9309012633
 20
33.1168168637
 40
3
  1
図面番号
  7
Font_0
 11
316.9309012633
 21
36.1168168637
100
AcDbText
 73
3
  0
TEXT
  5
24E
100
AcDbEntity
  8
0
 62
7
100
AcDbText
  6
BYLAYER
 62
7
 10
317.3640727899
 20
24.5129473734
 40
3
  1
個数
  7
Font_0
 11
317.3640727899
 21
27.5129473734
100
AcDbText
 73
3
  0
TEXT
  5
24F
100
AcDbEntity
  8
0
 62
7
100
AcDbText
  6
BYLAYER
 62
7
 10
316
 20
17.2909090316
 40
3
  1
設計
  7
Font_0
 11
316
 21
20.2909090316
100
AcDbText
 73
3
  0
TEXT
  5
250
100
AcDbEntity
  8
0
 62
7
100
AcDbText
  6
BYLAYER
 62
7
 10
346
 20
17.2909090316
 40
3
  1
製図
  7
Font_0
 11
346
 21
20.2909090316
100
AcDbText
 73
3
  0
TEXT
  5
251
100
AcDbEntity
  8
0
 62
7
100
AcDbText
  6
BYLAYER
 62
7
 10
375
 20
17.2909090316
 40
3
  1
承認
  7
Font_0
 11
375
 21
20.2909090316
100
AcDbText
 73
3
  0
TEXT
  5
252
100
AcDbEntity
  8
0
 62
7
100
AcDbText
  6
BYLAYER
 62
7
 10
370.3560871506
 20
43.0028563077
 40
3
  1
材料
  7
Font_0
 11
370.3560871506
 21
46.0028563077
100
AcDbText
 73
3
  0
TEXT
  5
253
100
AcDbEntity
  8
0
 62
7
100
AcDbText
  6
BYLAYER
 62
7
 10
368.205119778
 20
35.2703070027
 40
3
  1
表　面
  7
Font_0
 11
368.205119778
 21
38.2703070027
100
AcDbText
 73
3
  0
TEXT
  5
254
100
AcDbEntity
  8
0
 62
7
100
AcDbText
  6
BYLAYER
 62
7
 10
368.205119778
 20
31.2703070027
 40
3
  1
処　理
  7
Font_0
 11
368.205119778
 21
34.2703070027
100
AcDbText
 73
3
  0
TEXT
  5
255
100
AcDbEntity
  8
0
 62
7
100
AcDbText
  6
BYLAYER
 62
7
 10
380.8313450017
 20
24.1264760024
 40
3
  1
尺度
  7
Font_0
 11
380.8313450017
 21
27.1264760024
100
AcDbText
 73
3
  0
TEXT
  5
256
100
AcDbEntity
  8
0
 62
7
100
AcDbText
  6
BYLAYER
 62
7
 10
164.2797777341
 20
16.6580183471
 40
3.5
  1
原型
  7
Font_0
 11
164.2797777341
 21
20.1580183471
100
AcDbText
 73
3
  0
TEXT
  5
257
100
AcDbEntity
  8
0
 62
7
100
AcDbText
  6
BYLAYER
 62
7
 10
176.2608602039
 20
16.6169123537
 40
3.5
  1
機種
  7
Font_0
 11
176.2608602039
 21
20.1169123537
100
AcDbText
 73
3
  0
TEXT
  5
258
100
AcDbEntity
  8
0
 62
7
100
AcDbText
  6
BYLAYER
 62
7
 10
222.9963207422
 20
16.6169123537
 40
3.5
  1
番号
  7
Font_0
 11
222.9963207422
 21
20.1169123537
100
AcDbText
 73
3
  0
TEXT
  5
259
100
AcDbEntity
  8
0
 62
7
100
AcDbText
  6
BYLAYER
 62
7
 10
277.3926927284
 20
48.7532741857
 40
2.5
 41
0.926697765455826
  1
16以下
  7
Font_0
 11
277.3926927284
 21
51.2532741857
100
AcDbText
 73
3
  0
INSERT
  5
25A
100
AcDbEntity
  8
0
100
AcDbBlockReference
  6
CONTINUOUS
 62
7
370
0
  2
SW_NOTE_0
 10
338.6784857999
 20
25.964097704
 30
0.0
  0
TEXT
  5
25B
100
AcDbEntity
  8
0
 62
7
100
AcDbText
  6
BYLAYER
 62
7
 10
384.6595093175
 20
10.0975215342
 40
3.5
  1
三角法
  7
Font_0
 11
384.6595093175
 21
13.5975215342
100
AcDbText
 73
3
  0
TEXT
  5
25C
100
AcDbEntity
  8
0
 62
7
100
AcDbText
  6
BYLAYER
 62
7
 10
305.6607146333
 20
33.2433577747
 40
1.8520833333
  1
± ４
  7
Font_0
 11
305.6607146333
 21
35.095441108
100
AcDbText
 73
3
  0
TEXT
  5
25D
100
AcDbEntity
  8
0
 62
7
100
AcDbText
  6
BYLAYER
 62
7
 10
305.8093557327
 20
37.2248328767
 40
1.8520833333
  1
± ３
  7
Font_0
 11
305.8093557327
 21
39.07691621
100
AcDbText
 73
3
  0
TEXT
  5
25E
100
AcDbEntity
  8
0
 62
7
100
AcDbText
  6
BYLAYER
 62
7
 10
305.7443852475
 20
40.8789154758
 40
1.8520833333
  1
± ２
  7
Font_0
 11
305.7443852475
 21
42.7309988091
100
AcDbText
 73
3
  0
TEXT
  5
25F
100
AcDbEntity
  8
0
 62
7
100
AcDbText
  6
BYLAYER
 62
7
 10
295.556531117
 20
33.1647739121
 40
1.8520833333
  1
± ２
  7
Font_0
 11
295.556531117
 21
35.0168572454
100
AcDbText
 73
3
  0
TEXT
  5
260
100
AcDbEntity
  8
0
 62
7
100
AcDbText
  6
BYLAYER
 62
7
 10
295.4849318251
 20
37.0176540898
 40
1.8520833333
  1
±１.２
  7
Font_0
 11
295.4849318251
 21
38.8697374231
100
AcDbText
 73
3
  0
TEXT
  5
261
100
AcDbEntity
  8
0
 62
7
100
AcDbText
  6
BYLAYER
 62
7
 10
295.2680178314
 20
40.9402874235
 40
1.8520833333
  1
±０.８
  7
Font_0
 11
295.2680178314
 21
42.7923707568
100
AcDbText
 73
3
  0
TEXT
  5
262
100
AcDbEntity
  8
0
 62
7
100
AcDbText
  6
BYLAYER
 62
7
 10
305.6398675168
 20
45.0287427814
 40
1.8520833333
  1
±１.５
  7
Font_0
 11
305.6398675168
 21
46.8808261147
100
AcDbText
 73
3
  0
TEXT
  5
263
100
AcDbEntity
  8
0
 62
7
100
AcDbText
  6
BYLAYER
 62
7
 10
285.1379307997
 20
32.9709148472
 40
1.8520833333
  1
±０.８
  7
Font_0
 11
285.1379307997
 21
34.8229981805
100
AcDbText
 73
3
  0
TEXT
  5
264
100
AcDbEntity
  8
0
 62
7
100
AcDbText
  6
BYLAYER
 62
7
 10
295.4830775576
 20
44.995703865
 40
1.8520833333
  1
±０.５
  7
Font_0
 11
295.4830775576
 21
46.8477871983
100
AcDbText
 73
3
  0
TEXT
  5
265
100
AcDbEntity
  8
0
 62
7
100
AcDbText
  6
BYLAYER
 62
7
 10
285.2818816018
 20
40.9334579185
 40
1.8520833333
  1
±０.３
  7
Font_0
 11
285.2818816018
 21
42.7855412518
100
AcDbText
 73
3
  0
TEXT
  5
266
100
AcDbEntity
  8
0
 62
7
100
AcDbText
  6
BYLAYER
 62
7
 10
285.0523217969
 20
45.003553931
 40
1.8520833333
  1
±０.２
  7
Font_0
 11
285.0523217969
 21
46.8556372643
100
AcDbText
 73
3
  0
TEXT
  5
267
100
AcDbEntity
  8
0
 62
7
100
AcDbText
  6
BYLAYER
 62
7
 10
285.1408900573
 20
36.9108770441
 40
1.8520833333
  1
±０.５
  7
Font_0
 11
285.1408900573
 21
38.7629603774
100
AcDbText
 73
3
  0
TEXT
  5
268
100
AcDbEntity
  8
0
 62
7
100
AcDbText
  6
BYLAYER
 62
7
 10
305.652943184
 20
48.5829596096
 40
1.8520833333
  1
± １
  7
Font_0
 11
305.652943184
 21
50.4350429429
100
AcDbText
 73
3
  0
TEXT
  5
269
100
AcDbEntity
  8
0
 62
7
100
AcDbText
  6
BYLAYER
 62
7
 10
295.4079716829
 20
49.0606139546
 40
1.8520833333
  1
±０.３
  7
Font_0
 11
295.4079716829
 21
50.9126972879
100
AcDbText
 73
3
  0
TEXT
  5
26A
100
AcDbEntity
  8
0
 62
7
100
AcDbText
  6
BYLAYER
 62
7
 10
285.0746433972
 20
48.8010565184
 40
1.8520833333
  1
±０.１
  7
Font_0
 11
285.0746433972
 21
50.6531398517
100
AcDbText
 73
3
  0
TEXT
  5
26B
100
AcDbEntity
  8
0
 62
7
100
AcDbText
  6
BYLAYER
 62
7
 10
336.870772399931
 20
52.78010797
 40
5
  1
株式会社トキナー
  7
Font_0
 11
336.870772399931
 21
57.78010797
100
AcDbText
 73
3
  0
TEXT
  5
26C
100
AcDbEntity
  8
0
 62
7
100
AcDbText
  6
BYLAYER
 62
7
 10
307.2001501664
 20
24.8176271266
 40
2.1166666667
  1
100
  7
Font_0
 11
307.2001501664
 21
26.9342937933
100
AcDbText
 73
3
  0
TEXT
  5
26D
100
AcDbEntity
  8
0
 62
7
100
AcDbText
  6
BYLAYER
 62
7
 10
295.0301057197
 20
24.8622932503
 40
2.1166666667
  1
25
  7
Font_0
 11
295.0301057197
 21
26.978959917
100
AcDbText
 73
3
  0
TEXT
  5
26E
100
AcDbEntity
  8
0
 62
7
100
AcDbText
  6
BYLAYER
 62
7
 10
282.0145875665
 20
24.7264136832
 40
2.1166666667
  1
6.3
  7
Font_0
 11
282.0145875665
 21
26.8430803499
100
AcDbText
 73
3
  0
INSERT
  5
26F
100
AcDbEntity
  8
0
100
AcDbBlockReference
  6
CONTINUOUS
 62
7
370
0
  2
SW_NOTE_1
 10
269.7950910071
 20
24.4542905517
 30
0.0
  0
TEXT
  5
270
100
AcDbEntity
  8
KCAD_DIMS
 62
96
100
AcDbText
  6
BYLAYER
 62
96
 10
390.7796786811
 20
43.3438567809
 40
3.5
  1
─
  7
Font_0
 11
390.7796786811
 21
46.8438567809
100
AcDbText
 73
3
  0
TEXT
  5
271
100
AcDbEntity
  8
KCAD_DIMS
 62
96
100
AcDbText
  6
BYLAYER
 62
96
 10
351.6474959378
 20
23.9771522016
 40
2.6458333333
  1
─
  7
Font_0
 11
351.6474959378
 21
26.6229855349
100
AcDbText
 73
3
  0
TEXT
  5
272
100
AcDbEntity
  8
KCAD_DIMS
 62
96
100
AcDbText
  6
BYLAYER
 62
96
 10
330.6875814231
 20
24.1263497302
 40
3.5
  1
1
  7
Font_0
 11
330.6875814231
 21
27.6263497302
100
AcDbText
 73
3
  0
TEXT
  5
273
100
AcDbEntity
  8
KCAD_DIMS
 62
96
100
AcDbText
  6
BYLAYER
 62
96
 10
392.9430204145
 20
24.1263497302
 40
3.5
  1
1/1
  7
Font_0
 11
392.9430204145
 21
27.6263497302
100
AcDbText
 73
3
  0
TEXT
  5
274
100
AcDbEntity
  8
KCAD_DIMS
 62
7
100
AcDbText
  6
BYLAYER
 62
7
 10
372.5520738422
 20
24.6829693209
 40
3.5
  1
─
  7
Font_0
 11
372.5520738422
 21
28.1829693209
100
AcDbText
 73
3
  0
TEXT
  5
275
100
AcDbEntity
  8
DIMENSION
 62
7
100
AcDbText
  6
BYLAYER
 62
7
 10
174.0288247652
 20
32.0000992403
 40
2.38125
  1
'10/2/1
  7
Font_0
 11
174.0288247652
 21
34.3813492403
100
AcDbText
 73
3
  0
TEXT
  5
276
100
AcDbEntity
  8
DIMENSION
 62
7
100
AcDbText
  6
BYLAYER
 62
7
 10
255.3385187322
 20
32.6917290971
 40
2.38125
  1
村松
  7
Font_0
 11
255.3385187322
 21
35.0729790971
100
AcDbText
 73
3
  0
TEXT
  5
277
100
AcDbEntity
  8
KCAD_DIMS
 62
7
100
AcDbText
  6
BYLAYER
 62
7
 10
334.8439075578
 20
42.066502173
 40
3.7041666667
  1
KCM-10-64
  7
Font_0
 11
334.8439075578
 21
45.7706688397
100
AcDbText
 73
3
  0
TEXT
  5
278
100
AcDbEntity
  8
KCAD_DIMS
 62
7
100
AcDbText
  6
BYLAYER
 62
7
 10
360.5598753271
 20
17.2359437554
 40
2.38125
  1
村松
  7
Font_0
 11
360.5598753271
 21
19.6171937554
100
AcDbText
 73
3
  0
TEXT
  5
279
100
AcDbEntity
  8
DIMENSION__ISO_
 62
7
100
AcDbText
  6
BYLAYER
 62
7
 10
337.5109221468
 20
33.1166905915
 40
3.5
  1
TSTM-224
  7
Font_0
 11
337.5109221468
 21
36.6166905915
100
AcDbText
 73
3
  0
TEXT
  5
27A
100
AcDbEntity
  8
DIMENSION__ISO_
 62
7
100
AcDbText
  6
BYLAYER
 62
7
 10
193.1895778291
 20
16.6169123537
 40
3.5
  1
K1-10-33
  7
Font_0
 11
193.1895778291
 21
20.1169123537
100
AcDbText
 73
3
  0
TEXT
  5
27B
100
AcDbEntity
  8
DIMENSION__ISO_
 62
7
100
AcDbText
  6
BYLAYER
 62
7
 10
236.3660006122
 20
16.6169123537
 40
3.5
  1
103300-1000
  7
Font_0
 11
236.3660006122
 21
20.1169123537
100
AcDbText
 73
3
  0
INSERT
  5
27C
100
AcDbEntity
  8
DIMENSION__ISO_
100
AcDbBlockReference
  6
BYLAYER
  2
SW_TABLEANNOTATION_0
 10
51.8548361704
 20
83.4569429345
 30
0.0
  0
LINE
  5
27D
100
AcDbEntity
  8
DIMENSION__ISO_
100
AcDbLine
  6
BYLAYER
 62
7
370
0
 10
171.6635385613
 20
180.3504073175
 11
150.4736219855
 21
180.3504073175
  0
LINE
  5
27E
100
AcDbEntity
  8
DIMENSION__ISO_
100
AcDbLine
  6
BYLAYER
 62
7
370
0
 10
176.6422393337
 20
171.2548948241
 11
149.1007734769
 21
171.2548948241
  0
LINE
  5
27F
100
AcDbEntity
  8
VISIBLE__ISO_
100
AcDbLine
  6
BYLAYER
 10
360.8186785426
 20
209.2040530036
 11
360.5176520144
 21
209.2040530036
  0
LINE
  5
280
100
AcDbEntity
  8
VISIBLE__ISO_
100
AcDbLine
  6
BYLAYER
 10
351.1517564352
 20
209.2040530036
 11
350.8507299071
 21
209.2040530036
  0
LINE
  5
281
100
AcDbEntity
  8
VISIBLE__ISO_
100
AcDbLine
  6
BYLAYER
 10
360.5176520144
 20
210.0040530036
 11
360.8186785426
 21
210.0040530036
  0
LINE
  5
282
100
AcDbEntity
  8
VISIBLE__ISO_
100
AcDbLine
  6
BYLAYER
 10
350.8507299071
 20
210.0040530036
 11
351.1517564352
 21
210.0040530036
  0
LINE
  5
283
100
AcDbEntity
  8
VISIBLE__ISO_
100
AcDbLine
  6
BYLAYER
 10
377.8347042248
 20
232.1040530036
 11
378.3347042248
 21
231.6040530036
  0
LINE
  5
284
100
AcDbEntity
  8
VISIBLE__ISO_
100
AcDbLine
  6
BYLAYER
 10
377.8347042248
 20
231.6040530036
 11
377.8347042248
 21
232.1040530036
  0
LINE
  5
285
100
AcDbEntity
  8
VISIBLE__ISO_
100
AcDbLine
  6
BYLAYER
 10
378.3347042248
 20
231.6040530036
 11
377.8347042248
 21
231.6040530036
  0
LINE
  5
286
100
AcDbEntity
  8
VISIBLE__ISO_
100
AcDbLine
  6
BYLAYER
 10
377.8347042248
 20
187.6040530036
 11
378.3347042248
 21
187.6040530036
  0
LINE
  5
287
100
AcDbEntity
  8
VISIBLE__ISO_
100
AcDbLine
  6
BYLAYER
 10
377.8347042248
 20
187.1040530036
 11
377.8347042248
 21
187.6040530036
  0
LINE
  5
288
100
AcDbEntity
  8
VISIBLE__ISO_
100
AcDbLine
  6
BYLAYER
 10
378.3347042248
 20
187.6040530036
 11
377.8347042248
 21
187.1040530036
  0
LINE
  5
289
100
AcDbEntity
  8
VISIBLE__ISO_
100
AcDbLine
  6
BYLAYER
 10
333.8347042248
 20
231.6040530036
 11
333.3347042248
 21
231.6040530036
  0
LINE
  5
28A
100
AcDbEntity
  8
VISIBLE__ISO_
100
AcDbLine
  6
BYLAYER
 10
333.8347042248
 20
232.1040530036
 11
333.8347042248
 21
231.6040530036
  0
LINE
  5
28B
100
AcDbEntity
  8
VISIBLE__ISO_
100
AcDbLine
  6
BYLAYER
 10
333.3347042248
 20
231.6040530036
 11
333.8347042248
 21
232.1040530036
  0
LINE
  5
28C
100
AcDbEntity
  8
VISIBLE__ISO_
100
AcDbLine
  6
BYLAYER
 10
377.8347042248
 20
232.1040530036
 11
333.8347042248
 21
232.1040530036
  0
LINE
  5
28D
100
AcDbEntity
  8
VISIBLE__ISO_
100
AcDbLine
  6
BYLAYER
 10
333.8347042248
 20
231.6040530036
 11
377.8347042248
 21
231.6040530036
  0
LINE
  5
28E
100
AcDbEntity
  8
VISIBLE__ISO_
100
AcDbLine
  6
BYLAYER
 10
333.8347042248
 20
187.1040530036
 11
333.3347042248
 21
187.6040530036
  0
LINE
  5
28F
100
AcDbEntity
  8
VISIBLE__ISO_
100
AcDbLine
  6
BYLAYER
 10
333.8347042248
 20
187.6040530036
 11
333.8347042248
 21
187.1040530036
  0
LINE
  5
290
100
AcDbEntity
  8
VISIBLE__ISO_
100
AcDbLine
  6
BYLAYER
 10
333.3347042248
 20
187.6040530036
 11
333.8347042248
 21
187.6040530036
  0
LINE
  5
291
100
AcDbEntity
  8
VISIBLE__ISO_
100
AcDbLine
  6
BYLAYER
 10
377.8347042248
 20
187.6040530036
 11
333.8347042248
 21
187.6040530036
  0
LINE
  5
292
100
AcDbEntity
  8
VISIBLE__ISO_
100
AcDbLine
  6
BYLAYER
 10
333.8347042248
 20
187.1040530036
 11
377.8347042248
 21
187.1040530036
  0
LINE
  5
293
100
AcDbEntity
  8
VISIBLE__ISO_
100
AcDbLine
  6
BYLAYER
 10
333.8347042248
 20
187.6040530036
 11
333.8347042248
 21
231.6040530036
  0
LINE
  5
294
100
AcDbEntity
  8
VISIBLE__ISO_
100
AcDbLine
  6
BYLAYER
 10
333.3347042248
 20
231.6040530036
 11
333.3347042248
 21
187.6040530036
  0
LINE
  5
295
100
AcDbEntity
  8
VISIBLE__ISO_
100
AcDbLine
  6
BYLAYER
 10
377.8347042248
 20
231.6040530036
 11
377.8347042248
 21
187.6040530036
  0
LINE
  5
296
100
AcDbEntity
  8
VISIBLE__ISO_
100
AcDbLine
  6
BYLAYER
 10
378.3347042248
 20
187.6040530036
 11
378.3347042248
 21
231.6040530036
  0
LINE
  5
297
100
AcDbEntity
  8
VISIBLE__ISO_
100
AcDbLine
  6
BYLAYER
 10
99.0804855168
 20
188.1040530036
 11
99.0804855168
 21
231.1040530036
  0
LINE
  5
298
100
AcDbEntity
  8
VISIBLE__ISO_
100
AcDbLine
  6
BYLAYER
 10
99.2804855168
 20
230.9040530036
 11
99.2804855168
 21
188.3040530036
  0
LINE
  5
299
100
AcDbEntity
  8
VISIBLE__ISO_
100
AcDbLine
  6
BYLAYER
 10
94.3804855168
 20
231.1040530036
 11
94.3804855168
 21
188.1040530036
  0
LINE
  5
29A
100
AcDbEntity
  8
VISIBLE__ISO_
100
AcDbLine
  6
BYLAYER
 10
94.1804855168
 20
188.3040530036
 11
94.1804855168
 21
230.9040530036
  0
LINE
  5
29B
100
AcDbEntity
  8
VISIBLE__ISO_
100
AcDbLine
  6
BYLAYER
 10
99.2804855168
 20
188.3040530036
 11
99.0804855168
 21
188.1040530036
  0
LINE
  5
29C
100
AcDbEntity
  8
VISIBLE__ISO_
100
AcDbLine
  6
BYLAYER
 10
99.2804855168
 20
230.9040530036
 11
99.0804855168
 21
231.1040530036
  0
LINE
  5
29D
100
AcDbEntity
  8
VISIBLE__ISO_
100
AcDbLine
  6
BYLAYER
 10
94.1804855168
 20
230.9040530036
 11
94.3804855168
 21
231.1040530036
  0
LINE
  5
29E
100
AcDbEntity
  8
VISIBLE__ISO_
100
AcDbLine
  6
BYLAYER
 10
94.1804855168
 20
188.3040530036
 11
94.3804855168
 21
188.1040530036
  0
LINE
  5
29F
100
AcDbEntity
  8
VISIBLE__ISO_
100
AcDbLine
  6
BYLAYER
 10
94.3804855168
 20
231.1040530036
 11
99.0804855168
 21
231.1040530036
  0
LINE
  5
2A0
100
AcDbEntity
  8
VISIBLE__ISO_
100
AcDbLine
  6
BYLAYER
 10
94.3804855168
 20
188.1040530036
 11
99.0804855168
 21
188.1040530036
  0
LINE
  5
2A1
100
AcDbEntity
  8
VISIBLE__ISO_
100
AcDbLine
  6
BYLAYER
 10
298.2803855168
 20
199.6040530036
 11
298.2803855168
 21
219.6040530036
  0
LINE
  5
2A2
100
AcDbEntity
  8
VISIBLE__ISO_
100
AcDbLine
  6
BYLAYER
 10
298.2804855168
 20
199.6040530036
 11
298.2804855168
 21
219.6040530036
  0
LINE
  5
2A3
100
AcDbEntity
  8
VISIBLE__ISO_
100
AcDbLine
  6
BYLAYER
 10
30.2303855168
 20
199.6040530036
 11
30.2303855168
 21
219.6040530036
  0
LINE
  5
2A4
100
AcDbEntity
  8
VISIBLE__ISO_
100
AcDbLine
  6
BYLAYER
 10
30.2304855168
 20
199.6040530036
 11
30.2304855168
 21
219.6040530036
  0
LINE
  5
2A5
100
AcDbEntity
  8
VISIBLE__ISO_
100
AcDbLine
  6
BYLAYER
 10
30.2303855168
 20
219.6040530036
 11
30.2304855168
 21
219.6040530036
  0
LINE
  5
2A6
100
AcDbEntity
  8
VISIBLE__ISO_
100
AcDbLine
  6
BYLAYER
 10
30.2303855168
 20
199.6040530036
 11
30.2304855168
 21
199.6040530036
  0
LINE
  5
2A7
100
AcDbEntity
  8
VISIBLE__ISO_
100
AcDbLine
  6
BYLAYER
 10
186.0804855168
 20
188.1040530036
 11
186.0804855168
 21
231.1040530036
  0
LINE
  5
2A8
100
AcDbEntity
  8
VISIBLE__ISO_
100
AcDbLine
  6
BYLAYER
 10
99.4804855168
 20
231.1040530036
 11
99.4804855168
 21
188.1040530036
  0
LINE
  5
2A9
100
AcDbEntity
  8
VISIBLE__ISO_
100
AcDbLine
  6
BYLAYER
 10
99.2804855168
 20
188.3040530036
 11
99.2804855168
 21
230.9040530036
  0
LINE
  5
2AA
100
AcDbEntity
  8
VISIBLE__ISO_
100
AcDbLine
  6
BYLAYER
 10
186.2804855168
 20
188.3040530036
 11
186.0804855168
 21
188.1040530036
  0
LINE
  5
2AB
100
AcDbEntity
  8
VISIBLE__ISO_
100
AcDbLine
  6
BYLAYER
 10
186.2804855168
 20
230.9040530036
 11
186.0804855168
 21
231.1040530036
  0
LINE
  5
2AC
100
AcDbEntity
  8
VISIBLE__ISO_
100
AcDbLine
  6
BYLAYER
 10
99.2804855168
 20
230.9040530036
 11
99.4804855168
 21
231.1040530036
  0
LINE
  5
2AD
100
AcDbEntity
  8
VISIBLE__ISO_
100
AcDbLine
  6
BYLAYER
 10
99.2804855168
 20
188.3040530036
 11
99.4804855168
 21
188.1040530036
  0
LINE
  5
2AE
100
AcDbEntity
  8
VISIBLE__ISO_
100
AcDbLine
  6
BYLAYER
 10
99.4804855168
 20
231.1040530036
 11
121.5969855168
 21
231.1040530036
  0
LINE
  5
2AF
100
AcDbEntity
  8
VISIBLE__ISO_
100
AcDbLine
  6
BYLAYER
 10
123.1639855168
 20
231.1040530036
 11
186.0804855168
 21
231.1040530036
  0
LINE
  5
2B0
100
AcDbEntity
  8
VISIBLE__ISO_
100
AcDbLine
  6
BYLAYER
 10
99.4804855168
 20
188.1040530036
 11
121.5969855168
 21
188.1040530036
  0
LINE
  5
2B1
100
AcDbEntity
  8
VISIBLE__ISO_
100
AcDbLine
  6
BYLAYER
 10
123.1639855168
 20
188.1040530036
 11
186.0804855168
 21
188.1040530036
  0
LINE
  5
2B2
100
AcDbEntity
  8
VISIBLE__ISO_
100
AcDbLine
  6
BYLAYER
 10
284.7544855168
 20
221.9040530036
 11
284.7544855168
 21
197.3040530036
  0
LINE
  5
2B3
100
AcDbEntity
  8
VISIBLE__ISO_
100
AcDbLine
  6
BYLAYER
 10
284.3544855168
 20
196.9040530036
 11
284.3544855168
 21
222.3040530036
  0
LINE
  5
2B4
100
AcDbEntity
  8
VISIBLE__ISO_
100
AcDbLine
  6
BYLAYER
 10
284.7544855168
 20
197.3040530036
 11
284.3544855168
 21
196.9040530036
  0
LINE
  5
2B5
100
AcDbEntity
  8
VISIBLE__ISO_
100
AcDbLine
  6
BYLAYER
 10
284.7544855168
 20
221.9040530036
 11
284.3544855168
 21
222.3040530036
  0
LINE
  5
2B6
100
AcDbEntity
  8
VISIBLE__ISO_
100
AcDbLine
  6
BYLAYER
 10
281.9544855168
 20
196.9040530036
 11
281.9544855168
 21
222.3040530036
  0
LINE
  5
2B7
100
AcDbEntity
  8
VISIBLE__ISO_
100
AcDbLine
  6
BYLAYER
 10
267.9544855168
 20
203.0344051402
 11
267.9544855168
 21
203.0978656064
  0
LINE
  5
2B8
100
AcDbEntity
  8
VISIBLE__ISO_
100
AcDbLine
  6
BYLAYER
 10
268.7544855168
 20
202.9781397747
 11
268.7544855168
 21
203.1603801779
  0
LINE
  5
2B9
100
AcDbEntity
  8
VISIBLE__ISO_
100
AcDbLine
  6
BYLAYER
 10
281.9544855168
 20
222.3040530036
 11
284.3544855168
 21
222.3040530036
  0
LINE
  5
2BA
100
AcDbEntity
  8
VISIBLE__ISO_
100
AcDbLine
  6
BYLAYER
 10
281.9544855168
 20
196.9040530036
 11
284.3544855168
 21
196.9040530036
  0
LINE
  5
2BB
100
AcDbEntity
  8
VISIBLE__ISO_
100
AcDbLine
  6
BYLAYER
 10
271.9544855168
 20
224.6040530036
 11
280.5544855168
 21
224.6040530036
  0
LINE
  5
2BC
100
AcDbEntity
  8
VISIBLE__ISO_
100
AcDbLine
  6
BYLAYER
 10
271.9544855168
 20
194.6040530036
 11
280.5544855168
 21
194.6040530036
  0
LINE
  5
2BD
100
AcDbEntity
  8
VISIBLE__ISO_
100
AcDbLine
  6
BYLAYER
 10
280.7544855168
 20
221.9040530036
 11
281.9544855168
 21
221.9040530036
  0
LINE
  5
2BE
100
AcDbEntity
  8
VISIBLE__ISO_
100
AcDbLine
  6
BYLAYER
 10
280.7544855168
 20
197.3040530036
 11
281.9544855168
 21
197.3040530036
  0
LINE
  5
2BF
100
AcDbEntity
  8
VISIBLE__ISO_
100
AcDbLine
  6
BYLAYER
 10
271.7544855168
 20
194.8040530036
 11
271.7544855168
 21
224.4040530036
  0
LINE
  5
2C0
100
AcDbEntity
  8
VISIBLE__ISO_
100
AcDbLine
  6
BYLAYER
 10
271.9544855168
 20
224.6040530036
 11
271.9544855168
 21
194.6040530036
  0
LINE
  5
2C1
100
AcDbEntity
  8
VISIBLE__ISO_
100
AcDbLine
  6
BYLAYER
 10
280.5544855168
 20
194.6040530036
 11
280.5544855168
 21
224.6040530036
  0
LINE
  5
2C2
100
AcDbEntity
  8
VISIBLE__ISO_
100
AcDbLine
  6
BYLAYER
 10
280.7544855168
 20
224.4040530036
 11
280.7544855168
 21
194.8040530036
  0
LINE
  5
2C3
100
AcDbEntity
  8
VISIBLE__ISO_
100
AcDbLine
  6
BYLAYER
 10
271.7544855168
 20
224.4040530036
 11
271.9544855168
 21
224.6040530036
  0
LINE
  5
2C4
100
AcDbEntity
  8
VISIBLE__ISO_
100
AcDbLine
  6
BYLAYER
 10
271.7544855168
 20
194.8040530036
 11
271.9544855168
 21
194.6040530036
  0
LINE
  5
2C5
100
AcDbEntity
  8
VISIBLE__ISO_
100
AcDbLine
  6
BYLAYER
 10
280.7544855168
 20
194.8040530036
 11
280.5544855168
 21
194.6040530036
  0
LINE
  5
2C6
100
AcDbEntity
  8
VISIBLE__ISO_
100
AcDbLine
  6
BYLAYER
 10
280.7544855168
 20
224.4040530036
 11
280.5544855168
 21
224.6040530036
  0
LINE
  5
2C7
100
AcDbEntity
  8
VISIBLE__ISO_
100
AcDbLine
  6
BYLAYER
 10
226.2804855168
 20
231.6040530036
 11
225.7804855168
 21
231.6040530036
  0
LINE
  5
2C8
100
AcDbEntity
  8
VISIBLE__ISO_
100
AcDbLine
  6
BYLAYER
 10
225.7804855168
 20
232.1040530036
 11
226.2804855168
 21
231.6040530036
  0
LINE
  5
2C9
100
AcDbEntity
  8
VISIBLE__ISO_
100
AcDbLine
  6
BYLAYER
 10
225.7804855168
 20
231.6040530036
 11
225.7804855168
 21
232.1040530036
  0
LINE
  5
2CA
100
AcDbEntity
  8
VISIBLE__ISO_
100
AcDbLine
  6
BYLAYER
 10
226.2804855168
 20
187.6040530036
 11
226.2804855168
 21
231.6040530036
  0
LINE
  5
2CB
100
AcDbEntity
  8
VISIBLE__ISO_
100
AcDbLine
  6
BYLAYER
 10
225.7804855168
 20
231.6040530036
 11
225.7804855168
 21
187.6040530036
  0
LINE
  5
2CC
100
AcDbEntity
  8
VISIBLE__ISO_
100
AcDbLine
  6
BYLAYER
 10
186.7804855168
 20
232.1040530036
 11
186.7804855168
 21
231.6040530036
  0
LINE
  5
2CD
100
AcDbEntity
  8
VISIBLE__ISO_
100
AcDbLine
  6
BYLAYER
 10
186.2804855168
 20
231.6040530036
 11
186.7804855168
 21
232.1040530036
  0
LINE
  5
2CE
100
AcDbEntity
  8
VISIBLE__ISO_
100
AcDbLine
  6
BYLAYER
 10
186.7804855168
 20
231.6040530036
 11
186.2804855168
 21
231.6040530036
  0
LINE
  5
2CF
100
AcDbEntity
  8
VISIBLE__ISO_
100
AcDbLine
  6
BYLAYER
 10
186.2804855168
 20
187.6040530036
 11
186.7804855168
 21
187.6040530036
  0
LINE
  5
2D0
100
AcDbEntity
  8
VISIBLE__ISO_
100
AcDbLine
  6
BYLAYER
 10
186.7804855168
 20
187.1040530036
 11
186.2804855168
 21
187.6040530036
  0
LINE
  5
2D1
100
AcDbEntity
  8
VISIBLE__ISO_
100
AcDbLine
  6
BYLAYER
 10
186.7804855168
 20
187.6040530036
 11
186.7804855168
 21
187.1040530036
  0
LINE
  5
2D2
100
AcDbEntity
  8
VISIBLE__ISO_
100
AcDbLine
  6
BYLAYER
 10
186.7804855168
 20
187.1040530036
 11
225.7804855168
 21
187.1040530036
  0
LINE
  5
2D3
100
AcDbEntity
  8
VISIBLE__ISO_
100
AcDbLine
  6
BYLAYER
 10
225.7804855168
 20
187.6040530036
 11
186.7804855168
 21
187.6040530036
  0
LINE
  5
2D4
100
AcDbEntity
  8
VISIBLE__ISO_
100
AcDbLine
  6
BYLAYER
 10
186.2804855168
 20
231.6040530036
 11
186.2804855168
 21
187.6040530036
  0
LINE
  5
2D5
100
AcDbEntity
  8
VISIBLE__ISO_
100
AcDbLine
  6
BYLAYER
 10
186.7804855168
 20
187.6040530036
 11
186.7804855168
 21
231.6040530036
  0
LINE
  5
2D6
100
AcDbEntity
  8
VISIBLE__ISO_
100
AcDbLine
  6
BYLAYER
 10
225.7804855168
 20
232.1040530036
 11
186.7804855168
 21
232.1040530036
  0
LINE
  5
2D7
100
AcDbEntity
  8
VISIBLE__ISO_
100
AcDbLine
  6
BYLAYER
 10
186.7804855168
 20
231.6040530036
 11
225.7804855168
 21
231.6040530036
  0
LINE
  5
2D8
100
AcDbEntity
  8
VISIBLE__ISO_
100
AcDbLine
  6
BYLAYER
 10
271.7544855168
 20
224.4040530036
 11
271.7544855168
 21
194.8040530036
  0
LINE
  5
2D9
100
AcDbEntity
  8
VISIBLE__ISO_
100
AcDbLine
  6
BYLAYER
 10
271.5544855168
 20
194.6040530036
 11
271.5544855168
 21
224.6040530036
  0
LINE
  5
2DA
100
AcDbEntity
  8
VISIBLE__ISO_
100
AcDbLine
  6
BYLAYER
 10
226.4804855168
 20
224.6040530036
 11
226.4804855168
 21
194.6040530036
  0
LINE
  5
2DB
100
AcDbEntity
  8
VISIBLE__ISO_
100
AcDbLine
  6
BYLAYER
 10
271.7544855168
 20
194.8040530036
 11
271.5544855168
 21
194.6040530036
  0
LINE
  5
2DC
100
AcDbEntity
  8
VISIBLE__ISO_
100
AcDbLine
  6
BYLAYER
 10
271.7544855168
 20
224.4040530036
 11
271.5544855168
 21
224.6040530036
  0
LINE
  5
2DD
100
AcDbEntity
  8
VISIBLE__ISO_
100
AcDbLine
  6
BYLAYER
 10
226.2804855168
 20
224.4040530036
 11
226.4804855168
 21
224.6040530036
  0
LINE
  5
2DE
100
AcDbEntity
  8
VISIBLE__ISO_
100
AcDbLine
  6
BYLAYER
 10
226.2804855168
 20
194.8040530036
 11
226.4804855168
 21
194.6040530036
  0
LINE
  5
2DF
100
AcDbEntity
  8
VISIBLE__ISO_
100
AcDbLine
  6
BYLAYER
 10
226.4804855168
 20
224.6040530036
 11
267.2249855168
 21
224.6040530036
  0
LINE
  5
2E0
100
AcDbEntity
  8
VISIBLE__ISO_
100
AcDbLine
  6
BYLAYER
 10
269.6839855168
 20
224.6040530036
 11
271.5544855168
 21
224.6040530036
  0
LINE
  5
2E1
100
AcDbEntity
  8
VISIBLE__ISO_
100
AcDbLine
  6
BYLAYER
 10
226.4804855168
 20
194.6040530036
 11
271.5544855168
 21
194.6040530036
  0
LINE
  5
2E2
100
AcDbEntity
  8
VISIBLE__ISO_
100
AcDbLine
  6
BYLAYER
 10
99.0804855168
 20
105.6661840259
 11
99.0804855168
 21
148.6661840259
  0
LINE
  5
2E3
100
AcDbEntity
  8
VISIBLE__ISO_
100
AcDbLine
  6
BYLAYER
 10
99.2804855168
 20
148.4661840259
 11
99.2804855168
 21
105.8661840259
  0
LINE
  5
2E4
100
AcDbEntity
  8
VISIBLE__ISO_
100
AcDbLine
  6
BYLAYER
 10
94.3804855168
 20
148.6661840259
 11
94.3804855168
 21
105.6661840259
  0
LINE
  5
2E5
100
AcDbEntity
  8
VISIBLE__ISO_
100
AcDbLine
  6
BYLAYER
 10
94.1804855168
 20
105.8661840259
 11
94.1804855168
 21
148.4661840259
  0
LINE
  5
2E6
100
AcDbEntity
  8
VISIBLE__ISO_
100
AcDbLine
  6
BYLAYER
 10
99.2804855168
 20
105.8661840259
 11
99.0804855168
 21
105.6661840259
  0
LINE
  5
2E7
100
AcDbEntity
  8
VISIBLE__ISO_
100
AcDbLine
  6
BYLAYER
 10
99.2804855168
 20
148.4661840259
 11
99.0804855168
 21
148.6661840259
  0
LINE
  5
2E8
100
AcDbEntity
  8
VISIBLE__ISO_
100
AcDbLine
  6
BYLAYER
 10
94.1804855168
 20
148.4661840259
 11
94.3804855168
 21
148.6661840259
  0
LINE
  5
2E9
100
AcDbEntity
  8
VISIBLE__ISO_
100
AcDbLine
  6
BYLAYER
 10
94.1804855168
 20
105.8661840259
 11
94.3804855168
 21
105.6661840259
  0
LINE
  5
2EA
100
AcDbEntity
  8
VISIBLE__ISO_
100
AcDbLine
  6
BYLAYER
 10
94.3804855168
 20
148.6661840259
 11
99.0804855168
 21
148.6661840259
  0
LINE
  5
2EB
100
AcDbEntity
  8
VISIBLE__ISO_
100
AcDbLine
  6
BYLAYER
 10
94.3804855168
 20
105.6661840259
 11
99.0804855168
 21
105.6661840259
  0
LINE
  5
2EC
100
AcDbEntity
  8
VISIBLE__ISO_
100
AcDbLine
  6
BYLAYER
 10
186.0804855168
 20
105.6661840259
 11
186.0804855168
 21
148.6661840259
  0
LINE
  5
2ED
100
AcDbEntity
  8
VISIBLE__ISO_
100
AcDbLine
  6
BYLAYER
 10
99.4804855168
 20
148.6661840259
 11
99.4804855168
 21
105.6661840259
  0
LINE
  5
2EE
100
AcDbEntity
  8
VISIBLE__ISO_
100
AcDbLine
  6
BYLAYER
 10
99.2804855168
 20
105.8661840259
 11
99.2804855168
 21
148.4661840259
  0
LINE
  5
2EF
100
AcDbEntity
  8
VISIBLE__ISO_
100
AcDbLine
  6
BYLAYER
 10
186.2804855168
 20
105.8661840259
 11
186.0804855168
 21
105.6661840259
  0
LINE
  5
2F0
100
AcDbEntity
  8
VISIBLE__ISO_
100
AcDbLine
  6
BYLAYER
 10
186.2804855168
 20
148.4661840259
 11
186.0804855168
 21
148.6661840259
  0
LINE
  5
2F1
100
AcDbEntity
  8
VISIBLE__ISO_
100
AcDbLine
  6
BYLAYER
 10
99.2804855168
 20
148.4661840259
 11
99.4804855168
 21
148.6661840259
  0
LINE
  5
2F2
100
AcDbEntity
  8
VISIBLE__ISO_
100
AcDbLine
  6
BYLAYER
 10
99.2804855168
 20
105.8661840259
 11
99.4804855168
 21
105.6661840259
  0
LINE
  5
2F3
100
AcDbEntity
  8
VISIBLE__ISO_
100
AcDbLine
  6
BYLAYER
 10
99.4804855168
 20
148.6661840259
 11
121.5969855168
 21
148.6661840259
  0
LINE
  5
2F4
100
AcDbEntity
  8
VISIBLE__ISO_
100
AcDbLine
  6
BYLAYER
 10
123.1639855168
 20
148.6661840259
 11
186.0804855168
 21
148.6661840259
  0
LINE
  5
2F5
100
AcDbEntity
  8
VISIBLE__ISO_
100
AcDbLine
  6
BYLAYER
 10
99.4804855168
 20
105.6661840259
 11
121.5969855168
 21
105.6661840259
  0
LINE
  5
2F6
100
AcDbEntity
  8
VISIBLE__ISO_
100
AcDbLine
  6
BYLAYER
 10
123.1639855168
 20
105.6661840259
 11
186.0804855168
 21
105.6661840259
  0
LINE
  5
2F7
100
AcDbEntity
  8
VISIBLE__ISO_
100
AcDbLine
  6
BYLAYER
 10
284.7544855168
 20
139.4661840259
 11
284.7544855168
 21
114.8661840259
  0
LINE
  5
2F8
100
AcDbEntity
  8
VISIBLE__ISO_
100
AcDbLine
  6
BYLAYER
 10
284.3544855168
 20
114.4661840259
 11
284.3544855168
 21
139.8661840259
  0
LINE
  5
2F9
100
AcDbEntity
  8
VISIBLE__ISO_
100
AcDbLine
  6
BYLAYER
 10
284.7544855168
 20
114.8661840259
 11
284.3544855168
 21
114.4661840259
  0
LINE
  5
2FA
100
AcDbEntity
  8
VISIBLE__ISO_
100
AcDbLine
  6
BYLAYER
 10
284.7544855168
 20
139.4661840259
 11
284.3544855168
 21
139.8661840259
  0
LINE
  5
2FB
100
AcDbEntity
  8
VISIBLE__ISO_
100
AcDbLine
  6
BYLAYER
 10
281.9544855168
 20
114.4661840259
 11
281.9544855168
 21
139.8661840259
  0
LINE
  5
2FC
100
AcDbEntity
  8
VISIBLE__ISO_
100
AcDbLine
  6
BYLAYER
 10
281.9544855168
 20
139.8661840259
 11
284.3544855168
 21
139.8661840259
  0
LINE
  5
2FD
100
AcDbEntity
  8
VISIBLE__ISO_
100
AcDbLine
  6
BYLAYER
 10
281.9544855168
 20
114.4661840259
 11
284.3544855168
 21
114.4661840259
  0
LINE
  5
2FE
100
AcDbEntity
  8
VISIBLE__ISO_
100
AcDbLine
  6
BYLAYER
 10
271.9544855168
 20
142.1661840259
 11
280.5544855168
 21
142.1661840259
  0
LINE
  5
2FF
100
AcDbEntity
  8
VISIBLE__ISO_
100
AcDbLine
  6
BYLAYER
 10
271.9544855168
 20
112.1661840259
 11
280.5544855168
 21
112.1661840259
  0
LINE
  5
300
100
AcDbEntity
  8
VISIBLE__ISO_
100
AcDbLine
  6
BYLAYER
 10
280.7544855168
 20
139.4661840259
 11
281.9544855168
 21
139.4661840259
  0
LINE
  5
301
100
AcDbEntity
  8
VISIBLE__ISO_
100
AcDbLine
  6
BYLAYER
 10
280.7544855168
 20
114.8661840259
 11
281.9544855168
 21
114.8661840259
  0
LINE
  5
302
100
AcDbEntity
  8
VISIBLE__ISO_
100
AcDbLine
  6
BYLAYER
 10
271.7544855168
 20
112.3661840259
 11
271.7544855168
 21
141.9661840259
  0
LINE
  5
303
100
AcDbEntity
  8
VISIBLE__ISO_
100
AcDbLine
  6
BYLAYER
 10
271.9544855168
 20
142.1661840259
 11
271.9544855168
 21
112.1661840259
  0
LINE
  5
304
100
AcDbEntity
  8
VISIBLE__ISO_
100
AcDbLine
  6
BYLAYER
 10
280.5544855168
 20
112.1661840259
 11
280.5544855168
 21
142.1661840259
  0
LINE
  5
305
100
AcDbEntity
  8
VISIBLE__ISO_
100
AcDbLine
  6
BYLAYER
 10
280.7544855168
 20
141.9661840259
 11
280.7544855168
 21
112.3661840259
  0
LINE
  5
306
100
AcDbEntity
  8
VISIBLE__ISO_
100
AcDbLine
  6
BYLAYER
 10
271.7544855168
 20
141.9661840259
 11
271.9544855168
 21
142.1661840259
  0
LINE
  5
307
100
AcDbEntity
  8
VISIBLE__ISO_
100
AcDbLine
  6
BYLAYER
 10
271.7544855168
 20
112.3661840259
 11
271.9544855168
 21
112.1661840259
  0
LINE
  5
308
100
AcDbEntity
  8
VISIBLE__ISO_
100
AcDbLine
  6
BYLAYER
 10
280.7544855168
 20
112.3661840259
 11
280.5544855168
 21
112.1661840259
  0
LINE
  5
309
100
AcDbEntity
  8
VISIBLE__ISO_
100
AcDbLine
  6
BYLAYER
 10
280.7544855168
 20
141.9661840259
 11
280.5544855168
 21
142.1661840259
  0
LINE
  5
30A
100
AcDbEntity
  8
VISIBLE__ISO_
100
AcDbLine
  6
BYLAYER
 10
226.2804855168
 20
105.1661840259
 11
225.7804855168
 21
104.6661840259
  0
LINE
  5
30B
100
AcDbEntity
  8
VISIBLE__ISO_
100
AcDbLine
  6
BYLAYER
 10
225.7804855168
 20
105.1661840259
 11
226.2804855168
 21
105.1661840259
  0
LINE
  5
30C
100
AcDbEntity
  8
VISIBLE__ISO_
100
AcDbLine
  6
BYLAYER
 10
225.7804855168
 20
104.6661840259
 11
225.7804855168
 21
105.1661840259
  0
LINE
  5
30D
100
AcDbEntity
  8
VISIBLE__ISO_
100
AcDbLine
  6
BYLAYER
 10
226.2804855168
 20
105.1661840259
 11
226.2804855168
 21
135.587301947265
  0
LINE
  5
30E
100
AcDbEntity
  8
VISIBLE__ISO_
100
AcDbLine
  6
BYLAYER
 10
226.2804855168
 20
134.1661840259
 11
226.2804855168
 21
149.1661840259
  0
LINE
  5
30F
100
AcDbEntity
  8
VISIBLE__ISO_
100
AcDbLine
  6
BYLAYER
 10
225.7804855168
 20
149.1661840259
 11
225.7804855168
 21
134.1661840259
  0
LINE
  5
310
100
AcDbEntity
  8
VISIBLE__ISO_
100
AcDbLine
  6
BYLAYER
 10
225.7804855168
 20
134.090259746368
 11
225.7804855168
 21
105.1661840259
  0
LINE
  5
311
100
AcDbEntity
  8
VISIBLE__ISO_
100
AcDbLine
  6
BYLAYER
 10
186.7804855168
 20
105.1661840259
 11
186.7804855168
 21
104.6661840259
  0
LINE
  5
312
100
AcDbEntity
  8
VISIBLE__ISO_
100
AcDbLine
  6
BYLAYER
 10
186.2804855168
 20
105.1661840259
 11
186.7804855168
 21
105.1661840259
  0
LINE
  5
313
100
AcDbEntity
  8
VISIBLE__ISO_
100
AcDbLine
  6
BYLAYER
 10
186.7804855168
 20
104.6661840259
 11
186.2804855168
 21
105.1661840259
  0
LINE
  5
314
100
AcDbEntity
  8
VISIBLE__ISO_
100
AcDbLine
  6
BYLAYER
 10
186.2804855168
 20
149.1661840259
 11
186.7804855168
 21
149.6661840259
  0
LINE
  5
315
100
AcDbEntity
  8
VISIBLE__ISO_
100
AcDbLine
  6
BYLAYER
 10
186.7804855168
 20
149.1661840259
 11
186.2804855168
 21
149.1661840259
  0
LINE
  5
316
100
AcDbEntity
  8
VISIBLE__ISO_
100
AcDbLine
  6
BYLAYER
 10
186.7804855168
 20
149.6661840259
 11
186.7804855168
 21
149.1661840259
  0
LINE
  5
317
100
AcDbEntity
  8
VISIBLE__ISO_
100
AcDbLine
  6
BYLAYER
 10
186.7804855168
 20
105.1661840259
 11
186.7804855168
 21
149.1661840259
  0
LINE
  5
318
100
AcDbEntity
  8
VISIBLE__ISO_
100
AcDbLine
  6
BYLAYER
 10
186.2804855168
 20
149.1661840259
 11
186.2804855168
 21
105.1661840259
  0
LINE
  5
319
100
AcDbEntity
  8
VISIBLE__ISO_
100
AcDbLine
  6
BYLAYER
 10
186.7804855168
 20
149.1661840259
 11
225.7804855168
 21
149.1661840259
  0
LINE
  5
31A
100
AcDbEntity
  8
VISIBLE__ISO_
100
AcDbLine
  6
BYLAYER
 10
225.7804855168
 20
149.6661840259
 11
186.7804855168
 21
149.6661840259
  0
LINE
  5
31B
100
AcDbEntity
  8
VISIBLE__ISO_
100
AcDbLine
  6
BYLAYER
 10
225.7804855168
 20
105.1661840259
 11
186.7804855168
 21
105.1661840259
  0
LINE
  5
31C
100
AcDbEntity
  8
VISIBLE__ISO_
100
AcDbLine
  6
BYLAYER
 10
186.7804855168
 20
104.6661840259
 11
225.7804855168
 21
104.6661840259
  0
LINE
  5
31D
100
AcDbEntity
  8
VISIBLE__ISO_
100
AcDbLine
  6
BYLAYER
 10
271.7544855168
 20
141.9661840259
 11
271.7544855168
 21
112.3661840259
  0
LINE
  5
31E
100
AcDbEntity
  8
VISIBLE__ISO_
100
AcDbLine
  6
BYLAYER
 10
271.5544855168
 20
112.1661840259
 11
271.5544855168
 21
142.1661840259
  0
LINE
  5
31F
100
AcDbEntity
  8
VISIBLE__ISO_
100
AcDbLine
  6
BYLAYER
 10
226.4804855168
 20
135.4110839468
 11
226.4804855168
 21
112.1661840259
  0
LINE
  5
320
100
AcDbEntity
  8
VISIBLE__ISO_
100
AcDbLine
  6
BYLAYER
 10
226.4804855168
 20
142.1661840259
 11
226.4804855168
 21
134.1661840259
  0
LINE
  5
321
100
AcDbEntity
  8
VISIBLE__ISO_
100
AcDbLine
  6
BYLAYER
 10
271.7544855168
 20
112.3661840259
 11
271.5544855168
 21
112.1661840259
  0
LINE
  5
322
100
AcDbEntity
  8
VISIBLE__ISO_
100
AcDbLine
  6
BYLAYER
 10
271.7544855168
 20
141.9661840259
 11
271.5544855168
 21
142.1661840259
  0
LINE
  5
323
100
AcDbEntity
  8
VISIBLE__ISO_
100
AcDbLine
  6
BYLAYER
 10
226.2804855168
 20
141.9661840259
 11
226.4804855168
 21
142.1661840259
  0
LINE
  5
324
100
AcDbEntity
  8
VISIBLE__ISO_
100
AcDbLine
  6
BYLAYER
 10
226.2804855168
 20
112.3661840259
 11
226.4804855168
 21
112.1661840259
  0
LINE
  5
325
100
AcDbEntity
  8
VISIBLE__ISO_
100
AcDbLine
  6
BYLAYER
 10
226.4804855168
 20
142.1661840259
 11
271.5544855168
 21
142.1661840259
  0
LINE
  5
326
100
AcDbEntity
  8
VISIBLE__ISO_
100
AcDbLine
  6
BYLAYER
 10
226.4804855168
 20
112.1661840259
 11
271.5544855168
 21
112.1661840259
  0
LINE
  5
327
100
AcDbEntity
  8
CENTER_MARK__ISO_
100
AcDbLine
  6
CONTINUOUS
 10
355.8347042248
 20
209.6040530036
 11
360.9847042248
 21
209.6040530036
  0
LINE
  5
328
100
AcDbEntity
  8
CENTER_MARK__ISO_
100
AcDbLine
  6
CONTINUOUS
 10
362.4847042248
 20
209.6040530036
 11
363.9847042248
 21
209.6040530036
  0
LINE
  5
329
100
AcDbEntity
  8
CENTER_MARK__ISO_
100
AcDbLine
  6
CONTINUOUS
 10
365.4847042248
 20
209.6040530036
 11
373.1347042248
 21
209.6040530036
  0
LINE
  5
32A
100
AcDbEntity
  8
CENTER_MARK__ISO_
100
AcDbLine
  6
CONTINUOUS
 10
355.8347042248
 20
209.6040530036
 11
350.6847042248
 21
209.6040530036
  0
LINE
  5
32B
100
AcDbEntity
  8
CENTER_MARK__ISO_
100
AcDbLine
  6
CONTINUOUS
 10
349.1847042248
 20
209.6040530036
 11
347.6847042248
 21
209.6040530036
  0
LINE
  5
32C
100
AcDbEntity
  8
CENTER_MARK__ISO_
100
AcDbLine
  6
CONTINUOUS
 10
346.1847042248
 20
209.6040530036
 11
338.5347042248
 21
209.6040530036
  0
LINE
  5
32D
100
AcDbEntity
  8
CENTERLINE__ISO_
100
AcDbLine
  6
BYLAYER
 10
355.8347042248
 20
209.6040530036
 11
355.8347042248
 21
216.0040530036
  0
LINE
  5
32E
100
AcDbEntity
  8
CENTERLINE__ISO_
100
AcDbLine
  6
BYLAYER
 10
355.8347042248
 20
217.5040530036
 11
355.8347042248
 21
219.0040530036
  0
LINE
  5
32F
100
AcDbEntity
  8
CENTERLINE__ISO_
100
AcDbLine
  6
BYLAYER
 10
355.8347042248
 20
220.5040530036
 11
355.8347042248
 21
226.9040530036
  0
LINE
  5
330
100
AcDbEntity
  8
CENTERLINE__ISO_
100
AcDbLine
  6
CONTINUOUS
 10
355.8347042248
 20
243.4637804334
 11
355.8347042248
 21
237.4339167185
  0
LINE
  5
331
100
AcDbEntity
  8
CENTERLINE__ISO_
100
AcDbLine
  6
CONTINUOUS
 10
355.8347042248
 20
235.9339167185
 11
355.8347042248
 21
234.4339167185
  0
LINE
  5
332
100
AcDbEntity
  8
CENTERLINE__ISO_
100
AcDbLine
  6
CONTINUOUS
 10
355.8347042248
 20
232.9339167185
 11
355.8347042248
 21
226.9040530036
  0
LINE
  5
333
100
AcDbEntity
  8
CENTERLINE__ISO_
100
AcDbLine
  6
BYLAYER
 10
355.8347042248
 20
209.6040530036
 11
355.8347042248
 21
203.2040530036
  0
LINE
  5
334
100
AcDbEntity
  8
CENTERLINE__ISO_
100
AcDbLine
  6
BYLAYER
 10
355.8347042248
 20
201.7040530036
 11
355.8347042248
 21
200.2040530036
  0
LINE
  5
335
100
AcDbEntity
  8
CENTERLINE__ISO_
100
AcDbLine
  6
BYLAYER
 10
355.8347042248
 20
198.7040530036
 11
355.8347042248
 21
192.3040530036
  0
LINE
  5
336
100
AcDbEntity
  8
CENTERLINE__ISO_
100
AcDbLine
  6
BYLAYER
 10
94.3804855168
 20
127.1661840259
 11
91.8804855168
 21
127.1661840259
  0
LINE
  5
337
100
AcDbEntity
  8
CENTERLINE__ISO_
100
AcDbLine
  6
BYLAYER
 10
284.3544855168
 20
127.1661840259
 11
286.8544855168
 21
127.1661840259
  0
LINE
  5
338
100
AcDbEntity
  8
CENTERLINE__ISO_
100
AcDbLine
  6
BYLAYER
 10
94.3804855168
 20
127.1661840259
 11
96.8804855168
 21
127.1661840259
  0
LINE
  5
339
100
AcDbEntity
  8
CENTERLINE__ISO_
100
AcDbLine
  6
BYLAYER
 10
284.3544855168
 20
127.1661840259
 11
281.8544855168
 21
127.1661840259
  0
LINE
  5
33A
100
AcDbEntity
  8
CENTERLINE__ISO_
100
AcDbLine
  6
CONTINUOUS
 10
96.8804855168
 20
127.1661840259
 11
100.9929400622
 21
127.1661840259
  0
LINE
  5
33B
100
AcDbEntity
  8
CENTERLINE__ISO_
100
AcDbLine
  6
CONTINUOUS
 10
102.4929400622
 20
127.1661840259
 11
103.9929400622
 21
127.1661840259
  0
LINE
  5
33C
100
AcDbEntity
  8
CENTERLINE__ISO_
100
AcDbLine
  6
CONTINUOUS
 10
105.4929400622
 20
127.1661840259
 11
109.6053946077
 21
127.1661840259
  0
LINE
  5
33D
100
AcDbEntity
  8
CENTERLINE__ISO_
100
AcDbLine
  6
CONTINUOUS
 10
111.1053946077
 20
127.1661840259
 11
112.6053946077
 21
127.1661840259
  0
LINE
  5
33E
100
AcDbEntity
  8
CENTERLINE__ISO_
100
AcDbLine
  6
CONTINUOUS
 10
114.1053946077
 20
127.1661840259
 11
118.2178491532
 21
127.1661840259
  0
LINE
  5
33F
100
AcDbEntity
  8
CENTERLINE__ISO_
100
AcDbLine
  6
CONTINUOUS
 10
119.7178491532
 20
127.1661840259
 11
121.2178491532
 21
127.1661840259
  0
LINE
  5
340
100
AcDbEntity
  8
CENTERLINE__ISO_
100
AcDbLine
  6
CONTINUOUS
 10
122.7178491532
 20
127.1661840259
 11
126.8303036986
 21
127.1661840259
  0
LINE
  5
341
100
AcDbEntity
  8
CENTERLINE__ISO_
100
AcDbLine
  6
CONTINUOUS
 10
128.3303036986
 20
127.1661840259
 11
129.8303036986
 21
127.1661840259
  0
LINE
  5
342
100
AcDbEntity
  8
CENTERLINE__ISO_
100
AcDbLine
  6
CONTINUOUS
 10
131.3303036986
 20
127.1661840259
 11
135.4427582441
 21
127.1661840259
  0
LINE
  5
343
100
AcDbEntity
  8
CENTERLINE__ISO_
100
AcDbLine
  6
CONTINUOUS
 10
136.9427582441
 20
127.1661840259
 11
138.4427582441
 21
127.1661840259
  0
LINE
  5
344
100
AcDbEntity
  8
CENTERLINE__ISO_
100
AcDbLine
  6
CONTINUOUS
 10
139.9427582441
 20
127.1661840259
 11
144.0552127895
 21
127.1661840259
  0
LINE
  5
345
100
AcDbEntity
  8
CENTERLINE__ISO_
100
AcDbLine
  6
CONTINUOUS
 10
145.5552127895
 20
127.1661840259
 11
147.0552127895
 21
127.1661840259
  0
LINE
  5
346
100
AcDbEntity
  8
CENTERLINE__ISO_
100
AcDbLine
  6
CONTINUOUS
 10
148.5552127895
 20
127.1661840259
 11
152.667667335
 21
127.1661840259
  0
LINE
  5
347
100
AcDbEntity
  8
CENTERLINE__ISO_
100
AcDbLine
  6
CONTINUOUS
 10
154.167667335
 20
127.1661840259
 11
155.667667335
 21
127.1661840259
  0
LINE
  5
348
100
AcDbEntity
  8
CENTERLINE__ISO_
100
AcDbLine
  6
CONTINUOUS
 10
157.167667335
 20
127.1661840259
 11
161.2801218804
 21
127.1661840259
  0
LINE
  5
349
100
AcDbEntity
  8
CENTERLINE__ISO_
100
AcDbLine
  6
CONTINUOUS
 10
162.7801218804
 20
127.1661840259
 11
164.2801218804
 21
127.1661840259
  0
LINE
  5
34A
100
AcDbEntity
  8
CENTERLINE__ISO_
100
AcDbLine
  6
CONTINUOUS
 10
165.7801218804
 20
127.1661840259
 11
169.8925764259
 21
127.1661840259
  0
LINE
  5
34B
100
AcDbEntity
  8
CENTERLINE__ISO_
100
AcDbLine
  6
CONTINUOUS
 10
171.3925764259
 20
127.1661840259
 11
172.8925764259
 21
127.1661840259
  0
LINE
  5
34C
100
AcDbEntity
  8
CENTERLINE__ISO_
100
AcDbLine
  6
CONTINUOUS
 10
174.3925764259
 20
127.1661840259
 11
178.5050309713
 21
127.1661840259
  0
LINE
  5
34D
100
AcDbEntity
  8
CENTERLINE__ISO_
100
AcDbLine
  6
CONTINUOUS
 10
180.0050309713
 20
127.1661840259
 11
181.5050309713
 21
127.1661840259
  0
LINE
  5
34E
100
AcDbEntity
  8
CENTERLINE__ISO_
100
AcDbLine
  6
CONTINUOUS
 10
183.0050309713
 20
127.1661840259
 11
187.1174855168
 21
127.1661840259
  0
LINE
  5
34F
100
AcDbEntity
  8
CENTERLINE__ISO_
100
AcDbLine
  6
CONTINUOUS
 10
188.6174855168
 20
127.1661840259
 11
190.1174855168
 21
127.1661840259
  0
LINE
  5
350
100
AcDbEntity
  8
CENTERLINE__ISO_
100
AcDbLine
  6
CONTINUOUS
 10
191.6174855168
 20
127.1661840259
 11
195.7299400622
 21
127.1661840259
  0
LINE
  5
351
100
AcDbEntity
  8
CENTERLINE__ISO_
100
AcDbLine
  6
CONTINUOUS
 10
248.904667335
 20
127.1661840259
 11
250.404667335
 21
127.1661840259
  0
LINE
  5
352
100
AcDbEntity
  8
CENTERLINE__ISO_
100
AcDbLine
  6
CONTINUOUS
 10
251.904667335
 20
127.1661840259
 11
256.0171218804
 21
127.1661840259
  0
LINE
  5
353
100
AcDbEntity
  8
CENTERLINE__ISO_
100
AcDbLine
  6
CONTINUOUS
 10
257.5171218804
 20
127.1661840259
 11
259.0171218804
 21
127.1661840259
  0
LINE
  5
354
100
AcDbEntity
  8
CENTERLINE__ISO_
100
AcDbLine
  6
CONTINUOUS
 10
260.5171218804
 20
127.1661840259
 11
264.6295764259
 21
127.1661840259
  0
LINE
  5
355
100
AcDbEntity
  8
CENTERLINE__ISO_
100
AcDbLine
  6
CONTINUOUS
 10
266.1295764259
 20
127.1661840259
 11
267.6295764259
 21
127.1661840259
  0
LINE
  5
356
100
AcDbEntity
  8
CENTERLINE__ISO_
100
AcDbLine
  6
CONTINUOUS
 10
269.1295764259
 20
127.1661840259
 11
273.2420309713
 21
127.1661840259
  0
LINE
  5
357
100
AcDbEntity
  8
CENTERLINE__ISO_
100
AcDbLine
  6
CONTINUOUS
 10
274.7420309713
 20
127.1661840259
 11
276.2420309713
 21
127.1661840259
  0
LINE
  5
358
100
AcDbEntity
  8
CENTERLINE__ISO_
100
AcDbLine
  6
CONTINUOUS
 10
277.7420309713
 20
127.1661840259
 11
281.8544855168
 21
127.1661840259
  0
LINE
  5
359
100
AcDbEntity
  8
CENTERLINE__ISO_
100
AcDbLine
  6
BYLAYER
 10
30.2304855168
 20
209.6040530036
 11
27.7304855168
 21
209.6040530036
  0
LINE
  5
35A
100
AcDbEntity
  8
CENTERLINE__ISO_
100
AcDbLine
  6
BYLAYER
 10
298.2803855168
 20
209.6040530036
 11
300.7803855168
 21
209.6040530036
  0
LINE
  5
35B
100
AcDbEntity
  8
CENTERLINE__ISO_
100
AcDbLine
  6
BYLAYER
 10
30.2304855168
 20
209.6040530036
 11
32.7304855168
 21
209.6040530036
  0
LINE
  5
35C
100
AcDbEntity
  8
CENTERLINE__ISO_
100
AcDbLine
  6
BYLAYER
 10
298.2803855168
 20
209.6040530036
 11
295.7803855168
 21
209.6040530036
  0
LINE
  5
35D
100
AcDbEntity
  8
CENTERLINE__ISO_
100
AcDbLine
  6
CONTINUOUS
 10
32.7304855168
 20
209.6040530036
 11
36.5914198918
 21
209.6040530036
  0
LINE
  5
35E
100
AcDbEntity
  8
CENTERLINE__ISO_
100
AcDbLine
  6
CONTINUOUS
 10
38.0914198918
 20
209.6040530036
 11
39.5914198918
 21
209.6040530036
  0
LINE
  5
35F
100
AcDbEntity
  8
CENTERLINE__ISO_
100
AcDbLine
  6
CONTINUOUS
 10
41.0914198918
 20
209.6040530036
 11
44.9523542668
 21
209.6040530036
  0
LINE
  5
360
100
AcDbEntity
  8
CENTERLINE__ISO_
100
AcDbLine
  6
CONTINUOUS
 10
46.4523542668
 20
209.6040530036
 11
47.9523542668
 21
209.6040530036
  0
LINE
  5
361
100
AcDbEntity
  8
CENTERLINE__ISO_
100
AcDbLine
  6
CONTINUOUS
 10
49.4523542668
 20
209.6040530036
 11
53.3132886418
 21
209.6040530036
  0
LINE
  5
362
100
AcDbEntity
  8
CENTERLINE__ISO_
100
AcDbLine
  6
CONTINUOUS
 10
54.8132886418
 20
209.6040530036
 11
56.3132886418
 21
209.6040530036
  0
LINE
  5
363
100
AcDbEntity
  8
CENTERLINE__ISO_
100
AcDbLine
  6
CONTINUOUS
 10
57.8132886418
 20
209.6040530036
 11
61.6742230168
 21
209.6040530036
  0
LINE
  5
364
100
AcDbEntity
  8
CENTERLINE__ISO_
100
AcDbLine
  6
CONTINUOUS
 10
63.1742230168
 20
209.6040530036
 11
64.6742230168
 21
209.6040530036
  0
LINE
  5
365
100
AcDbEntity
  8
CENTERLINE__ISO_
100
AcDbLine
  6
CONTINUOUS
 10
66.1742230168
 20
209.6040530036
 11
70.0351573918
 21
209.6040530036
  0
LINE
  5
366
100
AcDbEntity
  8
CENTERLINE__ISO_
100
AcDbLine
  6
CONTINUOUS
 10
71.5351573918
 20
209.6040530036
 11
73.0351573918
 21
209.6040530036
  0
LINE
  5
367
100
AcDbEntity
  8
CENTERLINE__ISO_
100
AcDbLine
  6
CONTINUOUS
 10
74.5351573918
 20
209.6040530036
 11
78.3960917668
 21
209.6040530036
  0
LINE
  5
368
100
AcDbEntity
  8
CENTERLINE__ISO_
100
AcDbLine
  6
CONTINUOUS
 10
79.8960917668
 20
209.6040530036
 11
81.3960917668
 21
209.6040530036
  0
LINE
  5
369
100
AcDbEntity
  8
CENTERLINE__ISO_
100
AcDbLine
  6
CONTINUOUS
 10
82.8960917668
 20
209.6040530036
 11
86.7570261418
 21
209.6040530036
  0
LINE
  5
36A
100
AcDbEntity
  8
CENTERLINE__ISO_
100
AcDbLine
  6
CONTINUOUS
 10
88.2570261418
 20
209.6040530036
 11
89.7570261418
 21
209.6040530036
  0
LINE
  5
36B
100
AcDbEntity
  8
CENTERLINE__ISO_
100
AcDbLine
  6
CONTINUOUS
 10
91.2570261418
 20
209.6040530036
 11
95.1179605168
 21
209.6040530036
  0
LINE
  5
36C
100
AcDbEntity
  8
CENTERLINE__ISO_
100
AcDbLine
  6
CONTINUOUS
 10
96.6179605168
 20
209.6040530036
 11
98.1179605168
 21
209.6040530036
  0
LINE
  5
36D
100
AcDbEntity
  8
CENTERLINE__ISO_
100
AcDbLine
  6
CONTINUOUS
 10
99.6179605168
 20
209.6040530036
 11
103.4788948918
 21
209.6040530036
  0
LINE
  5
36E
100
AcDbEntity
  8
CENTERLINE__ISO_
100
AcDbLine
  6
CONTINUOUS
 10
104.9788948918
 20
209.6040530036
 11
106.4788948918
 21
209.6040530036
  0
LINE
  5
36F
100
AcDbEntity
  8
CENTERLINE__ISO_
100
AcDbLine
  6
CONTINUOUS
 10
107.9788948918
 20
209.6040530036
 11
111.8398292668
 21
209.6040530036
  0
LINE
  5
370
100
AcDbEntity
  8
CENTERLINE__ISO_
100
AcDbLine
  6
CONTINUOUS
 10
113.3398292668
 20
209.6040530036
 11
114.8398292668
 21
209.6040530036
  0
LINE
  5
371
100
AcDbEntity
  8
CENTERLINE__ISO_
100
AcDbLine
  6
CONTINUOUS
 10
116.3398292668
 20
209.6040530036
 11
120.2007636418
 21
209.6040530036
  0
LINE
  5
372
100
AcDbEntity
  8
CENTERLINE__ISO_
100
AcDbLine
  6
CONTINUOUS
 10
121.7007636418
 20
209.6040530036
 11
123.2007636418
 21
209.6040530036
  0
LINE
  5
373
100
AcDbEntity
  8
CENTERLINE__ISO_
100
AcDbLine
  6
CONTINUOUS
 10
124.7007636418
 20
209.6040530036
 11
128.5616980168
 21
209.6040530036
  0
LINE
  5
374
100
AcDbEntity
  8
CENTERLINE__ISO_
100
AcDbLine
  6
CONTINUOUS
 10
130.0616980168
 20
209.6040530036
 11
131.5616980168
 21
209.6040530036
  0
LINE
  5
375
100
AcDbEntity
  8
CENTERLINE__ISO_
100
AcDbLine
  6
CONTINUOUS
 10
133.0616980168
 20
209.6040530036
 11
136.9226323918
 21
209.6040530036
  0
LINE
  5
376
100
AcDbEntity
  8
CENTERLINE__ISO_
100
AcDbLine
  6
CONTINUOUS
 10
138.4226323918
 20
209.6040530036
 11
139.9226323918
 21
209.6040530036
  0
LINE
  5
377
100
AcDbEntity
  8
CENTERLINE__ISO_
100
AcDbLine
  6
CONTINUOUS
 10
141.4226323918
 20
209.6040530036
 11
145.2835667668
 21
209.6040530036
  0
LINE
  5
378
100
AcDbEntity
  8
CENTERLINE__ISO_
100
AcDbLine
  6
CONTINUOUS
 10
146.7835667668
 20
209.6040530036
 11
148.2835667668
 21
209.6040530036
  0
LINE
  5
379
100
AcDbEntity
  8
CENTERLINE__ISO_
100
AcDbLine
  6
CONTINUOUS
 10
149.7835667668
 20
209.6040530036
 11
153.6445011418
 21
209.6040530036
  0
LINE
  5
37A
100
AcDbEntity
  8
CENTERLINE__ISO_
100
AcDbLine
  6
CONTINUOUS
 10
155.1445011418
 20
209.6040530036
 11
156.6445011418
 21
209.6040530036
  0
LINE
  5
37B
100
AcDbEntity
  8
CENTERLINE__ISO_
100
AcDbLine
  6
CONTINUOUS
 10
158.1445011418
 20
209.6040530036
 11
162.0054355168
 21
209.6040530036
  0
LINE
  5
37C
100
AcDbEntity
  8
CENTERLINE__ISO_
100
AcDbLine
  6
CONTINUOUS
 10
163.5054355168
 20
209.6040530036
 11
165.0054355168
 21
209.6040530036
  0
LINE
  5
37D
100
AcDbEntity
  8
CENTERLINE__ISO_
100
AcDbLine
  6
CONTINUOUS
 10
166.5054355168
 20
209.6040530036
 11
170.3663698918
 21
209.6040530036
  0
LINE
  5
37E
100
AcDbEntity
  8
CENTERLINE__ISO_
100
AcDbLine
  6
CONTINUOUS
 10
171.8663698918
 20
209.6040530036
 11
173.3663698918
 21
209.6040530036
  0
LINE
  5
37F
100
AcDbEntity
  8
CENTERLINE__ISO_
100
AcDbLine
  6
CONTINUOUS
 10
174.8663698918
 20
209.6040530036
 11
178.7273042668
 21
209.6040530036
  0
LINE
  5
380
100
AcDbEntity
  8
CENTERLINE__ISO_
100
AcDbLine
  6
CONTINUOUS
 10
180.2273042668
 20
209.6040530036
 11
181.7273042668
 21
209.6040530036
  0
LINE
  5
381
100
AcDbEntity
  8
CENTERLINE__ISO_
100
AcDbLine
  6
CONTINUOUS
 10
183.2273042668
 20
209.6040530036
 11
187.0882386418
 21
209.6040530036
  0
LINE
  5
382
100
AcDbEntity
  8
CENTERLINE__ISO_
100
AcDbLine
  6
CONTINUOUS
 10
188.5882386418
 20
209.6040530036
 11
190.0882386418
 21
209.6040530036
  0
LINE
  5
383
100
AcDbEntity
  8
CENTERLINE__ISO_
100
AcDbLine
  6
CONTINUOUS
 10
191.5882386418
 20
209.6040530036
 11
195.4491730168
 21
209.6040530036
  0
LINE
  5
384
100
AcDbEntity
  8
CENTERLINE__ISO_
100
AcDbLine
  6
CONTINUOUS
 10
196.9491730168
 20
209.6040530036
 11
198.4491730168
 21
209.6040530036
  0
LINE
  5
385
100
AcDbEntity
  8
CENTERLINE__ISO_
100
AcDbLine
  6
CONTINUOUS
 10
199.9491730168
 20
209.6040530036
 11
203.8101073918
 21
209.6040530036
  0
LINE
  5
386
100
AcDbEntity
  8
CENTERLINE__ISO_
100
AcDbLine
  6
CONTINUOUS
 10
205.3101073918
 20
209.6040530036
 11
206.8101073918
 21
209.6040530036
  0
LINE
  5
387
100
AcDbEntity
  8
CENTERLINE__ISO_
100
AcDbLine
  6
CONTINUOUS
 10
208.3101073918
 20
209.6040530036
 11
212.1710417668
 21
209.6040530036
  0
LINE
  5
388
100
AcDbEntity
  8
CENTERLINE__ISO_
100
AcDbLine
  6
CONTINUOUS
 10
213.6710417668
 20
209.6040530036
 11
215.1710417668
 21
209.6040530036
  0
LINE
  5
389
100
AcDbEntity
  8
CENTERLINE__ISO_
100
AcDbLine
  6
CONTINUOUS
 10
216.6710417668
 20
209.6040530036
 11
220.5319761418
 21
209.6040530036
  0
LINE
  5
38A
100
AcDbEntity
  8
CENTERLINE__ISO_
100
AcDbLine
  6
CONTINUOUS
 10
222.0319761418
 20
209.6040530036
 11
223.5319761418
 21
209.6040530036
  0
LINE
  5
38B
100
AcDbEntity
  8
CENTERLINE__ISO_
100
AcDbLine
  6
CONTINUOUS
 10
225.0319761418
 20
209.6040530036
 11
228.8929105168
 21
209.6040530036
  0
LINE
  5
38C
100
AcDbEntity
  8
CENTERLINE__ISO_
100
AcDbLine
  6
CONTINUOUS
 10
230.3929105168
 20
209.6040530036
 11
231.8929105168
 21
209.6040530036
  0
LINE
  5
38D
100
AcDbEntity
  8
CENTERLINE__ISO_
100
AcDbLine
  6
CONTINUOUS
 10
233.3929105168
 20
209.6040530036
 11
237.2538448918
 21
209.6040530036
  0
LINE
  5
38E
100
AcDbEntity
  8
CENTERLINE__ISO_
100
AcDbLine
  6
CONTINUOUS
 10
238.7538448918
 20
209.6040530036
 11
240.2538448918
 21
209.6040530036
  0
LINE
  5
38F
100
AcDbEntity
  8
CENTERLINE__ISO_
100
AcDbLine
  6
CONTINUOUS
 10
241.7538448918
 20
209.6040530036
 11
245.6147792668
 21
209.6040530036
  0
LINE
  5
390
100
AcDbEntity
  8
CENTERLINE__ISO_
100
AcDbLine
  6
CONTINUOUS
 10
247.1147792668
 20
209.6040530036
 11
248.6147792668
 21
209.6040530036
  0
LINE
  5
391
100
AcDbEntity
  8
CENTERLINE__ISO_
100
AcDbLine
  6
CONTINUOUS
 10
250.1147792668
 20
209.6040530036
 11
253.9757136418
 21
209.6040530036
  0
LINE
  5
392
100
AcDbEntity
  8
CENTERLINE__ISO_
100
AcDbLine
  6
CONTINUOUS
 10
255.4757136418
 20
209.6040530036
 11
256.9757136418
 21
209.6040530036
  0
LINE
  5
393
100
AcDbEntity
  8
CENTERLINE__ISO_
100
AcDbLine
  6
CONTINUOUS
 10
258.4757136418
 20
209.6040530036
 11
262.3366480168
 21
209.6040530036
  0
LINE
  5
394
100
AcDbEntity
  8
CENTERLINE__ISO_
100
AcDbLine
  6
CONTINUOUS
 10
263.8366480168
 20
209.6040530036
 11
265.3366480168
 21
209.6040530036
  0
LINE
  5
395
100
AcDbEntity
  8
CENTERLINE__ISO_
100
AcDbLine
  6
CONTINUOUS
 10
266.8366480168
 20
209.6040530036
 11
270.6975823918
 21
209.6040530036
  0
LINE
  5
396
100
AcDbEntity
  8
CENTERLINE__ISO_
100
AcDbLine
  6
CONTINUOUS
 10
272.1975823918
 20
209.6040530036
 11
273.6975823918
 21
209.6040530036
  0
LINE
  5
397
100
AcDbEntity
  8
CENTERLINE__ISO_
100
AcDbLine
  6
CONTINUOUS
 10
275.1975823918
 20
209.6040530036
 11
279.0585167668
 21
209.6040530036
  0
LINE
  5
398
100
AcDbEntity
  8
CENTERLINE__ISO_
100
AcDbLine
  6
CONTINUOUS
 10
280.5585167668
 20
209.6040530036
 11
282.0585167668
 21
209.6040530036
  0
LINE
  5
399
100
AcDbEntity
  8
CENTERLINE__ISO_
100
AcDbLine
  6
CONTINUOUS
 10
283.5585167668
 20
209.6040530036
 11
287.4194511418
 21
209.6040530036
  0
LINE
  5
39A
100
AcDbEntity
  8
CENTERLINE__ISO_
100
AcDbLine
  6
CONTINUOUS
 10
288.9194511418
 20
209.6040530036
 11
290.4194511418
 21
209.6040530036
  0
LINE
  5
39B
100
AcDbEntity
  8
CENTERLINE__ISO_
100
AcDbLine
  6
CONTINUOUS
 10
291.9194511418
 20
209.6040530036
 11
295.7803855168
 21
209.6040530036
  0
LINE
  5
39C
100
AcDbEntity
  8
CENTER_MARK__ISO_
100
AcDbLine
  6
CONTINUOUS
 10
206.2804855168
 20
209.6040530036
 11
211.9554855168
 21
209.6040530036
  0
LINE
  5
39D
100
AcDbEntity
  8
CENTER_MARK__ISO_
100
AcDbLine
  6
CONTINUOUS
 10
206.2804855168
 20
209.6040530036
 11
200.6054855168
 21
209.6040530036
  0
LINE
  5
39E
100
AcDbEntity
  8
CENTER_MARK__ISO_
100
AcDbLine
  6
CONTINUOUS
 10
206.2804855168
 20
209.6040530036
 11
206.2804855168
 21
215.2790530036
  0
LINE
  5
39F
100
AcDbEntity
  8
CENTER_MARK__ISO_
100
AcDbLine
  6
CONTINUOUS
 10
206.2804855168
 20
209.6040530036
 11
206.2804855168
 21
203.9290530036
  0
LINE
  5
3A0
100
AcDbEntity
  8
CENTER_MARK__ISO_
100
AcDbLine
  6
CONTINUOUS
 10
206.2804855168
 20
209.6040530036
 11
206.2804855168
 21
203.5291000511
  0
LINE
  5
3A1
100
AcDbEntity
  8
CENTER_MARK__ISO_
100
AcDbLine
  6
CONTINUOUS
 10
206.2804855168
 20
202.0291000511
 11
206.2804855168
 21
200.5291000511
  0
LINE
  5
3A2
100
AcDbEntity
  8
CENTER_MARK__ISO_
100
AcDbLine
  6
CONTINUOUS
 10
206.2804855168
 20
199.0291000511
 11
206.2804855168
 21
175.4094893922
  0
LINE
  5
3A3
100
AcDbEntity
  8
CENTER_MARK__ISO_
100
AcDbLine
  6
CONTINUOUS
 10
191.2804855168
 20
224.6040530036
 11
187.5509855168
 21
224.6040530036
  0
LINE
  5
3A4
100
AcDbEntity
  8
CENTER_MARK__ISO_
100
AcDbLine
  6
CONTINUOUS
 10
191.2804855168
 20
224.6040530036
 11
195.0099855168
 21
224.6040530036
  0
LINE
  5
3A5
100
AcDbEntity
  8
CENTER_MARK__ISO_
100
AcDbLine
  6
CONTINUOUS
 10
221.2804855168
 20
224.6040530036
 11
225.2804855168
 21
224.6040530036
  0
LINE
  5
3A6
100
AcDbEntity
  8
CENTER_MARK__ISO_
100
AcDbLine
  6
CONTINUOUS
 10
221.2804855168
 20
224.6040530036
 11
217.2804855168
 21
224.6040530036
  0
LINE
  5
3A7
100
AcDbEntity
  8
CENTERLINE__ISO_
100
AcDbLine
  6
BYLAYER
 10
191.2804855168
 20
224.6040530036
 11
187.5509855168
 21
224.6040530036
  0
LINE
  5
3A8
100
AcDbEntity
  8
CENTERLINE__ISO_
100
AcDbLine
  6
BYLAYER
 10
221.2804855168
 20
224.6040530036
 11
225.2804855168
 21
224.6040530036
  0
LINE
  5
3A9
100
AcDbEntity
  8
CENTERLINE__ISO_
100
AcDbLine
  6
BYLAYER
 10
191.2804855168
 20
224.6040530036
 11
195.0099855168
 21
224.6040530036
  0
LINE
  5
3AA
100
AcDbEntity
  8
CENTERLINE__ISO_
100
AcDbLine
  6
BYLAYER
 10
221.2804855168
 20
224.6040530036
 11
217.2804855168
 21
224.6040530036
  0
LINE
  5
3AB
100
AcDbEntity
  8
CENTERLINE__ISO_
100
AcDbLine
  6
CONTINUOUS
 10
195.0099855168
 20
224.6040530036
 11
199.4334855168
 21
224.6040530036
  0
LINE
  5
3AC
100
AcDbEntity
  8
CENTERLINE__ISO_
100
AcDbLine
  6
CONTINUOUS
 10
200.9334855168
 20
224.6040530036
 11
202.4334855168
 21
224.6040530036
  0
LINE
  5
3AD
100
AcDbEntity
  8
CENTERLINE__ISO_
100
AcDbLine
  6
CONTINUOUS
 10
203.9334855168
 20
224.6040530036
 11
208.3569855168
 21
224.6040530036
  0
LINE
  5
3AE
100
AcDbEntity
  8
CENTERLINE__ISO_
100
AcDbLine
  6
CONTINUOUS
 10
209.8569855168
 20
224.6040530036
 11
211.3569855168
 21
224.6040530036
  0
LINE
  5
3AF
100
AcDbEntity
  8
CENTERLINE__ISO_
100
AcDbLine
  6
CONTINUOUS
 10
212.8569855168
 20
224.6040530036
 11
217.2804855168
 21
224.6040530036
  0
LINE
  5
3B0
100
AcDbEntity
  8
CENTER_MARK__ISO_
100
AcDbLine
  6
CONTINUOUS
 10
221.2804855168
 20
194.6040530036
 11
225.0099855168
 21
194.6040530036
  0
LINE
  5
3B1
100
AcDbEntity
  8
CENTER_MARK__ISO_
100
AcDbLine
  6
CONTINUOUS
 10
221.2804855168
 20
194.6040530036
 11
217.5509855168
 21
194.6040530036
  0
LINE
  5
3B2
100
AcDbEntity
  8
CENTER_MARK__ISO_
100
AcDbLine
  6
CONTINUOUS
 10
191.2804855168
 20
194.6040530036
 11
187.5509855168
 21
194.6040530036
  0
LINE
  5
3B3
100
AcDbEntity
  8
CENTER_MARK__ISO_
100
AcDbLine
  6
CONTINUOUS
 10
191.2804855168
 20
194.6040530036
 11
195.0099855168
 21
194.6040530036
  0
LINE
  5
3B4
100
AcDbEntity
  8
CENTERLINE__ISO_
100
AcDbLine
  6
BYLAYER
 10
221.2804855168
 20
194.6040530036
 11
225.0099855168
 21
194.6040530036
  0
LINE
  5
3B5
100
AcDbEntity
  8
CENTERLINE__ISO_
100
AcDbLine
  6
BYLAYER
 10
191.2804855168
 20
194.6040530036
 11
187.5509855168
 21
194.6040530036
  0
LINE
  5
3B6
100
AcDbEntity
  8
CENTERLINE__ISO_
100
AcDbLine
  6
BYLAYER
 10
221.2804855168
 20
194.6040530036
 11
217.5509855168
 21
194.6040530036
  0
LINE
  5
3B7
100
AcDbEntity
  8
CENTERLINE__ISO_
100
AcDbLine
  6
BYLAYER
 10
191.2804855168
 20
194.6040530036
 11
195.0099855168
 21
194.6040530036
  0
LINE
  5
3B8
100
AcDbEntity
  8
CENTERLINE__ISO_
100
AcDbLine
  6
CONTINUOUS
 10
217.5509855168
 20
194.6040530036
 11
213.0373188501
 21
194.6040530036
  0
LINE
  5
3B9
100
AcDbEntity
  8
CENTERLINE__ISO_
100
AcDbLine
  6
CONTINUOUS
 10
211.5373188501
 20
194.6040530036
 11
210.0373188501
 21
194.6040530036
  0
LINE
  5
3BA
100
AcDbEntity
  8
CENTERLINE__ISO_
100
AcDbLine
  6
CONTINUOUS
 10
208.5373188501
 20
194.6040530036
 11
204.0236521835
 21
194.6040530036
  0
LINE
  5
3BB
100
AcDbEntity
  8
CENTERLINE__ISO_
100
AcDbLine
  6
CONTINUOUS
 10
202.5236521835
 20
194.6040530036
 11
201.0236521835
 21
194.6040530036
  0
LINE
  5
3BC
100
AcDbEntity
  8
CENTERLINE__ISO_
100
AcDbLine
  6
CONTINUOUS
 10
199.5236521835
 20
194.6040530036
 11
195.0099855168
 21
194.6040530036
  0
LINE
  5
3BD
100
AcDbEntity
  8
CENTERLINE__ISO_
100
AcDbLine
  6
BYLAYER
 10
191.2804855168
 20
194.6040530036
 11
191.2804855168
 21
190.8745530036
  0
LINE
  5
3BE
100
AcDbEntity
  8
CENTERLINE__ISO_
100
AcDbLine
  6
BYLAYER
 10
191.2804855168
 20
224.6040530036
 11
191.2804855168
 21
228.3335530036
  0
LINE
  5
3BF
100
AcDbEntity
  8
CENTERLINE__ISO_
100
AcDbLine
  6
BYLAYER
 10
191.2804855168
 20
194.6040530036
 11
191.2804855168
 21
198.3335530036
  0
LINE
  5
3C0
100
AcDbEntity
  8
CENTERLINE__ISO_
100
AcDbLine
  6
BYLAYER
 10
191.2804855168
 20
224.6040530036
 11
191.2804855168
 21
220.8745530036
  0
LINE
  5
3C1
100
AcDbEntity
  8
CENTERLINE__ISO_
100
AcDbLine
  6
CONTINUOUS
 10
191.2804855168
 20
198.3335530036
 11
191.2804855168
 21
202.8472196703
  0
LINE
  5
3C2
100
AcDbEntity
  8
CENTERLINE__ISO_
100
AcDbLine
  6
CONTINUOUS
 10
191.2804855168
 20
204.3472196703
 11
191.2804855168
 21
205.8472196703
  0
LINE
  5
3C3
100
AcDbEntity
  8
CENTERLINE__ISO_
100
AcDbLine
  6
CONTINUOUS
 10
191.2804855168
 20
207.3472196703
 11
191.2804855168
 21
211.860886337
  0
LINE
  5
3C4
100
AcDbEntity
  8
CENTERLINE__ISO_
100
AcDbLine
  6
CONTINUOUS
 10
191.2804855168
 20
213.360886337
 11
191.2804855168
 21
214.860886337
  0
LINE
  5
3C5
100
AcDbEntity
  8
CENTERLINE__ISO_
100
AcDbLine
  6
CONTINUOUS
 10
191.2804855168
 20
216.360886337
 11
191.2804855168
 21
220.8745530036
  0
LINE
  5
3C6
100
AcDbEntity
  8
CENTERLINE__ISO_
100
AcDbLine
  6
BYLAYER
 10
221.2804855168
 20
224.6040530036
 11
221.2804855168
 21
228.6040530036
  0
LINE
  5
3C7
100
AcDbEntity
  8
CENTERLINE__ISO_
100
AcDbLine
  6
BYLAYER
 10
221.2804855168
 20
194.6040530036
 11
221.2804855168
 21
190.8745530036
  0
LINE
  5
3C8
100
AcDbEntity
  8
CENTERLINE__ISO_
100
AcDbLine
  6
BYLAYER
 10
221.2804855168
 20
224.6040530036
 11
221.2804855168
 21
220.6040530036
  0
LINE
  5
3C9
100
AcDbEntity
  8
CENTERLINE__ISO_
100
AcDbLine
  6
BYLAYER
 10
221.2804855168
 20
194.6040530036
 11
221.2804855168
 21
198.3335530036
  0
LINE
  5
3CA
100
AcDbEntity
  8
CENTERLINE__ISO_
100
AcDbLine
  6
CONTINUOUS
 10
221.2804855168
 20
220.6040530036
 11
221.2804855168
 21
216.1805530036
  0
LINE
  5
3CB
100
AcDbEntity
  8
CENTERLINE__ISO_
100
AcDbLine
  6
CONTINUOUS
 10
221.2804855168
 20
214.6805530036
 11
221.2804855168
 21
213.1805530036
  0
LINE
  5
3CC
100
AcDbEntity
  8
CENTERLINE__ISO_
100
AcDbLine
  6
CONTINUOUS
 10
221.2804855168
 20
211.6805530036
 11
221.2804855168
 21
207.2570530036
  0
LINE
  5
3CD
100
AcDbEntity
  8
CENTERLINE__ISO_
100
AcDbLine
  6
CONTINUOUS
 10
221.2804855168
 20
205.7570530036
 11
221.2804855168
 21
204.2570530036
  0
LINE
  5
3CE
100
AcDbEntity
  8
CENTERLINE__ISO_
100
AcDbLine
  6
CONTINUOUS
 10
221.2804855168
 20
202.7570530036
 11
221.2804855168
 21
198.3335530036
  0
ARC
  5
3CF
100
AcDbEntity
  8
VISIBLE__ISO_
100
AcDbCircle
  6
BYLAYER
 10
355.8347042248
 20
209.6040530036
 40
3.90000000000008
100
AcDbArc
 50
354.1131578613
 51
5.8868421387
  0
ARC
  5
3D0
100
AcDbEntity
  8
VISIBLE__ISO_
100
AcDbCircle
  6
BYLAYER
 10
355.8347042248
 20
209.6040530036
 40
3.90000000000003
100
AcDbArc
 50
174.1131578613
 51
185.8868421387
  0
ARC
  5
3D1
100
AcDbEntity
  8
VISIBLE__ISO_
100
AcDbCircle
  6
BYLAYER
 10
355.8347042248
 20
209.6040530036
 40
4.70000000000004
100
AcDbArc
 50
4.8821423325
 51
175.1178576675
  0
ARC
  5
3D2
100
AcDbEntity
  8
VISIBLE__ISO_
100
AcDbCircle
  6
BYLAYER
 10
355.8347042248
 20
209.6040530036
 40
4.70000000000004
100
AcDbArc
 50
184.8821423325
 51
355.1178576675
  0
CIRCLE
  5
3D3
100
AcDbEntity
  8
VISIBLE__ISO_
100
AcDbCircle
  6
BYLAYER
 10
355.8347042248
 20
209.6040530036
 40
3
  0
CIRCLE
  5
3D4
100
AcDbEntity
  8
VISIBLE__ISO_
100
AcDbCircle
  6
BYLAYER
 10
355.8347042248
 20
209.6040530036
 40
9
  0
CIRCLE
  5
3D5
100
AcDbEntity
  8
VISIBLE__ISO_
100
AcDbCircle
  6
BYLAYER
 10
355.8347042248
 20
209.6040530036
 40
8.5
  0
CIRCLE
  5
3D6
100
AcDbEntity
  8
VISIBLE__ISO_
100
AcDbCircle
  6
BYLAYER
 10
355.8347042248
 20
209.6040530036
 40
12.3
  0
CIRCLE
  5
3D7
100
AcDbEntity
  8
VISIBLE__ISO_
100
AcDbCircle
  6
BYLAYER
 10
355.8347042248
 20
209.6040530036
 40
12.7
  0
CIRCLE
  5
3D8
100
AcDbEntity
  8
VISIBLE__ISO_
100
AcDbCircle
  6
BYLAYER
 10
355.8347042248
 20
209.6040530036
 40
5.10000000000002
  0
CIRCLE
  5
3D9
100
AcDbEntity
  8
VISIBLE__ISO_
100
AcDbCircle
  6
BYLAYER
 10
355.8347042248
 20
209.6040530036
 40
5
  0
CIRCLE
  5
3DA
100
AcDbEntity
  8
VISIBLE__ISO_
100
AcDbCircle
  6
BYLAYER
 10
355.8347042248
 20
209.6040530036
 40
15.0000000000001
  0
CIRCLE
  5
3DB
100
AcDbEntity
  8
VISIBLE__ISO_
100
AcDbCircle
  6
BYLAYER
 10
355.8347042248
 20
209.6040530036
 40
14.8000000000001
  0
CIRCLE
  5
3DC
100
AcDbEntity
  8
VISIBLE__ISO_
100
AcDbCircle
  6
BYLAYER
 10
206.2804855168
 20
209.6040530036
 40
2.489
  0
CIRCLE
  5
3DD
100
AcDbEntity
  8
VISIBLE_NARROW__ISO_
100
AcDbCircle
  6
BYLAYER
 10
206.2804855168
 20
209.6040530036
 40
3.17499999999998
  0
CIRCLE
  5
3DE
100
AcDbEntity
  8
VISIBLE__ISO_
100
AcDbCircle
  6
BYLAYER
 10
191.2804855168
 20
224.6040530036
 40
1.22950000000003
  0
CIRCLE
  5
3DF
100
AcDbEntity
  8
VISIBLE__ISO_
100
AcDbCircle
  6
BYLAYER
 10
221.2804855168
 20
224.6040530036
 40
1.2295
  0
CIRCLE
  5
3E0
100
AcDbEntity
  8
VISIBLE__ISO_
100
AcDbCircle
  6
BYLAYER
 10
221.2804855168
 20
194.6040530036
 40
1.2295
  0
CIRCLE
  5
3E1
100
AcDbEntity
  8
VISIBLE__ISO_
100
AcDbCircle
  6
BYLAYER
 10
191.2804855168
 20
194.6040530036
 40
1.22950000000003
  0
CIRCLE
  5
3E2
100
AcDbEntity
  8
VISIBLE_NARROW__ISO_
100
AcDbCircle
  6
BYLAYER
 10
191.2804855168
 20
194.6040530036
 40
1.5
  0
CIRCLE
  5
3E3
100
AcDbEntity
  8
VISIBLE_NARROW__ISO_
100
AcDbCircle
  6
BYLAYER
 10
221.2804855168
 20
194.6040530036
 40
1.5
  0
CIRCLE
  5
3E4
100
AcDbEntity
  8
VISIBLE_NARROW__ISO_
100
AcDbCircle
  6
BYLAYER
 10
221.2804855168
 20
224.6040530036
 40
1.5
  0
CIRCLE
  5
3E5
100
AcDbEntity
  8
VISIBLE_NARROW__ISO_
100
AcDbCircle
  6
BYLAYER
 10
191.2804855168
 20
224.6040530036
 40
1.5
  0
CIRCLE
  5
3E6
100
AcDbEntity
  8
VISIBLE_NARROW__ISO_
100
AcDbCircle
  6
BYLAYER
 10
122.3804855168
 20
209.6040530036
 40
0.760999999999996
  0
CIRCLE
  5
3E7
100
AcDbEntity
  8
VISIBLE_NARROW__ISO_
100
AcDbCircle
  6
BYLAYER
 10
122.3804855168
 20
127.1661840259
 40
0.760999999999996
  0
LWPOLYLINE
  5
3E8
100
AcDbEntity
  8
VISIBLE__ISO_
100
AcDbPolyline
  6
BYLAYER
 90
     10
 10
360.517652014412
  20
209.204053003625
 10
360.420990309431
  20
209.204053003625
 10
360.326174173992
  20
209.204053003625
 10
360.233203608094
  20
209.204053003625
 10
360.142078611738
  20
209.204053003625
 10
360.052799184923
  20
209.204053003625
 10
359.96536532765
  20
209.204053003625
 10
359.879777039918
  20
209.204053003625
 10
359.796034321728
  20
209.204053003625
 10
359.714137173079
  20
209.204053003625
  0
LWPOLYLINE
  5
3E9
100
AcDbEntity
  8
VISIBLE__ISO_
100
AcDbPolyline
  6
BYLAYER
 90
     10
 10
351.955271276571
  20
209.204053003625
 10
351.873374127922
  20
209.204053003625
 10
351.789631409732
  20
209.204053003625
 10
351.704043122
  20
209.204053003625
 10
351.616609264727
  20
209.204053003625
 10
351.527329837912
  20
209.204053003625
 10
351.436204841556
  20
209.204053003625
 10
351.343234275658
  20
209.204053003625
 10
351.248418140218
  20
209.204053003625
 10
351.151756435238
  20
209.204053003625
  0
LWPOLYLINE
  5
3EA
100
AcDbEntity
  8
VISIBLE__ISO_
100
AcDbPolyline
  6
BYLAYER
 90
     10
 10
359.714137173079
  20
210.004053003625
 10
359.796034321728
  20
210.004053003625
 10
359.879777039918
  20
210.004053003625
 10
359.96536532765
  20
210.004053003625
 10
360.052799184923
  20
210.004053003625
 10
360.142078611738
  20
210.004053003625
 10
360.233203608094
  20
210.004053003625
 10
360.326174173992
  20
210.004053003625
 10
360.420990309431
  20
210.004053003625
 10
360.517652014412
  20
210.004053003625
  0
LWPOLYLINE
  5
3EB
100
AcDbEntity
  8
VISIBLE__ISO_
100
AcDbPolyline
  6
BYLAYER
 90
     10
 10
351.151756435238
  20
210.004053003625
 10
351.248418140218
  20
210.004053003625
 10
351.343234275658
  20
210.004053003625
 10
351.436204841556
  20
210.004053003625
 10
351.527329837912
  20
210.004053003625
 10
351.616609264727
  20
210.004053003625
 10
351.704043122
  20
210.004053003625
 10
351.789631409732
  20
210.004053003625
 10
351.873374127922
  20
210.004053003625
 10
351.955271276571
  20
210.004053003625
  0
LWPOLYLINE
  5
3EC
100
AcDbEntity
  8
VISIBLE__ISO_
100
AcDbPolyline
  6
BYLAYER
 90
     10
 10
121.59698551682
  20
188.104053003625
 10
121.60160622861
  20
188.104225931619
 10
121.606728578957
  20
188.104413709741
 10
121.612352567862
  20
188.104616337991
 10
121.618478195326
  20
188.104833816369
 10
121.625105461347
  20
188.105066144875
 10
121.632234365927
  20
188.105313323508
 10
121.639864909064
  20
188.10557535227
 10
121.64799709076
  20
188.10585223116
 10
121.656630911013
  20
188.106143960177
  0
LWPOLYLINE
  5
3ED
100
AcDbEntity
  8
VISIBLE__ISO_
100
AcDbPolyline
  6
BYLAYER
 90
     10
 10
121.656630911013
  20
188.106143960177
 10
121.670695147287
  20
188.106612607531
 10
121.686173285495
  20
188.107117361936
 10
121.702974347621
  20
188.107652635275
 10
121.721007355649
  20
188.108212839431
 10
121.740181331563
  20
188.108792386287
 10
121.760405297347
  20
188.109385687725
 10
121.781588274985
  20
188.109987155628
 10
121.80363928646
  20
188.110591201879
 10
121.826467353755
  20
188.111192238361
  0
LWPOLYLINE
  5
3EE
100
AcDbEntity
  8
VISIBLE__ISO_
100
AcDbPolyline
  6
BYLAYER
 90
     10
 10
121.826467353755
  20
188.111192238361
 10
121.850326344666
  20
188.111793294719
 10
121.875475262785
  20
188.112397397926
 10
121.901830837939
  20
188.112998955963
 10
121.929309799956
  20
188.113592376811
 10
121.957828878662
  20
188.114172068452
 10
121.987304803884
  20
188.114732438866
 10
122.01765430545
  20
188.115267896035
 10
122.048794113185
  20
188.11577284794
 10
122.080640956917
  20
188.116241702562
  0
LWPOLYLINE
  5
3EF
100
AcDbEntity
  8
VISIBLE__ISO_
100
AcDbPolyline
  6
BYLAYER
 90
     10
 10
122.080640956917
  20
188.116241702562
 10
122.1131049322
  20
188.116668169154
 10
122.146069488299
  20
188.117048895914
 10
122.179411385606
  20
188.117382699239
 10
122.213007384515
  20
188.117668395527
 10
122.246734245417
  20
188.117904801175
 10
122.280468728706
  20
188.11809073258
 10
122.314087594773
  20
188.118225006139
 10
122.347467604012
  20
188.11830643825
 10
122.380485516815
  20
188.118333845309
  0
LWPOLYLINE
  5
3F0
100
AcDbEntity
  8
VISIBLE__ISO_
100
AcDbPolyline
  6
BYLAYER
 90
     10
 10
122.380485516815
  20
188.118333845309
 10
122.413503429618
  20
188.11830643825
 10
122.446883438857
  20
188.118225006139
 10
122.480502304924
  20
188.11809073258
 10
122.514236788213
  20
188.117904801175
 10
122.547963649115
  20
188.117668395527
 10
122.581559648024
  20
188.117382699239
 10
122.614901545332
  20
188.117048895914
 10
122.647866101431
  20
188.116668169154
 10
122.680330076714
  20
188.116241702562
  0
LWPOLYLINE
  5
3F1
100
AcDbEntity
  8
VISIBLE__ISO_
100
AcDbPolyline
  6
BYLAYER
 90
     10
 10
122.680330076714
  20
188.116241702562
 10
122.712176920446
  20
188.11577284794
 10
122.743316728181
  20
188.115267896035
 10
122.773666229746
  20
188.114732438866
 10
122.803142154968
  20
188.114172068452
 10
122.831661233674
  20
188.113592376811
 10
122.859140195691
  20
188.112998955963
 10
122.885495770846
  20
188.112397397926
 10
122.910644688965
  20
188.111793294719
 10
122.934503679875
  20
188.111192238361
  0
LWPOLYLINE
  5
3F2
100
AcDbEntity
  8
VISIBLE__ISO_
100
AcDbPolyline
  6
BYLAYER
 90
     10
 10
122.934503679875
  20
188.111192238361
 10
122.957331747171
  20
188.110591201879
 10
122.979382758646
  20
188.109987155628
 10
123.000565736283
  20
188.109385687725
 10
123.020789702067
  20
188.108792386287
 10
123.039963677981
  20
188.108212839431
 10
123.05799668601
  20
188.107652635275
 10
123.074797748136
  20
188.107117361936
 10
123.090275886344
  20
188.106612607531
 10
123.104340122617
  20
188.106143960177
  0
LWPOLYLINE
  5
3F3
100
AcDbEntity
  8
VISIBLE__ISO_
100
AcDbPolyline
  6
BYLAYER
 90
     10
 10
123.104340122617
  20
188.106143960177
 10
123.112973942872
  20
188.10585223116
 10
123.121106124568
  20
188.10557535227
 10
123.128736667707
  20
188.105313323508
 10
123.135865572287
  20
188.105066144875
 10
123.142492838309
  20
188.104833816369
 10
123.148618465773
  20
188.104616337991
 10
123.154242454678
  20
188.104413709741
 10
123.159364805026
  20
188.104225931619
 10
123.163985516815
  20
188.104053003625
  0
LWPOLYLINE
  5
3F4
100
AcDbEntity
  8
VISIBLE__ISO_
100
AcDbPolyline
  6
BYLAYER
 90
     136
 10
122.380485516809
  20
210.387553003625
 10
122.411651779754
  20
210.387190795717
 10
122.439843528189
  20
210.386111971333
 10
122.465487555663
  20
210.384328229485
 10
122.489010655723
  20
210.381851269183
 10
122.510839621918
  20
210.378692789438
 10
122.531401247797
  20
210.37486448926
 10
122.551122326907
  20
210.37037806766
 10
122.570429652796
  20
210.365245223649
 10
122.589750019012
  20
210.359477656238
 10
122.609406950313
  20
210.353101147975
 10
122.629310896289
  20
210.346197815561
 10
122.649269037738
  20
210.338863859235
 10
122.669088555459
  20
210.331195479235
 10
122.688576630253
  20
210.3232888758
 10
122.707540442916
  20
210.315240249169
 10
122.725787174249
  20
210.30714579958
 10
122.743124005051
  20
210.299101727272
 10
122.759358116119
  20
210.291204232484
 10
122.774364480777
  20
210.283510965881
 10
122.788289242435
  20
210.27592537983
 10
122.80134633703
  20
210.268312377124
 10
122.813749700496
  20
210.260536860558
 10
122.825713268768
  20
210.252463732924
 10
122.837450977781
  20
210.243957897017
 10
122.84917676347
  20
210.23488425563
 10
122.86110456177
  20
210.225107711557
 10
122.873448308615
  20
210.214493167591
 10
122.886356599109
  20
210.20295772757
 10
122.899716665024
  20
210.190627299512
 10
122.913350397298
  20
210.177679992478
 10
122.927079686872
  20
210.164293915531
 10
122.940726424685
  20
210.150647177731
 10
122.954112501677
  20
210.136917888141
 10
122.967059808787
  20
210.123284155822
 10
122.979390236955
  20
210.109924089836
 10
122.99092567712
  20
210.097015799245
 10
123.001540221266
  20
210.084672052277
 10
123.011316765551
  20
210.072744253828
 10
123.020390407179
  20
210.061018467961
 10
123.028896243351
  20
210.049280758738
 10
123.03696937127
  20
210.037317190221
 10
123.044744888139
  20
210.024913826472
 10
123.05235789116
  20
210.011856731556
 10
123.059943477536
  20
209.997931969533
 10
123.06763674447
  20
209.982925604466
 10
123.075531991702
  20
209.966703488758
 10
123.083560329125
  20
209.94945062817
 10
123.091612069169
  20
209.931431816806
 10
123.099577524264
  20
209.912911848766
 10
123.107347006843
  20
209.894155518153
 10
123.114810829334
  20
209.87542761907
 10
123.12185930417
  20
209.856992945617
 10
123.12838274378
  20
209.839116291897
 10
123.134271460595
  20
209.822062452012
 10
123.13944333791
  20
209.8060109511
 10
123.143926542479
  20
209.790800238446
 10
123.147776811918
  20
209.77618349437
 10
123.151049883846
  20
209.761913899191
 10
123.15380149588
  20
209.747744633231
 10
123.156087385637
  20
209.733428876809
 10
123.157963290736
  20
209.718719810245
 10
123.159484948793
  20
209.703370613861
 10
123.160708097426
  20
209.687134467975
 10
123.161679184651
  20
209.669847680973
 10
123.162407500069
  20
209.651679073498
 10
123.162893043681
  20
209.632880594256
 10
123.163135815488
  20
209.613704191953
 10
123.163135815488
  20
209.594401815297
 10
123.162893043681
  20
209.575225412994
 10
123.162407500069
  20
209.556426933752
 10
123.161679184651
  20
209.538258326276
 10
123.160708097426
  20
209.520971539274
 10
123.159484948793
  20
209.504735393389
 10
123.157963290736
  20
209.489386197004
 10
123.156087385637
  20
209.474677130441
 10
123.15380149588
  20
209.460361374019
 10
123.151049883846
  20
209.446192108058
 10
123.147776811918
  20
209.43192251288
 10
123.143926542479
  20
209.417305768803
 10
123.13944333791
  20
209.402095056149
 10
123.134271460595
  20
209.386043555238
 10
123.12838274378
  20
209.368989715353
 10
123.12185930417
  20
209.351113061633
 10
123.114810829334
  20
209.33267838818
 10
123.107347006843
  20
209.313950489096
 10
123.099577524264
  20
209.295194158483
 10
123.091612069168
  20
209.276674190444
 10
123.083560329125
  20
209.258655379079
 10
123.075531991702
  20
209.241402518492
 10
123.06763674447
  20
209.225180402784
 10
123.059943477536
  20
209.210174037717
 10
123.05235789116
  20
209.196249275694
 10
123.044744888139
  20
209.183192180777
 10
123.03696937127
  20
209.170788817029
 10
123.028896243351
  20
209.158825248512
 10
123.020390407179
  20
209.147087539289
 10
123.011316765551
  20
209.135361753421
 10
123.001540221266
  20
209.123433954973
 10
122.99092567712
  20
209.111090208005
 10
122.979390236955
  20
209.098181917414
 10
122.967059808787
  20
209.084821851428
 10
122.954112501677
  20
209.071188119109
 10
122.940726424685
  20
209.057458829519
 10
122.927079686872
  20
209.043812091719
 10
122.913350397298
  20
209.030426014771
 10
122.899716665024
  20
209.017478707738
 10
122.886356599109
  20
209.00514827968
 10
122.873448308615
  20
208.993612839659
 10
122.86110456177
  20
208.982998295693
 10
122.84917676347
  20
208.97322175162
 10
122.837450977781
  20
208.964148110233
 10
122.825713268768
  20
208.955642274326
 10
122.813749700496
  20
208.947569146692
 10
122.80134633703
  20
208.939793630126
 10
122.788289242435
  20
208.93218062742
 10
122.774364480777
  20
208.924595041369
 10
122.759358116119
  20
208.916901774765
 10
122.743124005051
  20
208.909004279977
 10
122.725787174249
  20
208.90096020767
 10
122.707540442916
  20
208.892865758081
 10
122.688576630253
  20
208.88481713145
 10
122.669088555459
  20
208.876910528015
 10
122.649269037738
  20
208.869242148015
 10
122.629310896289
  20
208.861908191689
 10
122.609406950313
  20
208.855004859274
 10
122.589750019012
  20
208.848628351011
 10
122.570429652796
  20
208.8428607836
 10
122.551122326907
  20
208.837727939589
 10
122.531401247797
  20
208.83324151799
 10
122.510839621918
  20
208.829413217812
 10
122.489010655723
  20
208.826254738066
 10
122.465487555663
  20
208.823777777764
 10
122.439843528189
  20
208.821994035916
 10
122.411651779754
  20
208.820915211533
 10
122.380485516809
  20
208.820553003625
  0
LWPOLYLINE
  5
3F5
100
AcDbEntity
  8
VISIBLE__ISO_
100
AcDbPolyline
  6
BYLAYER
 90
     136
 10
122.380485516809
  20
208.820553003625
 10
122.349319253864
  20
208.820915211533
 10
122.321127505429
  20
208.821994035916
 10
122.295483477955
  20
208.823777777764
 10
122.271960377895
  20
208.826254738066
 10
122.2501314117
  20
208.829413217812
 10
122.229569785821
  20
208.83324151799
 10
122.209848706711
  20
208.837727939589
 10
122.190541380822
  20
208.8428607836
 10
122.171221014606
  20
208.848628351011
 10
122.151564083305
  20
208.855004859274
 10
122.131660137329
  20
208.861908191689
 10
122.11170199588
  20
208.869242148015
 10
122.091882478159
  20
208.876910528015
 10
122.072394403365
  20
208.88481713145
 10
122.053430590702
  20
208.892865758081
 10
122.035183859369
  20
208.90096020767
 10
122.017847028567
  20
208.909004279977
 10
122.001612917499
  20
208.916901774765
 10
121.986606552841
  20
208.924595041369
 10
121.972681791183
  20
208.93218062742
 10
121.959624696588
  20
208.939793630126
 10
121.947221333122
  20
208.947569146692
 10
121.93525776485
  20
208.955642274326
 10
121.923520055837
  20
208.964148110233
 10
121.911794270148
  20
208.97322175162
 10
121.899866471848
  20
208.982998295693
 10
121.887522725003
  20
208.993612839659
 10
121.874614434509
  20
209.00514827968
 10
121.861254368594
  20
209.017478707738
 10
121.84762063632
  20
209.030426014771
 10
121.833891346746
  20
209.043812091719
 10
121.820244608933
  20
209.057458829519
 10
121.806858531941
  20
209.071188119109
 10
121.793911224831
  20
209.084821851428
 10
121.781580796663
  20
209.098181917414
 10
121.770045356498
  20
209.111090208005
 10
121.759430812352
  20
209.123433954973
 10
121.749654268067
  20
209.135361753421
 10
121.74058062644
  20
209.147087539289
 10
121.732074790267
  20
209.158825248512
 10
121.724001662348
  20
209.170788817029
 10
121.716226145479
  20
209.183192180777
 10
121.708613142458
  20
209.196249275694
 10
121.701027556082
  20
209.210174037717
 10
121.693334289148
  20
209.225180402784
 10
121.685439041916
  20
209.241402518492
 10
121.677410704493
  20
209.258655379079
 10
121.66935896445
  20
209.276674190444
 10
121.661393509354
  20
209.295194158483
 10
121.653624026775
  20
209.313950489096
 10
121.646160204283
  20
209.33267838818
 10
121.639111729448
  20
209.351113061633
 10
121.632588289838
  20
209.368989715353
 10
121.626699573023
  20
209.386043555238
 10
121.621527695708
  20
209.402095056149
 10
121.617044491139
  20
209.417305768803
 10
121.6131942217
  20
209.43192251288
 10
121.609921149772
  20
209.446192108058
 10
121.607169537738
  20
209.460361374019
 10
121.604883647981
  20
209.474677130441
 10
121.603007742882
  20
209.489386197004
 10
121.601486084825
  20
209.504735393389
 10
121.600262936192
  20
209.520971539274
 10
121.599291848967
  20
209.538258326276
 10
121.598563533549
  20
209.556426933752
 10
121.598077989937
  20
209.575225412994
 10
121.59783521813
  20
209.594401815297
 10
121.59783521813
  20
209.613704191953
 10
121.598077989937
  20
209.632880594256
 10
121.598563533549
  20
209.651679073498
 10
121.599291848967
  20
209.669847680974
 10
121.600262936192
  20
209.687134467975
 10
121.601486084825
  20
209.703370613861
 10
121.603007742882
  20
209.718719810245
 10
121.604883647981
  20
209.733428876809
 10
121.607169537738
  20
209.747744633231
 10
121.609921149772
  20
209.761913899191
 10
121.6131942217
  20
209.77618349437
 10
121.617044491139
  20
209.790800238446
 10
121.621527695708
  20
209.806010951101
 10
121.626699573023
  20
209.822062452012
 10
121.632588289838
  20
209.839116291897
 10
121.639111729448
  20
209.856992945617
 10
121.646160204284
  20
209.87542761907
 10
121.653624026775
  20
209.894155518153
 10
121.661393509354
  20
209.912911848766
 10
121.66935896445
  20
209.931431816806
 10
121.677410704493
  20
209.94945062817
 10
121.685439041916
  20
209.966703488758
 10
121.693334289148
  20
209.982925604466
 10
121.701027556082
  20
209.997931969533
 10
121.708613142458
  20
210.011856731556
 10
121.716226145479
  20
210.024913826472
 10
121.724001662348
  20
210.037317190221
 10
121.732074790267
  20
210.049280758737
 10
121.74058062644
  20
210.061018467961
 10
121.749654268067
  20
210.072744253828
 10
121.759430812352
  20
210.084672052277
 10
121.770045356498
  20
210.097015799245
 10
121.781580796663
  20
210.109924089836
 10
121.793911224831
  20
210.123284155822
 10
121.806858531941
  20
210.136917888141
 10
121.820244608933
  20
210.150647177731
 10
121.833891346746
  20
210.164293915531
 10
121.84762063632
  20
210.177679992478
 10
121.861254368594
  20
210.190627299512
 10
121.874614434509
  20
210.20295772757
 10
121.887522725003
  20
210.214493167591
 10
121.899866471848
  20
210.225107711557
 10
121.911794270148
  20
210.23488425563
 10
121.923520055837
  20
210.243957897017
 10
121.93525776485
  20
210.252463732924
 10
121.947221333122
  20
210.260536860558
 10
121.959624696588
  20
210.268312377124
 10
121.972681791183
  20
210.27592537983
 10
121.986606552841
  20
210.283510965881
 10
122.001612917499
  20
210.291204232484
 10
122.017847028567
  20
210.299101727272
 10
122.035183859369
  20
210.30714579958
 10
122.053430590702
  20
210.315240249169
 10
122.072394403365
  20
210.3232888758
 10
122.091882478159
  20
210.331195479235
 10
122.11170199588
  20
210.338863859235
 10
122.131660137329
  20
210.346197815561
 10
122.151564083305
  20
210.353101147975
 10
122.171221014606
  20
210.359477656238
 10
122.190541380822
  20
210.365245223649
 10
122.209848706711
  20
210.37037806766
 10
122.229569785821
  20
210.37486448926
 10
122.2501314117
  20
210.378692789438
 10
122.271960377895
  20
210.381851269183
 10
122.295483477955
  20
210.384328229485
 10
122.321127505429
  20
210.386111971334
 10
122.349319253864
  20
210.387190795717
 10
122.380485516809
  20
210.387553003625
  0
LWPOLYLINE
  5
3F6
100
AcDbEntity
  8
VISIBLE_NARROW__ISO_
100
AcDbPolyline
  6
BYLAYER
 90
     136
 10
122.380485516809
  20
210.604053003625
 10
122.340704968864
  20
210.603590657076
 10
122.30472126347
  20
210.602213582005
 10
122.271989634664
  20
210.599936725274
 10
122.241965316479
  20
210.596775033746
 10
122.214103542952
  20
210.592743454283
 10
122.187859548117
  20
210.587856933748
 10
122.16268856601
  20
210.582130419004
 10
122.138045830665
  20
210.575578856912
 10
122.113386576118
  20
210.568217194336
 10
122.088297846389
  20
210.560078351026
 10
122.06289392543
  20
210.551267138287
 10
122.037420907182
  20
210.541906340313
 10
122.012124885582
  20
210.532118741296
 10
121.987251954569
  20
210.522027125429
 10
121.963048208081
  20
210.511754276906
 10
121.939759740057
  20
210.50142297992
 10
121.917632644435
  20
210.491156018663
 10
121.896913015154
  20
210.48107617733
 10
121.877760422031
  20
210.471257038905
 10
121.859988338398
  20
210.461575381546
 10
121.843323713469
  20
210.451858782201
 10
121.827493496455
  20
210.441934817819
 10
121.812224636569
  20
210.43163106535
 10
121.797244083021
  20
210.420775101743
 10
121.782278785024
  20
210.409194503947
 10
121.76705569179
  20
210.396716848911
 10
121.751301752532
  20
210.383169713585
 10
121.73482731011
  20
210.368447297279
 10
121.71777628199
  20
210.35271028875
 10
121.700375979285
  20
210.336185999119
 10
121.682853713109
  20
210.319101739505
 10
121.665436794576
  20
210.301684821027
 10
121.6483525348
  20
210.284162554804
 10
121.631828244896
  20
210.266762251957
 10
121.616091235977
  20
210.249711223604
 10
121.601368819157
  20
210.233236780864
 10
121.587821683192
  20
210.217482841205
 10
121.575344027406
  20
210.202259747482
 10
121.563763428763
  20
210.187294448896
 10
121.552907464227
  20
210.172313894649
 10
121.542603710764
  20
210.157045033944
 10
121.532679745338
  20
210.141214815983
 10
121.522963144914
  20
210.124550189968
 10
121.513281486457
  20
210.106778105101
 10
121.503462346931
  20
210.087625510584
 10
121.493385373878
  20
210.066921190667
 10
121.483138497145
  20
210.04490126979
 10
121.472861717155
  20
210.02190370744
 10
121.462695034331
  20
209.998266463103
 10
121.452778449096
  20
209.974327496268
 10
121.443251961874
  20
209.950424766422
 10
121.434255573088
  20
209.926896233052
 10
121.425929283161
  20
209.904079855645
 10
121.418413092517
  20
209.882313593689
 10
121.411811812471
  20
209.861826574956
 10
121.40608949791
  20
209.842412600361
 10
121.401175014615
  20
209.823756639106
 10
121.396997228365
  20
209.805543660389
 10
121.39348500494
  20
209.787458633412
 10
121.39056721012
  20
209.769186527375
 10
121.388172709685
  20
209.750412311479
 10
121.386230369415
  20
209.730820954924
 10
121.384669055089
  20
209.71009742691
 10
121.383429488191
  20
209.688032801855
 10
121.382499813018
  20
209.664842575044
 10
121.381880029569
  20
209.640848346978
 10
121.381570137845
  20
209.61637171816
 10
121.381570137845
  20
209.59173428909
 10
121.381880029569
  20
209.567257660272
 10
121.382499813018
  20
209.543263432206
 10
121.383429488191
  20
209.520073205394
 10
121.384669055089
  20
209.498008580339
 10
121.386230369415
  20
209.477285052326
 10
121.388172709685
  20
209.45769369577
 10
121.39056721012
  20
209.438919479874
 10
121.39348500494
  20
209.420647373837
 10
121.396997228365
  20
209.402562346861
 10
121.401175014615
  20
209.384349368144
 10
121.40608949791
  20
209.365693406888
 10
121.411811812471
  20
209.346279432294
 10
121.418413092517
  20
209.325792413561
 10
121.425929283161
  20
209.304026151605
 10
121.434255573088
  20
209.281209774198
 10
121.443251961874
  20
209.257681240828
 10
121.452778449096
  20
209.233778510982
 10
121.462695034331
  20
209.209839544147
 10
121.472861717155
  20
209.18620229981
 10
121.483138497145
  20
209.16320473746
 10
121.493385373878
  20
209.141184816582
 10
121.503462346931
  20
209.120480496665
 10
121.513281486456
  20
209.101327902148
 10
121.522963144914
  20
209.083555817281
 10
121.532679745338
  20
209.066891191266
 10
121.542603710764
  20
209.051060973305
 10
121.552907464227
  20
209.035792112601
 10
121.563763428763
  20
209.020811558354
 10
121.575344027406
  20
209.005846259768
 10
121.587821683192
  20
208.990623166044
 10
121.601368819157
  20
208.974869226385
 10
121.616091235977
  20
208.958394783646
 10
121.631828244896
  20
208.941343755293
 10
121.6483525348
  20
208.923943452445
 10
121.665436794576
  20
208.906421186223
 10
121.682853713109
  20
208.889004267745
 10
121.700375979285
  20
208.87192000813
 10
121.71777628199
  20
208.855395718499
 10
121.73482731011
  20
208.839658709971
 10
121.751301752532
  20
208.824936293665
 10
121.76705569179
  20
208.811389158338
 10
121.782278785024
  20
208.798911503302
 10
121.797244083021
  20
208.787330905506
 10
121.812224636569
  20
208.776474941899
 10
121.827493496455
  20
208.766171189431
 10
121.843323713469
  20
208.756247225049
 10
121.859988338398
  20
208.746530625704
 10
121.877760422031
  20
208.736848968345
 10
121.896913015154
  20
208.72702982992
 10
121.917632644435
  20
208.716949988586
 10
121.939759740057
  20
208.70668302733
 10
121.963048208081
  20
208.696351730344
 10
121.987251954569
  20
208.686078881821
 10
122.012124885582
  20
208.675987265954
 10
122.037420907182
  20
208.666199666937
 10
122.06289392543
  20
208.656838868962
 10
122.088297846389
  20
208.648027656224
 10
122.113386576118
  20
208.639888812914
 10
122.138045830665
  20
208.632527150338
 10
122.16268856601
  20
208.625975588246
 10
122.187859548117
  20
208.620249073501
 10
122.214103542952
  20
208.615362552966
 10
122.241965316479
  20
208.611330973503
 10
122.271989634664
  20
208.608169281975
 10
122.30472126347
  20
208.605892425245
 10
122.340704968864
  20
208.604515350174
 10
122.380485516809
  20
208.604053003625
  0
LWPOLYLINE
  5
3F7
100
AcDbEntity
  8
VISIBLE_NARROW__ISO_
100
AcDbPolyline
  6
BYLAYER
 90
     136
 10
122.380485516809
  20
208.604053003625
 10
122.420266064754
  20
208.604515350173
 10
122.456249770148
  20
208.605892425245
 10
122.488981398955
  20
208.608169281975
 10
122.519005717139
  20
208.611330973503
 10
122.546867490666
  20
208.615362552966
 10
122.573111485501
  20
208.620249073501
 10
122.598282467608
  20
208.625975588246
 10
122.622925202953
  20
208.632527150338
 10
122.6475844575
  20
208.639888812914
 10
122.672673187229
  20
208.648027656224
 10
122.698077108188
  20
208.656838868962
 10
122.723550126436
  20
208.666199666937
 10
122.748846148036
  20
208.675987265954
 10
122.773719079049
  20
208.686078881821
 10
122.797922825537
  20
208.696351730344
 10
122.821211293561
  20
208.70668302733
 10
122.843338389183
  20
208.716949988586
 10
122.864058018464
  20
208.72702982992
 10
122.883210611587
  20
208.736848968345
 10
122.90098269522
  20
208.746530625704
 10
122.917647320149
  20
208.756247225049
 10
122.933477537163
  20
208.766171189431
 10
122.94874639705
  20
208.776474941899
 10
122.963726950597
  20
208.787330905506
 10
122.978692248594
  20
208.798911503302
 10
122.993915341828
  20
208.811389158338
 10
123.009669281087
  20
208.824936293665
 10
123.026143723508
  20
208.839658709971
 10
123.043194751628
  20
208.855395718499
 10
123.060595054333
  20
208.87192000813
 10
123.078117320509
  20
208.889004267745
 10
123.095534239042
  20
208.906421186223
 10
123.112618498818
  20
208.923943452445
 10
123.129142788722
  20
208.941343755293
 10
123.144879797641
  20
208.958394783646
 10
123.159602214461
  20
208.974869226385
 10
123.173149350426
  20
208.990623166044
 10
123.185627006212
  20
209.005846259768
 10
123.197207604855
  20
209.020811558354
 10
123.208063569391
  20
209.035792112601
 10
123.218367322854
  20
209.051060973305
 10
123.22829128828
  20
209.066891191266
 10
123.238007888704
  20
209.083555817281
 10
123.247689547162
  20
209.101327902148
 10
123.257508686687
  20
209.120480496665
 10
123.26758565974
  20
209.141184816582
 10
123.277832536473
  20
209.16320473746
 10
123.288109316463
  20
209.18620229981
 10
123.298275999287
  20
209.209839544147
 10
123.308192584522
  20
209.233778510982
 10
123.317719071744
  20
209.257681240828
 10
123.32671546053
  20
209.281209774198
 10
123.335041750457
  20
209.304026151605
 10
123.342557941101
  20
209.325792413561
 10
123.349159221147
  20
209.346279432294
 10
123.354881535708
  20
209.365693406888
 10
123.359796019003
  20
209.384349368144
 10
123.363973805253
  20
209.402562346861
 10
123.367486028678
  20
209.420647373837
 10
123.370403823498
  20
209.438919479874
 10
123.372798323933
  20
209.45769369577
 10
123.374740664203
  20
209.477285052326
 10
123.376301978529
  20
209.498008580339
 10
123.377541545427
  20
209.520073205394
 10
123.3784712206
  20
209.543263432206
 10
123.379091004049
  20
209.567257660272
 10
123.379400895773
  20
209.59173428909
 10
123.379400895773
  20
209.61637171816
 10
123.379091004049
  20
209.640848346978
 10
123.3784712206
  20
209.664842575044
 10
123.377541545427
  20
209.688032801855
 10
123.376301978529
  20
209.71009742691
 10
123.374740664203
  20
209.730820954924
 10
123.372798323933
  20
209.750412311479
 10
123.370403823498
  20
209.769186527375
 10
123.367486028678
  20
209.787458633412
 10
123.363973805253
  20
209.805543660389
 10
123.359796019003
  20
209.823756639106
 10
123.354881535708
  20
209.842412600361
 10
123.349159221147
  20
209.861826574956
 10
123.342557941101
  20
209.882313593689
 10
123.335041750457
  20
209.904079855645
 10
123.32671546053
  20
209.926896233052
 10
123.317719071744
  20
209.950424766422
 10
123.308192584522
  20
209.974327496268
 10
123.298275999287
  20
209.998266463103
 10
123.288109316463
  20
210.021903707439
 10
123.277832536473
  20
210.04490126979
 10
123.26758565974
  20
210.066921190667
 10
123.257508686687
  20
210.087625510584
 10
123.247689547161
  20
210.106778105101
 10
123.238007888704
  20
210.124550189968
 10
123.22829128828
  20
210.141214815983
 10
123.218367322854
  20
210.157045033944
 10
123.208063569391
  20
210.172313894649
 10
123.197207604855
  20
210.187294448896
 10
123.185627006212
  20
210.202259747482
 10
123.173149350426
  20
210.217482841205
 10
123.159602214461
  20
210.233236780864
 10
123.144879797641
  20
210.249711223604
 10
123.129142788722
  20
210.266762251957
 10
123.112618498818
  20
210.284162554804
 10
123.095534239042
  20
210.301684821027
 10
123.078117320509
  20
210.319101739505
 10
123.060595054333
  20
210.336185999119
 10
123.043194751628
  20
210.35271028875
 10
123.026143723508
  20
210.368447297279
 10
123.009669281087
  20
210.383169713585
 10
122.993915341828
  20
210.396716848911
 10
122.978692248594
  20
210.409194503947
 10
122.963726950597
  20
210.420775101743
 10
122.94874639705
  20
210.43163106535
 10
122.933477537163
  20
210.441934817819
 10
122.917647320149
  20
210.451858782201
 10
122.90098269522
  20
210.461575381546
 10
122.883210611588
  20
210.471257038905
 10
122.864058018464
  20
210.48107617733
 10
122.843338389183
  20
210.491156018663
 10
122.821211293561
  20
210.50142297992
 10
122.797922825537
  20
210.511754276906
 10
122.773719079049
  20
210.522027125429
 10
122.748846148036
  20
210.532118741296
 10
122.723550126436
  20
210.541906340313
 10
122.698077108188
  20
210.551267138287
 10
122.672673187229
  20
210.560078351026
 10
122.6475844575
  20
210.568217194336
 10
122.622925202953
  20
210.575578856912
 10
122.598282467608
  20
210.582130419004
 10
122.573111485501
  20
210.587856933748
 10
122.546867490666
  20
210.592743454283
 10
122.519005717139
  20
210.596775033746
 10
122.488981398954
  20
210.599936725274
 10
122.456249770148
  20
210.602213582005
 10
122.420266064754
  20
210.603590657076
 10
122.380485516809
  20
210.604053003625
  0
LWPOLYLINE
  5
3F8
100
AcDbEntity
  8
VISIBLE__ISO_
100
AcDbPolyline
  6
BYLAYER
 90
     10
 10
122.380485516815
  20
231.08977216194
 10
122.347467604012
  20
231.089799569
 10
122.314087594773
  20
231.089881001111
 10
122.280468728706
  20
231.09001527467
 10
122.246734245417
  20
231.090201206075
 10
122.213007384515
  20
231.090437611722
 10
122.179411385606
  20
231.09072330801
 10
122.146069488299
  20
231.091057111336
 10
122.1131049322
  20
231.091437838096
 10
122.080640956917
  20
231.091864304688
  0
LWPOLYLINE
  5
3F9
100
AcDbEntity
  8
VISIBLE__ISO_
100
AcDbPolyline
  6
BYLAYER
 90
     10
 10
122.080640956917
  20
231.091864304688
 10
122.048794113185
  20
231.09233315931
 10
122.01765430545
  20
231.092838111215
 10
121.987304803884
  20
231.093373568384
 10
121.957828878662
  20
231.093933938798
 10
121.929309799956
  20
231.094513630438
 10
121.901830837939
  20
231.095107051286
 10
121.875475262785
  20
231.095708609323
 10
121.850326344666
  20
231.09631271253
 10
121.826467353755
  20
231.096913768888
  0
LWPOLYLINE
  5
3FA
100
AcDbEntity
  8
VISIBLE__ISO_
100
AcDbPolyline
  6
BYLAYER
 90
     10
 10
121.826467353755
  20
231.096913768888
 10
121.80363928646
  20
231.09751480537
 10
121.781588274985
  20
231.098118851622
 10
121.760405297347
  20
231.098720319525
 10
121.740181331563
  20
231.099313620963
 10
121.721007355649
  20
231.099893167818
 10
121.702974347621
  20
231.100453371974
 10
121.686173285495
  20
231.100988645313
 10
121.670695147287
  20
231.101493399718
 10
121.656630911013
  20
231.101962047072
  0
LWPOLYLINE
  5
3FB
100
AcDbEntity
  8
VISIBLE__ISO_
100
AcDbPolyline
  6
BYLAYER
 90
     10
 10
121.656630911013
  20
231.101962047072
 10
121.647997090759
  20
231.10225377609
 10
121.639864909062
  20
231.10253065498
 10
121.632234365924
  20
231.102792683741
 10
121.625105461344
  20
231.103039862375
 10
121.618478195322
  20
231.103272190881
 10
121.612352567858
  20
231.103489669259
 10
121.606728578952
  20
231.103692297509
 10
121.601606228605
  20
231.103880075631
 10
121.596985516815
  20
231.104053003625
  0
LWPOLYLINE
  5
3FC
100
AcDbEntity
  8
VISIBLE__ISO_
100
AcDbPolyline
  6
BYLAYER
 90
     10
 10
123.163985516815
  20
231.104053003625
 10
123.159364805026
  20
231.103880075631
 10
123.154242454678
  20
231.103692297509
 10
123.148618465773
  20
231.103489669259
 10
123.142492838309
  20
231.103272190881
 10
123.135865572287
  20
231.103039862375
 10
123.128736667707
  20
231.102792683741
 10
123.121106124568
  20
231.10253065498
 10
123.112973942872
  20
231.10225377609
 10
123.104340122617
  20
231.101962047072
  0
LWPOLYLINE
  5
3FD
100
AcDbEntity
  8
VISIBLE__ISO_
100
AcDbPolyline
  6
BYLAYER
 90
     10
 10
123.104340122617
  20
231.101962047072
 10
123.090275886344
  20
231.101493399718
 10
123.074797748136
  20
231.100988645313
 10
123.05799668601
  20
231.100453371974
 10
123.039963677981
  20
231.099893167818
 10
123.020789702067
  20
231.099313620963
 10
123.000565736283
  20
231.098720319525
 10
122.979382758646
  20
231.098118851622
 10
122.957331747171
  20
231.09751480537
 10
122.934503679875
  20
231.096913768888
  0
LWPOLYLINE
  5
3FE
100
AcDbEntity
  8
VISIBLE__ISO_
100
AcDbPolyline
  6
BYLAYER
 90
     10
 10
122.934503679875
  20
231.096913768888
 10
122.910644688965
  20
231.09631271253
 10
122.885495770846
  20
231.095708609323
 10
122.859140195691
  20
231.095107051286
 10
122.831661233674
  20
231.094513630438
 10
122.803142154968
  20
231.093933938798
 10
122.773666229746
  20
231.093373568383
 10
122.743316728181
  20
231.092838111215
 10
122.712176920446
  20
231.09233315931
 10
122.680330076714
  20
231.091864304688
  0
LWPOLYLINE
  5
3FF
100
AcDbEntity
  8
VISIBLE__ISO_
100
AcDbPolyline
  6
BYLAYER
 90
     10
 10
122.680330076714
  20
231.091864304688
 10
122.647866101431
  20
231.091437838096
 10
122.614901545332
  20
231.091057111336
 10
122.581559648024
  20
231.09072330801
 10
122.547963649115
  20
231.090437611722
 10
122.514236788213
  20
231.090201206075
 10
122.480502304924
  20
231.09001527467
 10
122.446883438857
  20
231.089881001111
 10
122.413503429618
  20
231.089799569
 10
122.380485516815
  20
231.08977216194
  0
LWPOLYLINE
  5
400
100
AcDbEntity
  8
VISIBLE__ISO_
100
AcDbPolyline
  6
BYLAYER
 90
     28
 10
268.454485516813
  20
202.947968353681
 10
268.503402520461
  20
202.948420022633
 10
268.547486924303
  20
202.949730015617
 10
268.587250486605
  20
202.951830811827
 10
268.623204965632
  20
202.954654890457
 10
268.65586211965
  20
202.9581347307
 10
268.685733706926
  20
202.962202811752
 10
268.713331485724
  20
202.966791612804
 10
268.739167214311
  20
202.971833613052
 10
268.763752650953
  20
202.977261291689
 10
268.787497154338
  20
202.983002679472
 10
268.810400484846
  20
202.98896801341
 10
268.832360003279
  20
202.995063082078
 10
268.853273070439
  20
203.001193674048
 10
268.873037047129
  20
203.007265577893
 10
268.891549294152
  20
203.013184582186
 10
268.90870717231
  20
203.018856475501
 10
268.924408042404
  20
203.02418704641
 10
268.938549265239
  20
203.029082083487
 10
268.951098846811
  20
203.033483967464
 10
268.962307373908
  20
203.037481447705
 10
268.97249607851
  20
203.041199865736
 10
268.981986192599
  20
203.04476456308
 10
268.991098948157
  20
203.048300881262
 10
269.000155577165
  20
203.051934161806
 10
269.009477311607
  20
203.055789746237
 10
269.019385383462
  20
203.059992976078
 10
269.030201024714
  20
203.064669192854
  0
LWPOLYLINE
  5
401
100
AcDbEntity
  8
VISIBLE__ISO_
100
AcDbPolyline
  6
BYLAYER
 90
     28
 10
267.878770008916
  20
203.064669192852
 10
267.889585650167
  20
203.059992976076
 10
267.899493722022
  20
203.055789746235
 10
267.908815456463
  20
203.051934161805
 10
267.917872085471
  20
203.048300881261
 10
267.926984841029
  20
203.044764563079
 10
267.936474955118
  20
203.041199865735
 10
267.94666365972
  20
203.037481447704
 10
267.957872186816
  20
203.033483967463
 10
267.970421768388
  20
203.029082083487
 10
267.984562991222
  20
203.02418704641
 10
268.000263861317
  20
203.018856475501
 10
268.017421739474
  20
203.013184582186
 10
268.035933986497
  20
203.007265577893
 10
268.055697963187
  20
203.001193674048
 10
268.076611030347
  20
202.995063082078
 10
268.09857054878
  20
202.98896801341
 10
268.121473879288
  20
202.983002679472
 10
268.145218382673
  20
202.977261291689
 10
268.169803819314
  20
202.971833613052
 10
268.195639547901
  20
202.966791612804
 10
268.2232373267
  20
202.962202811752
 10
268.253108913975
  20
202.9581347307
 10
268.285766067994
  20
202.954654890457
 10
268.321720547021
  20
202.951830811827
 10
268.361484109322
  20
202.949730015617
 10
268.405568513164
  20
202.948420022633
 10
268.454485516813
  20
202.947968353681
  0
LWPOLYLINE
  5
402
100
AcDbEntity
  8
VISIBLE__ISO_
100
AcDbPolyline
  6
BYLAYER
 90
     136
 10
268.454485516811
  20
203.194068202036
 10
268.50341113088
  20
203.193551426538
 10
268.547665847058
  20
203.192012843467
 10
268.587919718311
  20
203.189470067961
 10
268.624842797605
  20
203.185940715156
 10
268.659105137908
  20
203.181442400189
 10
268.691376792184
  20
203.175992738196
 10
268.722327813401
  20
203.169609344314
 10
268.752628254525
  20
203.16230983368
 10
268.782948168522
  20
203.154111821429
 10
268.813795510712
  20
203.145052732294
 10
268.845029845821
  20
203.135249229384
 10
268.876348640931
  20
203.124837785405
 10
268.907449363121
  20
203.113954873062
 10
268.938029479474
  20
203.102736965058
 10
268.967786457069
  20
203.0913205341
 10
268.996417762986
  20
203.079842052891
 10
269.023620864307
  20
203.068437994137
 10
269.049093228112
  20
203.057244830543
 10
269.072638695366
  20
203.046344701122
 10
269.094486602578
  20
203.035602410115
 10
269.114972660141
  20
203.024828428075
 10
269.134432578448
  20
203.013833225551
 10
269.153202067892
  20
203.002427273095
 10
269.171616838867
  20
202.990421041257
 10
269.190012601765
  20
202.977625000588
 10
269.208725066981
  20
202.963849621639
 10
269.228089944907
  20
202.948905374961
 10
269.248340429793
  20
202.932675999546
 10
269.269299651322
  20
202.915338308154
 10
269.29068822303
  20
202.897142381986
 10
269.312226758456
  20
202.878338302244
 10
269.333635871138
  20
202.859176150129
 10
269.354636174615
  20
202.839906006843
 10
269.374948282423
  20
202.820777953587
 10
269.394292808103
  20
202.802042071564
 10
269.412390365191
  20
202.783948441974
 10
269.429043458622
  20
202.766656016361
 10
269.444382158916
  20
202.749959227644
 10
269.458618427989
  20
202.73356137908
 10
269.471964227757
  20
202.71716577393
 10
269.484631520136
  20
202.700475715453
 10
269.496832267042
  20
202.683194506909
 10
269.508778430392
  20
202.665025451557
 10
269.520681972102
  20
202.645671852657
 10
269.532754854086
  20
202.624837013468
 10
269.545145018908
  20
202.602334760853
 10
269.557744331706
  20
202.578421016084
 10
269.570380638267
  20
202.553462224036
 10
269.582881784376
  20
202.527824829583
 10
269.595075615818
  20
202.501875277601
 10
269.606789978379
  20
202.475980012965
 10
269.617852717844
  20
202.450505480549
 10
269.628091679998
  20
202.425818125227
 10
269.637334710627
  20
202.402284391877
 10
269.645452918827
  20
202.380153250766
 10
269.652490466933
  20
202.359203773746
 10
269.658534780593
  20
202.339097558062
 10
269.663673285452
  20
202.319496200961
 10
269.667993407156
  20
202.300061299689
 10
269.671582571353
  20
202.28045445149
 10
269.674528203689
  20
202.260337253612
 10
269.67691772981
  20
202.239371303299
 10
269.678838575362
  20
202.217218197798
 10
269.680363595051
  20
202.193653038285
 10
269.681507359817
  20
202.16890494166
 10
269.682269869662
  20
202.143316528754
 10
269.682651124584
  20
202.117230420397
 10
269.682651124584
  20
202.090989237421
 10
269.682269869662
  20
202.064935600655
 10
269.681507359817
  20
202.039412130931
 10
269.680363595051
  20
202.014761449079
 10
269.678838575362
  20
201.99132617593
 10
269.67691772981
  20
201.969336399456
 10
269.674528203689
  20
201.948572076196
 10
269.671582571354
  20
201.92870062983
 10
269.667993407157
  20
201.90938948404
 10
269.663673285452
  20
201.890306062504
 10
269.658534780593
  20
201.871117788905
 10
269.652490466933
  20
201.851492086922
 10
269.645452918827
  20
201.831096380235
 10
269.637334710627
  20
201.809598092526
 10
269.628091679998
  20
201.786778946336
 10
269.617852717844
  20
201.762877859656
 10
269.606789978379
  20
201.738248049336
 10
269.595075615818
  20
201.713242732229
 10
269.582881784376
  20
201.688215125186
 10
269.570380638268
  20
201.66351844506
 10
269.557744331707
  20
201.6395059087
 10
269.545145018908
  20
201.61653073296
 10
269.532754854087
  20
201.59494613469
 10
269.520681972102
  20
201.574998999443
 10
269.508778430392
  20
201.556510887572
 10
269.496832267043
  20
201.539197028127
 10
269.484631520136
  20
201.522772650163
 10
269.471964227757
  20
201.506952982731
 10
269.458618427989
  20
201.491453254885
 10
269.444382158916
  20
201.475988695676
 10
269.429043458622
  20
201.460274534158
 10
269.412390365191
  20
201.444025999382
 10
269.394292808103
  20
201.427044753973
 10
269.374948282424
  20
201.409478194837
 10
269.354636174615
  20
201.391560152452
 10
269.333635871138
  20
201.373524457295
 10
269.312226758456
  20
201.355604939844
 10
269.29068822303
  20
201.338035430577
 10
269.269299651322
  20
201.321049759972
 10
269.248340429794
  20
201.304881758506
 10
269.228089944907
  20
201.289765256656
 10
269.208725066981
  20
201.275865513198
 10
269.190012601766
  20
201.263073500097
 10
269.171616838867
  20
201.251211617612
 10
269.153202067892
  20
201.240102266006
 10
269.134432578448
  20
201.22956784554
 10
269.114972660141
  20
201.219430756475
 10
269.094486602579
  20
201.209513399073
 10
269.072638695367
  20
201.199638173595
 10
269.049093228112
  20
201.189627480302
 10
269.023620864308
  20
201.179354156161
 10
268.996417762987
  20
201.168892784952
 10
268.967786457069
  20
201.158368387162
 10
268.938029479474
  20
201.147905983278
 10
268.907449363122
  20
201.137630593785
 10
268.876348640931
  20
201.127667239169
 10
268.845029845821
  20
201.118140939917
 10
268.813795510712
  20
201.109176716515
 10
268.782948168523
  20
201.100899589449
 10
268.752628254526
  20
201.093416141033
 10
268.722327813402
  20
201.086759200897
 10
268.691376792184
  20
201.080943160496
 10
268.659105137908
  20
201.075982411288
 10
268.624842797605
  20
201.07189134473
 10
268.587919718311
  20
201.068684352278
 10
268.547665847058
  20
201.066375825389
 10
268.503411130881
  20
201.064980155521
 10
268.454485516812
  20
201.06451173413
  0
LWPOLYLINE
  5
403
100
AcDbEntity
  8
VISIBLE__ISO_
100
AcDbPolyline
  6
BYLAYER
 90
     136
 10
268.454485516812
  20
201.06451173413
 10
268.405559902743
  20
201.064980155521
 10
268.361305186565
  20
201.066375825389
 10
268.321051315312
  20
201.068684352278
 10
268.284128236018
  20
201.07189134473
 10
268.249865895716
  20
201.075982411288
 10
268.217594241439
  20
201.080943160496
 10
268.186643220222
  20
201.086759200897
 10
268.156342779098
  20
201.093416141033
 10
268.126022865101
  20
201.100899589449
 10
268.095175522911
  20
201.109176716515
 10
268.063941187802
  20
201.118140939917
 10
268.032622392693
  20
201.127667239169
 10
268.001521670502
  20
201.137630593785
 10
267.970941554149
  20
201.147905983278
 10
267.941184576554
  20
201.158368387162
 10
267.912553270637
  20
201.168892784952
 10
267.885350169316
  20
201.179354156161
 10
267.859877805511
  20
201.189627480302
 10
267.836332338257
  20
201.199638173595
 10
267.814484431045
  20
201.209513399073
 10
267.793998373482
  20
201.219430756475
 10
267.774538455175
  20
201.22956784554
 10
267.755768965731
  20
201.240102266006
 10
267.737354194756
  20
201.251211617612
 10
267.718958431858
  20
201.263073500097
 10
267.700245966642
  20
201.275865513198
 10
267.680881088716
  20
201.289765256656
 10
267.66063060383
  20
201.304881758506
 10
267.639671382301
  20
201.321049759972
 10
267.618282810593
  20
201.338035430577
 10
267.596744275167
  20
201.355604939844
 10
267.575335162485
  20
201.373524457295
 10
267.554334859008
  20
201.391560152452
 10
267.5340227512
  20
201.409478194837
 10
267.51467822552
  20
201.427044753973
 10
267.496580668432
  20
201.444025999382
 10
267.479927575001
  20
201.460274534158
 10
267.464588874707
  20
201.475988695676
 10
267.450352605634
  20
201.491453254885
 10
267.437006805866
  20
201.506952982731
 10
267.424339513487
  20
201.522772650163
 10
267.412138766581
  20
201.539197028127
 10
267.400192603231
  20
201.556510887572
 10
267.388289061522
  20
201.574998999443
 10
267.376216179537
  20
201.59494613469
 10
267.363826014715
  20
201.61653073296
 10
267.351226701917
  20
201.6395059087
 10
267.338590395356
  20
201.66351844506
 10
267.326089249247
  20
201.688215125187
 10
267.313895417805
  20
201.713242732229
 10
267.302181055244
  20
201.738248049336
 10
267.291118315779
  20
201.762877859656
 10
267.280879353625
  20
201.786778946336
 10
267.271636322996
  20
201.809598092526
 10
267.263518114796
  20
201.831096380235
 10
267.25648056669
  20
201.851492086922
 10
267.25043625303
  20
201.871117788905
 10
267.245297748171
  20
201.890306062505
 10
267.240977626467
  20
201.90938948404
 10
267.23738846227
  20
201.92870062983
 10
267.234442829934
  20
201.948572076196
 10
267.232053303813
  20
201.969336399456
 10
267.230132458261
  20
201.99132617593
 10
267.228607438572
  20
202.014761449079
 10
267.227463673806
  20
202.039412130931
 10
267.226701163961
  20
202.064935600655
 10
267.226319909039
  20
202.090989237421
 10
267.226319909039
  20
202.117230420397
 10
267.226701163961
  20
202.143316528754
 10
267.227463673806
  20
202.16890494166
 10
267.228607438572
  20
202.193653038285
 10
267.230132458261
  20
202.217218197798
 10
267.232053303813
  20
202.239371303299
 10
267.234442829934
  20
202.260337253612
 10
267.23738846227
  20
202.28045445149
 10
267.240977626467
  20
202.300061299689
 10
267.245297748171
  20
202.319496200961
 10
267.25043625303
  20
202.339097558062
 10
267.25648056669
  20
202.359203773746
 10
267.263518114796
  20
202.380153250766
 10
267.271636322996
  20
202.402284391877
 10
267.280879353625
  20
202.425818125227
 10
267.291118315779
  20
202.450505480549
 10
267.302181055244
  20
202.475980012965
 10
267.313895417805
  20
202.501875277601
 10
267.326089249247
  20
202.527824829583
 10
267.338590395356
  20
202.553462224036
 10
267.351226701917
  20
202.578421016084
 10
267.363826014715
  20
202.602334760853
 10
267.376216179536
  20
202.624837013468
 10
267.388289061521
  20
202.645671852657
 10
267.400192603231
  20
202.665025451557
 10
267.41213876658
  20
202.683194506909
 10
267.424339513487
  20
202.700475715453
 10
267.437006805866
  20
202.71716577393
 10
267.450352605634
  20
202.73356137908
 10
267.464588874707
  20
202.749959227644
 10
267.479927575001
  20
202.766656016361
 10
267.496580668432
  20
202.783948441974
 10
267.51467822552
  20
202.802042071564
 10
267.534022751199
  20
202.820777953587
 10
267.554334859008
  20
202.839906006843
 10
267.575335162485
  20
202.859176150129
 10
267.596744275167
  20
202.878338302244
 10
267.618282810593
  20
202.897142381986
 10
267.639671382301
  20
202.915338308154
 10
267.660630603829
  20
202.932675999546
 10
267.680881088716
  20
202.948905374961
 10
267.700245966642
  20
202.963849621639
 10
267.718958431857
  20
202.977625000588
 10
267.737354194756
  20
202.990421041257
 10
267.75576896573
  20
203.002427273095
 10
267.774538455175
  20
203.013833225551
 10
267.793998373482
  20
203.024828428075
 10
267.814484431044
  20
203.035602410115
 10
267.836332338256
  20
203.046344701122
 10
267.859877805511
  20
203.057244830543
 10
267.885350169315
  20
203.068437994137
 10
267.912553270636
  20
203.079842052891
 10
267.941184576554
  20
203.0913205341
 10
267.970941554149
  20
203.102736965058
 10
268.001521670501
  20
203.113954873062
 10
268.032622392692
  20
203.124837785405
 10
268.063941187802
  20
203.135249229384
 10
268.095175522911
  20
203.145052732294
 10
268.1260228651
  20
203.154111821429
 10
268.156342779097
  20
203.162309833679
 10
268.186643220221
  20
203.169609344314
 10
268.217594241439
  20
203.175992738196
 10
268.249865895715
  20
203.181442400189
 10
268.284128236018
  20
203.185940715156
 10
268.321051315312
  20
203.189470067961
 10
268.361305186565
  20
203.192012843467
 10
268.405559902743
  20
203.193551426538
 10
268.454485516811
  20
203.194068202036
  0
LWPOLYLINE
  5
404
100
AcDbEntity
  8
VISIBLE__ISO_
100
AcDbPolyline
  6
BYLAYER
 90
     10
 10
268.454485516815
  20
224.553579074708
 10
268.402653795015
  20
224.553676151039
 10
268.350256384781
  20
224.553964554256
 10
268.297486676856
  20
224.554440045698
 10
268.244538061979
  20
224.5550983867
 10
268.191603930894
  20
224.5559353386
 10
268.13887767434
  20
224.556946662736
 10
268.08655268306
  20
224.558128120444
 10
268.034822347795
  20
224.559475473063
 10
267.983880059285
  20
224.560984481928
  0
LWPOLYLINE
  5
405
100
AcDbEntity
  8
VISIBLE__ISO_
100
AcDbPolyline
  6
BYLAYER
 90
     10
 10
267.983880059285
  20
224.560984481928
 10
267.933908488049
  20
224.56264319922
 10
267.885048298606
  20
224.564429313128
 10
267.837429872701
  20
224.566323039
 10
267.791183592081
  20
224.568304592187
 10
267.746439838491
  20
224.570354188038
 10
267.703328993676
  20
224.572452041903
 10
267.661981439384
  20
224.574578369131
 10
267.622527557358
  20
224.576713385072
 10
267.585097729346
  20
224.578837305076
  0
LWPOLYLINE
  5
406
100
AcDbEntity
  8
VISIBLE__ISO_
100
AcDbPolyline
  6
BYLAYER
 90
     10
 10
267.585097729346
  20
224.578837305076
 10
267.549284717625
  20
224.580960866788
 10
267.514689456715
  20
224.583094860811
 10
267.481454753869
  20
224.585219572225
 10
267.449723416341
  20
224.587315286112
 10
267.419638251384
  20
224.589362287552
 10
267.39134206625
  20
224.591340861626
 10
267.364977668193
  20
224.593231293417
 10
267.340687864465
  20
224.595013868003
 10
267.31861546232
  20
224.596668870467
  0
LWPOLYLINE
  5
407
100
AcDbEntity
  8
VISIBLE__ISO_
100
AcDbPolyline
  6
BYLAYER
 90
     10
 10
267.31861546232
  20
224.596668870467
 10
267.305064811772
  20
224.597699081354
 10
267.292300992041
  20
224.598676854328
 10
267.280324003128
  20
224.599602189391
 10
267.269133845032
  20
224.600475086543
 10
267.258730517754
  20
224.601295545783
 10
267.249114021293
  20
224.602063567111
 10
267.24028435565
  20
224.602779150527
 10
267.232241520824
  20
224.603442296032
 10
267.224985516815
  20
224.604053003625
  0
LWPOLYLINE
  5
408
100
AcDbEntity
  8
VISIBLE__ISO_
100
AcDbPolyline
  6
BYLAYER
 90
     10
 10
269.683985516815
  20
224.604053003625
 10
269.676729512807
  20
224.603442296032
 10
269.668686677981
  20
224.602779150527
 10
269.659857012338
  20
224.602063567111
 10
269.650240515877
  20
224.601295545783
 10
269.639837188598
  20
224.600475086543
 10
269.628647030503
  20
224.599602189391
 10
269.616670041589
  20
224.598676854328
 10
269.603906221858
  20
224.597699081354
 10
269.59035557131
  20
224.596668870467
  0
LWPOLYLINE
  5
409
100
AcDbEntity
  8
VISIBLE__ISO_
100
AcDbPolyline
  6
BYLAYER
 90
     10
 10
269.59035557131
  20
224.596668870467
 10
269.568283169165
  20
224.595013868003
 10
269.543993365438
  20
224.593231293417
 10
269.517628967381
  20
224.591340861627
 10
269.489332782247
  20
224.589362287552
 10
269.459247617289
  20
224.587315286112
 10
269.427516279761
  20
224.585219572225
 10
269.394281576915
  20
224.583094860811
 10
269.359686316005
  20
224.580960866789
 10
269.323873304284
  20
224.578837305076
  0
LWPOLYLINE
  5
40A
100
AcDbEntity
  8
VISIBLE__ISO_
100
AcDbPolyline
  6
BYLAYER
 90
     10
 10
269.323873304284
  20
224.578837305076
 10
269.286443476272
  20
224.576713385072
 10
269.246989594247
  20
224.574578369131
 10
269.205642039954
  20
224.572452041903
 10
269.16253119514
  20
224.570354188038
 10
269.117787441549
  20
224.568304592187
 10
269.071541160929
  20
224.566323039
 10
269.023922735024
  20
224.564429313128
 10
268.975062545581
  20
224.56264319922
 10
268.925090974345
  20
224.560984481928
  0
LWPOLYLINE
  5
40B
100
AcDbEntity
  8
VISIBLE__ISO_
100
AcDbPolyline
  6
BYLAYER
 90
     10
 10
268.925090974345
  20
224.560984481928
 10
268.874148685835
  20
224.559475473063
 10
268.82241835057
  20
224.558128120444
 10
268.77009335929
  20
224.556946662736
 10
268.717367102736
  20
224.5559353386
 10
268.664432971651
  20
224.5550983867
 10
268.611484356774
  20
224.554440045698
 10
268.558714648849
  20
224.553964554256
 10
268.506317238615
  20
224.553676151039
 10
268.454485516815
  20
224.553579074708
  0
LWPOLYLINE
  5
40C
100
AcDbEntity
  8
VISIBLE__ISO_
100
AcDbPolyline
  6
BYLAYER
 90
     10
 10
121.596985516805
  20
105.666184025874
 10
121.601606228594
  20
105.666356953868
 10
121.606728578942
  20
105.66654473199
 10
121.612352567847
  20
105.66674736024
 10
121.618478195311
  20
105.666964838618
 10
121.625105461332
  20
105.667197167123
 10
121.632234365912
  20
105.667444345757
 10
121.639864909049
  20
105.667706374519
 10
121.647997090745
  20
105.667983253408
 10
121.656630910998
  20
105.668274982426
  0
LWPOLYLINE
  5
40D
100
AcDbEntity
  8
VISIBLE__ISO_
100
AcDbPolyline
  6
BYLAYER
 90
     10
 10
121.656630910998
  20
105.668274982426
 10
121.670695147272
  20
105.66874362978
 10
121.68617328548
  20
105.669248384185
 10
121.702974347606
  20
105.669783657524
 10
121.721007355634
  20
105.67034386168
 10
121.740181331548
  20
105.670923408536
 10
121.760405297333
  20
105.671516709974
 10
121.78158827497
  20
105.672118177877
 10
121.803639286445
  20
105.672722224128
 10
121.826467353741
  20
105.67332326061
  0
LWPOLYLINE
  5
40E
100
AcDbEntity
  8
VISIBLE__ISO_
100
AcDbPolyline
  6
BYLAYER
 90
     10
 10
121.826467353741
  20
105.67332326061
 10
121.850326344651
  20
105.673924316968
 10
121.87547526277
  20
105.674528420175
 10
121.901830837924
  20
105.675129978212
 10
121.929309799941
  20
105.67572339906
 10
121.957828878647
  20
105.676303090701
 10
121.987304803869
  20
105.676863461115
 10
122.017654305435
  20
105.677398918284
 10
122.04879411317
  20
105.677903870188
 10
122.080640956902
  20
105.67837272481
  0
LWPOLYLINE
  5
40F
100
AcDbEntity
  8
VISIBLE__ISO_
100
AcDbPolyline
  6
BYLAYER
 90
     10
 10
122.080640956902
  20
105.67837272481
 10
122.113104932185
  20
105.678799191402
 10
122.146069488284
  20
105.679179918163
 10
122.179411385592
  20
105.679513721488
 10
122.2130073845
  20
105.679799417776
 10
122.246734245403
  20
105.680035823424
 10
122.280468728691
  20
105.680221754828
 10
122.314087594759
  20
105.680356028388
 10
122.347467603997
  20
105.680437460498
 10
122.3804855168
  20
105.680464867558
  0
LWPOLYLINE
  5
410
100
AcDbEntity
  8
VISIBLE__ISO_
100
AcDbPolyline
  6
BYLAYER
 90
     10
 10
122.3804855168
  20
105.680464867558
 10
122.413503429603
  20
105.680437460498
 10
122.446883438842
  20
105.680356028388
 10
122.480502304909
  20
105.680221754828
 10
122.514236788198
  20
105.680035823424
 10
122.5479636491
  20
105.679799417776
 10
122.581559648009
  20
105.679513721488
 10
122.614901545317
  20
105.679179918163
 10
122.647866101416
  20
105.678799191403
 10
122.680330076699
  20
105.67837272481
  0
LWPOLYLINE
  5
411
100
AcDbEntity
  8
VISIBLE__ISO_
100
AcDbPolyline
  6
BYLAYER
 90
     10
 10
122.680330076699
  20
105.67837272481
 10
122.712176920431
  20
105.677903870189
 10
122.743316728166
  20
105.677398918284
 10
122.773666229731
  20
105.676863461115
 10
122.803142154953
  20
105.676303090701
 10
122.83166123366
  20
105.67572339906
 10
122.859140195676
  20
105.675129978212
 10
122.885495770831
  20
105.674528420175
 10
122.91064468895
  20
105.673924316968
 10
122.93450367986
  20
105.67332326061
  0
LWPOLYLINE
  5
412
100
AcDbEntity
  8
VISIBLE__ISO_
100
AcDbPolyline
  6
BYLAYER
 90
     10
 10
122.93450367986
  20
105.67332326061
 10
122.957331747156
  20
105.672722224128
 10
122.979382758631
  20
105.672118177877
 10
123.000565736268
  20
105.671516709974
 10
123.020789702052
  20
105.670923408536
 10
123.039963677966
  20
105.67034386168
 10
123.057996685995
  20
105.669783657524
 10
123.074797748121
  20
105.669248384185
 10
123.090275886329
  20
105.66874362978
 10
123.104340122602
  20
105.668274982426
  0
LWPOLYLINE
  5
413
100
AcDbEntity
  8
VISIBLE__ISO_
100
AcDbPolyline
  6
BYLAYER
 90
     10
 10
123.104340122602
  20
105.668274982426
 10
123.112973942857
  20
105.667983253409
 10
123.121106124554
  20
105.667706374519
 10
123.128736667692
  20
105.667444345757
 10
123.135865572272
  20
105.667197167124
 10
123.142492838294
  20
105.666964838618
 10
123.148618465758
  20
105.66674736024
 10
123.154242454664
  20
105.66654473199
 10
123.159364805011
  20
105.666356953868
 10
123.1639855168
  20
105.666184025874
  0
LWPOLYLINE
  5
414
100
AcDbEntity
  8
VISIBLE__ISO_
100
AcDbPolyline
  6
BYLAYER
 90
     136
 10
122.380485516794
  20
127.949684025876
 10
122.411651779738
  20
127.949321817968
 10
122.439843528174
  20
127.948242993584
 10
122.465487555647
  20
127.946459251736
 10
122.489010655708
  20
127.943982291434
 10
122.510839621903
  20
127.940823811689
 10
122.531401247782
  20
127.936995511511
 10
122.551122326891
  20
127.932509089911
 10
122.57042965278
  20
127.9273762459
 10
122.589750018997
  20
127.921608678489
 10
122.609406950298
  20
127.915232170226
 10
122.629310896273
  20
127.908328837812
 10
122.649269037722
  20
127.900994881486
 10
122.669088555444
  20
127.893326501486
 10
122.688576630237
  20
127.885419898051
 10
122.707540442901
  20
127.87737127142
 10
122.725787174234
  20
127.869276821831
 10
122.743124005035
  20
127.861232749523
 10
122.759358116104
  20
127.853335254735
 10
122.774364480761
  20
127.845641988132
 10
122.78828924242
  20
127.838056402081
 10
122.801346337015
  20
127.830443399375
 10
122.813749700481
  20
127.822667882809
 10
122.825713268753
  20
127.814594755175
 10
122.837450977766
  20
127.806088919268
 10
122.849176763455
  20
127.797015277881
 10
122.861104561754
  20
127.787238733808
 10
122.8734483086
  20
127.776624189842
 10
122.886356599094
  20
127.765088749821
 10
122.899716665009
  20
127.752758321763
 10
122.913350397283
  20
127.739811014729
 10
122.927079686857
  20
127.726424937782
 10
122.94072642467
  20
127.712778199982
 10
122.954112501662
  20
127.699048910392
 10
122.967059808772
  20
127.685415178073
 10
122.97939023694
  20
127.672055112087
 10
122.990925677105
  20
127.659146821496
 10
123.001540221251
  20
127.646803074528
 10
123.011316765536
  20
127.634875276079
 10
123.020390407163
  20
127.623149490212
 10
123.028896243335
  20
127.611411780989
 10
123.036969371254
  20
127.599448212472
 10
123.044744888124
  20
127.587044848724
 10
123.052357891145
  20
127.573987753807
 10
123.059943477521
  20
127.560062991784
 10
123.067636744455
  20
127.545056626717
 10
123.075531991687
  20
127.528834511009
 10
123.083560329109
  20
127.511581650422
 10
123.091612069153
  20
127.493562839057
 10
123.099577524249
  20
127.475042871017
 10
123.107347006828
  20
127.456286540405
 10
123.114810829319
  20
127.437558641321
 10
123.121859304155
  20
127.419123967868
 10
123.128382743765
  20
127.401247314148
 10
123.13427146058
  20
127.384193474263
 10
123.139443337895
  20
127.368141973352
 10
123.143926542464
  20
127.352931260698
 10
123.147776811903
  20
127.338314516621
 10
123.151049883831
  20
127.324044921443
 10
123.153801495865
  20
127.309875655482
 10
123.156087385622
  20
127.29555989906
 10
123.15796329072
  20
127.280850832496
 10
123.159484948778
  20
127.265501636112
 10
123.160708097411
  20
127.249265490226
 10
123.161679184636
  20
127.231978703225
 10
123.162407500054
  20
127.213810095749
 10
123.162893043666
  20
127.195011616507
 10
123.163135815473
  20
127.175835214204
 10
123.163135815473
  20
127.156532837548
 10
123.162893043666
  20
127.137356435245
 10
123.162407500054
  20
127.118557956003
 10
123.161679184636
  20
127.100389348527
 10
123.160708097411
  20
127.083102561526
 10
123.159484948778
  20
127.06686641564
 10
123.157963290721
  20
127.051517219256
 10
123.156087385622
  20
127.036808152692
 10
123.153801495865
  20
127.02249239627
 10
123.151049883831
  20
127.008323130309
 10
123.147776811903
  20
126.994053535131
 10
123.143926542464
  20
126.979436791054
 10
123.139443337895
  20
126.9642260784
 10
123.13427146058
  20
126.948174577489
 10
123.128382743765
  20
126.931120737604
 10
123.121859304155
  20
126.913244083884
 10
123.11481082932
  20
126.894809410431
 10
123.107347006828
  20
126.876081511347
 10
123.099577524249
  20
126.857325180734
 10
123.091612069154
  20
126.838805212695
 10
123.08356032911
  20
126.82078640133
 10
123.075531991687
  20
126.803533540743
 10
123.067636744455
  20
126.787311425035
 10
123.059943477521
  20
126.772305059968
 10
123.052357891145
  20
126.758380297945
 10
123.044744888124
  20
126.745323203028
 10
123.036969371255
  20
126.73291983928
 10
123.028896243336
  20
126.720956270763
 10
123.020390407164
  20
126.70921856154
 10
123.011316765536
  20
126.697492775673
 10
123.001540221251
  20
126.685564977224
 10
122.990925677105
  20
126.673221230256
 10
122.97939023694
  20
126.660312939665
 10
122.967059808772
  20
126.646952873679
 10
122.954112501662
  20
126.63331914136
 10
122.940726424671
  20
126.61958985177
 10
122.927079686857
  20
126.60594311397
 10
122.913350397283
  20
126.592557037022
 10
122.899716665009
  20
126.579609729989
 10
122.886356599095
  20
126.567279301931
 10
122.873448308601
  20
126.55574386191
 10
122.861104561755
  20
126.545129317944
 10
122.849176763455
  20
126.535352773871
 10
122.837450977766
  20
126.526279132484
 10
122.825713268753
  20
126.517773296577
 10
122.813749700481
  20
126.509700168943
 10
122.801346337015
  20
126.501924652377
 10
122.788289242421
  20
126.494311649671
 10
122.774364480762
  20
126.48672606362
 10
122.759358116104
  20
126.479032797016
 10
122.743124005036
  20
126.471135302228
 10
122.725787174234
  20
126.463091229921
 10
122.707540442901
  20
126.454996780332
 10
122.688576630238
  20
126.446948153701
 10
122.669088555445
  20
126.439041550266
 10
122.649269037723
  20
126.431373170266
 10
122.629310896274
  20
126.42403921394
 10
122.609406950298
  20
126.417135881526
 10
122.589750018997
  20
126.410759373263
 10
122.570429652781
  20
126.404991805851
 10
122.551122326892
  20
126.39985896184
 10
122.531401247782
  20
126.395372540241
 10
122.510839621904
  20
126.391544240063
 10
122.489010655708
  20
126.388385760317
 10
122.465487555648
  20
126.385908800015
 10
122.439843528174
  20
126.384125058167
 10
122.411651779739
  20
126.383046233784
 10
122.380485516794
  20
126.382684025876
  0
LWPOLYLINE
  5
415
100
AcDbEntity
  8
VISIBLE__ISO_
100
AcDbPolyline
  6
BYLAYER
 90
     136
 10
122.380485516794
  20
126.382684025876
 10
122.349319253849
  20
126.383046233784
 10
122.321127505414
  20
126.384125058167
 10
122.29548347794
  20
126.385908800015
 10
122.27196037788
  20
126.388385760317
 10
122.250131411685
  20
126.391544240062
 10
122.229569785806
  20
126.39537254024
 10
122.209848706697
  20
126.39985896184
 10
122.190541380808
  20
126.404991805851
 10
122.171221014591
  20
126.410759373262
 10
122.15156408329
  20
126.417135881525
 10
122.131660137315
  20
126.424039213939
 10
122.111701995865
  20
126.431373170266
 10
122.091882478144
  20
126.439041550266
 10
122.072394403351
  20
126.446948153701
 10
122.053430590687
  20
126.454996780332
 10
122.035183859354
  20
126.463091229921
 10
122.017847028553
  20
126.471135302228
 10
122.001612917484
  20
126.479032797016
 10
121.986606552826
  20
126.486726063619
 10
121.972681791168
  20
126.494311649671
 10
121.959624696573
  20
126.501924652377
 10
121.947221333107
  20
126.509700168943
 10
121.935257764835
  20
126.517773296576
 10
121.923520055822
  20
126.526279132483
 10
121.911794270133
  20
126.53535277387
 10
121.899866471833
  20
126.545129317944
 10
121.887522724988
  20
126.55574386191
 10
121.874614434494
  20
126.56727930193
 10
121.861254368579
  20
126.579609729988
 10
121.847620636305
  20
126.592557037022
 10
121.833891346731
  20
126.60594311397
 10
121.820244608918
  20
126.61958985177
 10
121.806858531926
  20
126.63331914136
 10
121.793911224816
  20
126.646952873679
 10
121.781580796648
  20
126.660312939665
 10
121.770045356483
  20
126.673221230256
 10
121.759430812337
  20
126.685564977223
 10
121.749654268052
  20
126.697492775672
 10
121.740580626425
  20
126.70921856154
 10
121.732074790253
  20
126.720956270763
 10
121.724001662333
  20
126.73291983928
 10
121.716226145464
  20
126.745323203028
 10
121.708613142443
  20
126.758380297945
 10
121.701027556067
  20
126.772305059968
 10
121.693334289133
  20
126.787311425034
 10
121.685439041901
  20
126.803533540742
 10
121.677410704478
  20
126.82078640133
 10
121.669358964435
  20
126.838805212694
 10
121.661393509339
  20
126.857325180734
 10
121.65362402676
  20
126.876081511347
 10
121.646160204269
  20
126.894809410431
 10
121.639111729433
  20
126.913244083884
 10
121.632588289823
  20
126.931120737604
 10
121.626699573008
  20
126.948174577488
 10
121.621527695693
  20
126.9642260784
 10
121.617044491124
  20
126.979436791054
 10
121.613194221685
  20
126.99405353513
 10
121.609921149757
  20
127.008323130309
 10
121.607169537723
  20
127.022492396269
 10
121.604883647966
  20
127.036808152692
 10
121.603007742867
  20
127.051517219255
 10
121.60148608481
  20
127.06686641564
 10
121.600262936177
  20
127.083102561525
 10
121.599291848952
  20
127.100389348527
 10
121.598563533534
  20
127.118557956002
 10
121.598077989922
  20
127.137356435245
 10
121.597835218115
  20
127.156532837547
 10
121.597835218115
  20
127.175835214204
 10
121.598077989922
  20
127.195011616506
 10
121.598563533534
  20
127.213810095749
 10
121.599291848952
  20
127.231978703224
 10
121.600262936177
  20
127.249265490226
 10
121.60148608481
  20
127.265501636111
 10
121.603007742867
  20
127.280850832496
 10
121.604883647966
  20
127.29555989906
 10
121.607169537723
  20
127.309875655482
 10
121.609921149757
  20
127.324044921442
 10
121.613194221685
  20
127.338314516621
 10
121.617044491124
  20
127.352931260697
 10
121.621527695693
  20
127.368141973351
 10
121.626699573008
  20
127.384193474263
 10
121.632588289823
  20
127.401247314147
 10
121.639111729433
  20
127.419123967867
 10
121.646160204268
  20
127.43755864132
 10
121.65362402676
  20
127.456286540404
 10
121.661393509338
  20
127.475042871017
 10
121.669358964434
  20
127.493562839057
 10
121.677410704478
  20
127.511581650421
 10
121.685439041901
  20
127.528834511009
 10
121.693334289133
  20
127.545056626717
 10
121.701027556066
  20
127.560062991783
 10
121.708613142443
  20
127.573987753806
 10
121.716226145464
  20
127.587044848723
 10
121.724001662333
  20
127.599448212471
 10
121.732074790252
  20
127.611411780988
 10
121.740580626424
  20
127.623149490212
 10
121.749654268052
  20
127.634875276079
 10
121.759430812337
  20
127.646803074528
 10
121.770045356483
  20
127.659146821495
 10
121.781580796648
  20
127.672055112086
 10
121.793911224816
  20
127.685415178072
 10
121.806858531926
  20
127.699048910391
 10
121.820244608917
  20
127.712778199982
 10
121.83389134673
  20
127.726424937781
 10
121.847620636304
  20
127.739811014729
 10
121.861254368579
  20
127.752758321763
 10
121.874614434493
  20
127.765088749821
 10
121.887522724987
  20
127.776624189841
 10
121.899866471833
  20
127.787238733807
 10
121.911794270133
  20
127.797015277881
 10
121.923520055822
  20
127.806088919268
 10
121.935257764835
  20
127.814594755175
 10
121.947221333107
  20
127.822667882808
 10
121.959624696573
  20
127.830443399375
 10
121.972681791167
  20
127.83805640208
 10
121.986606552826
  20
127.845641988132
 10
122.001612917484
  20
127.853335254735
 10
122.017847028552
  20
127.861232749523
 10
122.035183859354
  20
127.869276821831
 10
122.053430590687
  20
127.877371271419
 10
122.07239440335
  20
127.885419898051
 10
122.091882478143
  20
127.893326501486
 10
122.111701995865
  20
127.900994881486
 10
122.131660137314
  20
127.908328837812
 10
122.15156408329
  20
127.915232170226
 10
122.17122101459
  20
127.921608678489
 10
122.190541380807
  20
127.9273762459
 10
122.209848706696
  20
127.932509089911
 10
122.229569785806
  20
127.936995511511
 10
122.250131411684
  20
127.940823811689
 10
122.27196037788
  20
127.943982291434
 10
122.29548347794
  20
127.946459251736
 10
122.321127505414
  20
127.948242993584
 10
122.349319253849
  20
127.949321817968
 10
122.380485516794
  20
127.949684025876
  0
LWPOLYLINE
  5
416
100
AcDbEntity
  8
VISIBLE__ISO_
100
AcDbPolyline
  6
BYLAYER
 90
     10
 10
122.3804855168
  20
148.651903184189
 10
122.347467603998
  20
148.651930591249
 10
122.314087594759
  20
148.65201202336
 10
122.280468728691
  20
148.652146296919
 10
122.246734245403
  20
148.652332228324
 10
122.2130073845
  20
148.652568633971
 10
122.179411385591
  20
148.652854330259
 10
122.146069488284
  20
148.653188133585
 10
122.113104932185
  20
148.653568860345
 10
122.080640956902
  20
148.653995326937
  0
LWPOLYLINE
  5
417
100
AcDbEntity
  8
VISIBLE__ISO_
100
AcDbPolyline
  6
BYLAYER
 90
     10
 10
122.080640956902
  20
148.653995326937
 10
122.04879411317
  20
148.654464181559
 10
122.017654305435
  20
148.654969133463
 10
121.987304803869
  20
148.655504590632
 10
121.957828878647
  20
148.656064961046
 10
121.929309799941
  20
148.656644652687
 10
121.901830837924
  20
148.657238073535
 10
121.87547526277
  20
148.657839631572
 10
121.850326344651
  20
148.658443734779
 10
121.826467353741
  20
148.659044791137
  0
LWPOLYLINE
  5
418
100
AcDbEntity
  8
VISIBLE__ISO_
100
AcDbPolyline
  6
BYLAYER
 90
     10
 10
121.826467353741
  20
148.659044791137
 10
121.803639286445
  20
148.659645827619
 10
121.78158827497
  20
148.66024987387
 10
121.760405297333
  20
148.660851341774
 10
121.740181331549
  20
148.661444643212
 10
121.721007355634
  20
148.662024190067
 10
121.702974347606
  20
148.662584394223
 10
121.68617328548
  20
148.663119667562
 10
121.670695147272
  20
148.663624421967
 10
121.656630910998
  20
148.664093069321
  0
LWPOLYLINE
  5
419
100
AcDbEntity
  8
VISIBLE__ISO_
100
AcDbPolyline
  6
BYLAYER
 90
     10
 10
121.656630910998
  20
148.664093069321
 10
121.647997090744
  20
148.664384798339
 10
121.639864909047
  20
148.664661677228
 10
121.632234365909
  20
148.66492370599
 10
121.625105461329
  20
148.665170884624
 10
121.618478195307
  20
148.66540321313
 10
121.612352567843
  20
148.665620691508
 10
121.606728578937
  20
148.665823319758
 10
121.60160622859
  20
148.66601109788
 10
121.5969855168
  20
148.666184025874
  0
LWPOLYLINE
  5
41A
100
AcDbEntity
  8
VISIBLE__ISO_
100
AcDbPolyline
  6
BYLAYER
 90
     10
 10
123.1639855168
  20
148.666184025874
 10
123.159364805011
  20
148.66601109788
 10
123.154242454663
  20
148.665823319758
 10
123.148618465758
  20
148.665620691508
 10
123.142492838294
  20
148.66540321313
 10
123.135865572272
  20
148.665170884624
 10
123.128736667692
  20
148.664923705991
 10
123.121106124553
  20
148.664661677229
 10
123.112973942857
  20
148.664384798339
 10
123.104340122602
  20
148.664093069322
  0
LWPOLYLINE
  5
41B
100
AcDbEntity
  8
VISIBLE__ISO_
100
AcDbPolyline
  6
BYLAYER
 90
     10
 10
123.104340122602
  20
148.664093069322
 10
123.090275886329
  20
148.663624421968
 10
123.074797748121
  20
148.663119667563
 10
123.057996685995
  20
148.662584394224
 10
123.039963677966
  20
148.662024190068
 10
123.020789702052
  20
148.661444643212
 10
123.000565736268
  20
148.660851341774
 10
122.979382758631
  20
148.660249873871
 10
122.957331747156
  20
148.659645827619
 10
122.93450367986
  20
148.659044791137
  0
LWPOLYLINE
  5
41C
100
AcDbEntity
  8
VISIBLE__ISO_
100
AcDbPolyline
  6
BYLAYER
 90
     10
 10
122.93450367986
  20
148.659044791137
 10
122.91064468895
  20
148.658443734779
 10
122.885495770831
  20
148.657839631573
 10
122.859140195676
  20
148.657238073536
 10
122.83166123366
  20
148.656644652687
 10
122.803142154954
  20
148.656064961047
 10
122.773666229731
  20
148.655504590633
 10
122.743316728166
  20
148.654969133464
 10
122.712176920431
  20
148.654464181559
 10
122.680330076699
  20
148.653995326937
  0
LWPOLYLINE
  5
41D
100
AcDbEntity
  8
VISIBLE__ISO_
100
AcDbPolyline
  6
BYLAYER
 90
     10
 10
122.680330076699
  20
148.653995326937
 10
122.647866101416
  20
148.653568860345
 10
122.614901545317
  20
148.653188133585
 10
122.581559648009
  20
148.652854330259
 10
122.547963649101
  20
148.652568633971
 10
122.514236788198
  20
148.652332228324
 10
122.480502304909
  20
148.652146296919
 10
122.446883438842
  20
148.65201202336
 10
122.413503429603
  20
148.651930591249
 10
122.3804855168
  20
148.651903184189
  0
LWPOLYLINE
  5
41E
100
AcDbEntity
  8
VISIBLE_NARROW__ISO_
100
AcDbPolyline
  6
BYLAYER
 90
     136
 10
122.380485516794
  20
128.166184025876
 10
122.340704968848
  20
128.165721679327
 10
122.304721263455
  20
128.164344604256
 10
122.271989634648
  20
128.162067747525
 10
122.241965316464
  20
128.158906055997
 10
122.214103542936
  20
128.154874476534
 10
122.187859548102
  20
128.149987955999
 10
122.162688565994
  20
128.144261441255
 10
122.13804583065
  20
128.137709879163
 10
122.113386576103
  20
128.130348216587
 10
122.088297846373
  20
128.122209373277
 10
122.062893925415
  20
128.113398160538
 10
122.037420907167
  20
128.104037362564
 10
122.012124885567
  20
128.094249763546
 10
121.987251954554
  20
128.08415814768
 10
121.963048208066
  20
128.073885299157
 10
121.939759740042
  20
128.06355400217
 10
121.91763264442
  20
128.053287040914
 10
121.896913015138
  20
128.043207199581
 10
121.877760422015
  20
128.033388061156
 10
121.859988338383
  20
128.023706403796
 10
121.843323713454
  20
128.013989804451
 10
121.82749349644
  20
128.00406584007
 10
121.812224636553
  20
127.993762087601
 10
121.797244083005
  20
127.982906123994
 10
121.782278785009
  20
127.971325526198
 10
121.767055691775
  20
127.958847871162
 10
121.751301752516
  20
127.945300735836
 10
121.734827310095
  20
127.930578319529
 10
121.717776281975
  20
127.914841311001
 10
121.700375979269
  20
127.89831702137
 10
121.682853713093
  20
127.881232761756
 10
121.66543679456
  20
127.863815843278
 10
121.648352534785
  20
127.846293577055
 10
121.631828244881
  20
127.828893274207
 10
121.616091235961
  20
127.811842245854
 10
121.601368819142
  20
127.795367803115
 10
121.587821683177
  20
127.779613863456
 10
121.575344027391
  20
127.764390769732
 10
121.563763428747
  20
127.749425471146
 10
121.552907464212
  20
127.7344449169
 10
121.542603710748
  20
127.719176056195
 10
121.532679745322
  20
127.703345838234
 10
121.522963144898
  20
127.686681212219
 10
121.513281486441
  20
127.668909127352
 10
121.503462346916
  20
127.649756532835
 10
121.493385373863
  20
127.629052212918
 10
121.48313849713
  20
127.607032292041
 10
121.47286171714
  20
127.58403472969
 10
121.462695034316
  20
127.560397485354
 10
121.452778449081
  20
127.536458518519
 10
121.443251961859
  20
127.512555788673
 10
121.434255573073
  20
127.489027255302
 10
121.425929283146
  20
127.466210877895
 10
121.418413092502
  20
127.444444615939
 10
121.411811812455
  20
127.423957597206
 10
121.406089497895
  20
127.404543622612
 10
121.4011750146
  20
127.385887661356
 10
121.39699722835
  20
127.36767468264
 10
121.393485004925
  20
127.349589655663
 10
121.390567210105
  20
127.331317549626
 10
121.38817270967
  20
127.31254333373
 10
121.3862303694
  20
127.292951977175
 10
121.384669055074
  20
127.272228449161
 10
121.383429488176
  20
127.250163824106
 10
121.382499813003
  20
127.226973597295
 10
121.381880029554
  20
127.202979369229
 10
121.38157013783
  20
127.17850274041
 10
121.38157013783
  20
127.153865311341
 10
121.381880029554
  20
127.129388682522
 10
121.382499813003
  20
127.105394454456
 10
121.383429488176
  20
127.082204227645
 10
121.384669055074
  20
127.06013960259
 10
121.3862303694
  20
127.039416074576
 10
121.38817270967
  20
127.019824718021
 10
121.390567210105
  20
127.001050502125
 10
121.393485004925
  20
126.982778396088
 10
121.39699722835
  20
126.964693369111
 10
121.4011750146
  20
126.946480390395
 10
121.406089497895
  20
126.927824429139
 10
121.411811812456
  20
126.908410454545
 10
121.418413092502
  20
126.887923435812
 10
121.425929283146
  20
126.866157173855
 10
121.434255573073
  20
126.843340796449
 10
121.443251961859
  20
126.819812263078
 10
121.452778449081
  20
126.795909533232
 10
121.462695034316
  20
126.771970566397
 10
121.47286171714
  20
126.748333322061
 10
121.48313849713
  20
126.72533575971
 10
121.493385373863
  20
126.703315838833
 10
121.503462346916
  20
126.682611518916
 10
121.513281486442
  20
126.663458924399
 10
121.522963144899
  20
126.645686839532
 10
121.532679745323
  20
126.629022213517
 10
121.542603710749
  20
126.613191995556
 10
121.552907464212
  20
126.597923134851
 10
121.563763428748
  20
126.582942580605
 10
121.575344027391
  20
126.567977282019
 10
121.587821683178
  20
126.552754188295
 10
121.601368819142
  20
126.537000248636
 10
121.616091235962
  20
126.520525805897
 10
121.631828244881
  20
126.503474777544
 10
121.648352534785
  20
126.486074474696
 10
121.665436794561
  20
126.468552208473
 10
121.682853713094
  20
126.451135289995
 10
121.70037597927
  20
126.434051030381
 10
121.717776281975
  20
126.41752674075
 10
121.734827310095
  20
126.401789732222
 10
121.751301752517
  20
126.387067315915
 10
121.767055691775
  20
126.373520180589
 10
121.782278785009
  20
126.361042525553
 10
121.797244083006
  20
126.349461927757
 10
121.812224636554
  20
126.33860596415
 10
121.827493496441
  20
126.328302211681
 10
121.843323713455
  20
126.3183782473
 10
121.859988338384
  20
126.308661647955
 10
121.877760422016
  20
126.298979990595
 10
121.896913015139
  20
126.289160852171
 10
121.91763264442
  20
126.279081010837
 10
121.939759740042
  20
126.268814049581
 10
121.963048208066
  20
126.258482752594
 10
121.987251954554
  20
126.248209904071
 10
122.012124885567
  20
126.238118288205
 10
122.037420907167
  20
126.228330689188
 10
122.062893925416
  20
126.218969891213
 10
122.088297846374
  20
126.210158678475
 10
122.113386576104
  20
126.202019835165
 10
122.13804583065
  20
126.194658172588
 10
122.162688565995
  20
126.188106610497
 10
122.187859548102
  20
126.182380095752
 10
122.214103542937
  20
126.177493575217
 10
122.241965316464
  20
126.173461995754
 10
122.271989634649
  20
126.170300304226
 10
122.304721263455
  20
126.168023447495
 10
122.340704968849
  20
126.166646372424
 10
122.380485516794
  20
126.166184025876
  0
LWPOLYLINE
  5
41F
100
AcDbEntity
  8
VISIBLE_NARROW__ISO_
100
AcDbPolyline
  6
BYLAYER
 90
     136
 10
122.380485516794
  20
126.166184025876
 10
122.42026606474
  20
126.166646372424
 10
122.456249770133
  20
126.168023447496
 10
122.48898139894
  20
126.170300304226
 10
122.519005717124
  20
126.173461995754
 10
122.546867490651
  20
126.177493575217
 10
122.573111485486
  20
126.182380095752
 10
122.598282467594
  20
126.188106610497
 10
122.622925202938
  20
126.194658172589
 10
122.647584457485
  20
126.202019835165
 10
122.672673187215
  20
126.210158678475
 10
122.698077108173
  20
126.218969891213
 10
122.723550126421
  20
126.228330689188
 10
122.748846148021
  20
126.238118288205
 10
122.773719079034
  20
126.248209904072
 10
122.797922825522
  20
126.258482752595
 10
122.821211293546
  20
126.268814049581
 10
122.843338389168
  20
126.279081010837
 10
122.864058018449
  20
126.289160852171
 10
122.883210611573
  20
126.298979990596
 10
122.900982695205
  20
126.308661647955
 10
122.917647320134
  20
126.3183782473
 10
122.933477537148
  20
126.328302211682
 10
122.948746397035
  20
126.338605964151
 10
122.963726950582
  20
126.349461927758
 10
122.978692248579
  20
126.361042525553
 10
122.993915341813
  20
126.373520180589
 10
123.009669281072
  20
126.387067315916
 10
123.026143723493
  20
126.401789732222
 10
123.043194751613
  20
126.41752674075
 10
123.060595054318
  20
126.434051030381
 10
123.078117320494
  20
126.451135289996
 10
123.095534239027
  20
126.468552208474
 10
123.112618498803
  20
126.486074474696
 10
123.129142788707
  20
126.503474777544
 10
123.144879797626
  20
126.520525805897
 10
123.159602214446
  20
126.537000248637
 10
123.173149350411
  20
126.552754188296
 10
123.185627006197
  20
126.567977282019
 10
123.197207604841
  20
126.582942580605
 10
123.208063569376
  20
126.597923134852
 10
123.21836732284
  20
126.613191995557
 10
123.228291288266
  20
126.629022213518
 10
123.238007888689
  20
126.645686839533
 10
123.247689547147
  20
126.6634589244
 10
123.257508686672
  20
126.682611518916
 10
123.267585659725
  20
126.703315838833
 10
123.277832536458
  20
126.725335759711
 10
123.288109316448
  20
126.748333322061
 10
123.298275999272
  20
126.771970566398
 10
123.308192584507
  20
126.795909533233
 10
123.317719071729
  20
126.819812263079
 10
123.326715460515
  20
126.843340796449
 10
123.335041750442
  20
126.866157173856
 10
123.342557941086
  20
126.887923435812
 10
123.349159221132
  20
126.908410454545
 10
123.354881535693
  20
126.92782442914
 10
123.359796018988
  20
126.946480390395
 10
123.363973805238
  20
126.964693369112
 10
123.367486028663
  20
126.982778396089
 10
123.370403823483
  20
127.001050502125
 10
123.372798323918
  20
127.019824718022
 10
123.374740664188
  20
127.039416074577
 10
123.376301978514
  20
127.060139602591
 10
123.377541545412
  20
127.082204227646
 10
123.378471220585
  20
127.105394454457
 10
123.379091004034
  20
127.129388682523
 10
123.379400895758
  20
127.153865311341
 10
123.379400895758
  20
127.178502740411
 10
123.379091004034
  20
127.202979369229
 10
123.378471220585
  20
127.226973597295
 10
123.377541545412
  20
127.250163824107
 10
123.376301978514
  20
127.272228449162
 10
123.374740664188
  20
127.292951977175
 10
123.372798323918
  20
127.312543333731
 10
123.370403823483
  20
127.331317549627
 10
123.367486028663
  20
127.349589655663
 10
123.363973805238
  20
127.36767468264
 10
123.359796018988
  20
127.385887661357
 10
123.354881535693
  20
127.404543622612
 10
123.349159221132
  20
127.423957597207
 10
123.342557941086
  20
127.44444461594
 10
123.335041750442
  20
127.466210877896
 10
123.326715460515
  20
127.489027255303
 10
123.317719071728
  20
127.512555788673
 10
123.308192584506
  20
127.536458518519
 10
123.298275999272
  20
127.560397485354
 10
123.288109316448
  20
127.584034729691
 10
123.277832536458
  20
127.607032292041
 10
123.267585659725
  20
127.629052212919
 10
123.257508686672
  20
127.649756532836
 10
123.247689547146
  20
127.668909127352
 10
123.238007888689
  20
127.686681212219
 10
123.228291288265
  20
127.703345838234
 10
123.218367322839
  20
127.719176056195
 10
123.208063569376
  20
127.7344449169
 10
123.19720760484
  20
127.749425471147
 10
123.185627006197
  20
127.764390769733
 10
123.17314935041
  20
127.779613863456
 10
123.159602214446
  20
127.795367803115
 10
123.144879797626
  20
127.811842245855
 10
123.129142788707
  20
127.828893274208
 10
123.112618498803
  20
127.846293577055
 10
123.095534239027
  20
127.863815843278
 10
123.078117320494
  20
127.881232761756
 10
123.060595054318
  20
127.89831702137
 10
123.043194751613
  20
127.914841311001
 10
123.026143723493
  20
127.93057831953
 10
123.009669281071
  20
127.945300735836
 10
122.993915341813
  20
127.958847871163
 10
122.978692248579
  20
127.971325526198
 10
122.963726950582
  20
127.982906123994
 10
122.948746397034
  20
127.993762087601
 10
122.933477537147
  20
128.00406584007
 10
122.917647320133
  20
128.013989804452
 10
122.900982695204
  20
128.023706403797
 10
122.883210611572
  20
128.033388061156
 10
122.864058018449
  20
128.043207199581
 10
122.843338389168
  20
128.053287040914
 10
122.821211293546
  20
128.063554002171
 10
122.797922825522
  20
128.073885299157
 10
122.773719079034
  20
128.08415814768
 10
122.748846148021
  20
128.094249763547
 10
122.723550126421
  20
128.104037362564
 10
122.698077108172
  20
128.113398160538
 10
122.672673187214
  20
128.122209373277
 10
122.647584457484
  20
128.130348216587
 10
122.622925202938
  20
128.137709879163
 10
122.598282467593
  20
128.144261441255
 10
122.573111485486
  20
128.149987955999
 10
122.546867490651
  20
128.154874476534
 10
122.519005717124
  20
128.158906055997
 10
122.488981398939
  20
128.162067747525
 10
122.456249770133
  20
128.164344604256
 10
122.420266064739
  20
128.165721679327
 10
122.380485516794
  20
128.166184025876
  0
LWPOLYLINE
  5
420
100
AcDbEntity
  8
VISIBLE__ISO_
100
AcDbPolyline
  6
BYLAYER
 90
     136
 10
268.454485516798
  20
114.834264673827
 10
268.503411130866
  20
114.833938396097
 10
268.547665847044
  20
114.832967583771
 10
268.587919718297
  20
114.831364268146
 10
268.624842797591
  20
114.829140480517
 10
268.659105137894
  20
114.826308252182
 10
268.69137679217
  20
114.822879614435
 10
268.722327813387
  20
114.818866598574
 10
268.752628254511
  20
114.814281235894
 10
268.782948168509
  20
114.809135557692
 10
268.813795510698
  20
114.80345382413
 10
268.845029845807
  20
114.797309210837
 10
268.876348640917
  20
114.790787122306
 10
268.907449363108
  20
114.783972963033
 10
268.93802947946
  20
114.776952137512
 10
268.967786457055
  20
114.769810050237
 10
268.996417762973
  20
114.762632105703
 10
269.023620864294
  20
114.755503708404
 10
269.049093228098
  20
114.748510262834
 10
269.072638695352
  20
114.741703553989
 10
269.094486602565
  20
114.735000888869
 10
269.114972660127
  20
114.728285954972
 10
269.134432578434
  20
114.721442439799
 10
269.153202067878
  20
114.714354030849
 10
269.171616838853
  20
114.706904415622
 10
269.190012601752
  20
114.698977281618
 10
269.208725066967
  20
114.690456316338
 10
269.228089944893
  20
114.681225207279
 10
269.24834042978
  20
114.671212655162
 10
269.269299651308
  20
114.660527413576
 10
269.290688223016
  20
114.64932324933
 10
269.312226758442
  20
114.637753929233
 10
269.333635871124
  20
114.625973220093
 10
269.354636174601
  20
114.61413488872
 10
269.37494828241
  20
114.602392701922
 10
269.394292808089
  20
114.590900426509
 10
269.412390365177
  20
114.579811829288
 10
269.429043458608
  20
114.56922535205
 10
269.444382158902
  20
114.559018136511
 10
269.458618427975
  20
114.549011999368
 10
269.471964227743
  20
114.539028757319
 10
269.484631520122
  20
114.52889022706
 10
269.496832267029
  20
114.518418225289
 10
269.508778430379
  20
114.507434568704
 10
269.520681972088
  20
114.495761074
 10
269.532754854073
  20
114.483219557877
 10
269.545145018894
  20
114.469698068289
 10
269.557744331693
  20
114.455349578228
 10
269.570380638254
  20
114.440393291943
 10
269.582881784362
  20
114.425048413686
 10
269.595075615804
  20
114.409534147705
 10
269.606789978365
  20
114.39406969825
 10
269.61785271783
  20
114.378874269572
 10
269.628091679984
  20
114.364167065921
 10
269.637334710614
  20
114.350167291546
 10
269.645452918813
  20
114.337024493186
 10
269.65249046692
  20
114.324609587538
 10
269.658534780579
  20
114.312723833787
 10
269.663673285438
  20
114.301168491117
 10
269.667993407143
  20
114.289744818715
 10
269.67158257134
  20
114.278254075765
 10
269.674528203675
  20
114.266497521452
 10
269.676917729796
  20
114.254276414962
 10
269.678838575348
  20
114.24139201548
 10
269.680363595037
  20
114.227711674364
 10
269.681507359804
  20
114.213367111671
 10
269.682269869648
  20
114.198556139628
 10
269.68265112457
  20
114.183476570464
 10
269.68265112457
  20
114.168326216409
 10
269.682269869648
  20
114.15330288969
 10
269.681507359804
  20
114.138604402538
 10
269.680363595037
  20
114.124428567181
 10
269.678838575348
  20
114.110973195846
 10
269.676917729796
  20
114.098371690538
 10
269.674528203675
  20
114.086499812347
 10
269.67158257134
  20
114.075168912141
 10
269.667993407143
  20
114.064190340785
 10
269.663673285438
  20
114.053375449146
 10
269.658534780579
  20
114.042535588089
 10
269.65249046692
  20
114.03148210848
 10
269.645452918813
  20
114.020026361185
 10
269.637334710614
  20
114.007979697071
 10
269.628091679984
  20
113.995217623965
 10
269.61785271783
  20
113.981872277548
 10
269.606789978365
  20
113.96813995046
 10
269.595075615805
  20
113.954216935343
 10
269.582881784363
  20
113.940299524838
 10
269.570380638254
  20
113.926584011588
 10
269.557744331693
  20
113.913266688233
 10
269.545145018894
  20
113.900543847417
 10
269.532754854073
  20
113.888611781779
 10
269.520681972088
  20
113.877607813984
 10
269.508778430379
  20
113.867433386787
 10
269.496832267029
  20
113.857930972963
 10
269.484631520122
  20
113.84894304529
 10
269.471964227743
  20
113.840312076544
 10
269.458618427975
  20
113.831880539502
 10
269.444382158902
  20
113.82349090694
 10
269.429043458608
  20
113.814985651636
 10
269.412390365177
  20
113.806207246365
 10
269.394292808089
  20
113.797045355063
 10
269.37494828241
  20
113.787578406301
 10
269.354636174601
  20
113.777932019808
 10
269.333635871125
  20
113.768231815314
 10
269.312226758443
  20
113.758603412548
 10
269.290688223017
  20
113.749172431239
 10
269.269299651308
  20
113.740064491118
 10
269.24834042978
  20
113.731405211913
 10
269.228089944893
  20
113.723320213353
 10
269.208725066967
  20
113.715898236942
 10
269.190012601752
  20
113.709080511271
 10
269.171616838853
  20
113.702771386704
 10
269.153202067879
  20
113.696875213607
 10
269.134432578435
  20
113.691296342344
 10
269.114972660128
  20
113.68593912328
 10
269.094486602565
  20
113.68070790678
 10
269.072638695353
  20
113.675507043208
 10
269.049093228099
  20
113.67024088293
 10
269.023620864294
  20
113.664840646026
 10
268.996417762973
  20
113.659345031451
 10
268.967786457056
  20
113.653819607873
 10
268.938029479461
  20
113.648329943962
 10
268.907449363108
  20
113.642941608388
 10
268.876348640917
  20
113.63772016982
 10
268.845029845807
  20
113.632731196929
 10
268.813795510698
  20
113.628040258384
 10
268.782948168509
  20
113.623712922856
 10
268.752628254512
  20
113.619804905521
 10
268.722327813388
  20
113.616332507591
 10
268.691376792171
  20
113.613302176785
 10
268.659105137894
  20
113.610720360822
 10
268.624842797592
  20
113.608593507422
 10
268.587919718297
  20
113.606928064303
 10
268.547665847044
  20
113.605730479185
 10
268.503411130867
  20
113.605007199787
 10
268.454485516798
  20
113.604764673828
  0
LWPOLYLINE
  5
421
100
AcDbEntity
  8
VISIBLE__ISO_
100
AcDbPolyline
  6
BYLAYER
 90
     136
 10
268.454485516798
  20
113.604764673828
 10
268.405559902729
  20
113.605007199787
 10
268.361305186551
  20
113.605730479185
 10
268.321051315299
  20
113.606928064303
 10
268.284128236004
  20
113.608593507422
 10
268.249865895702
  20
113.610720360822
 10
268.217594241425
  20
113.613302176785
 10
268.186643220208
  20
113.616332507591
 10
268.156342779084
  20
113.61980490552
 10
268.126022865087
  20
113.623712922855
 10
268.095175522898
  20
113.628040258384
 10
268.063941187789
  20
113.632731196929
 10
268.032622392679
  20
113.63772016982
 10
268.001521670488
  20
113.642941608387
 10
267.970941554135
  20
113.648329943961
 10
267.94118457654
  20
113.653819607872
 10
267.912553270623
  20
113.659345031451
 10
267.885350169302
  20
113.664840646026
 10
267.859877805497
  20
113.670240882929
 10
267.836332338243
  20
113.675507043208
 10
267.814484431031
  20
113.68070790678
 10
267.793998373468
  20
113.68593912328
 10
267.774538455161
  20
113.691296342344
 10
267.755768965717
  20
113.696875213606
 10
267.737354194742
  20
113.702771386703
 10
267.718958431844
  20
113.70908051127
 10
267.700245966628
  20
113.715898236941
 10
267.680881088703
  20
113.723320213353
 10
267.660630603816
  20
113.731405211912
 10
267.639671382288
  20
113.740064491117
 10
267.618282810579
  20
113.749172431239
 10
267.596744275153
  20
113.758603412547
 10
267.575335162471
  20
113.768231815313
 10
267.554334858995
  20
113.777932019808
 10
267.534022751186
  20
113.787578406301
 10
267.514678225507
  20
113.797045355063
 10
267.496580668419
  20
113.806207246364
 10
267.479927574988
  20
113.814985651635
 10
267.464588874694
  20
113.82349090694
 10
267.450352605621
  20
113.831880539501
 10
267.437006805853
  20
113.840312076544
 10
267.424339513473
  20
113.848943045289
 10
267.412138766567
  20
113.857930972962
 10
267.400192603217
  20
113.867433386786
 10
267.388289061508
  20
113.877607813983
 10
267.376216179523
  20
113.888611781778
 10
267.363826014701
  20
113.900543847416
 10
267.351226701903
  20
113.913266688233
 10
267.338590395342
  20
113.926584011587
 10
267.326089249233
  20
113.940299524837
 10
267.313895417791
  20
113.954216935342
 10
267.30218105523
  20
113.968139950459
 10
267.291118315766
  20
113.981872277547
 10
267.280879353611
  20
113.995217623965
 10
267.271636322982
  20
114.00797969707
 10
267.263518114782
  20
114.020026361185
 10
267.256480566676
  20
114.031482108479
 10
267.250436253017
  20
114.042535588088
 10
267.245297748158
  20
114.053375449145
 10
267.240977626453
  20
114.064190340785
 10
267.237388462256
  20
114.07516891214
 10
267.23444282992
  20
114.086499812346
 10
267.2320533038
  20
114.098371690537
 10
267.230132458247
  20
114.110973195846
 10
267.228607438559
  20
114.12442856718
 10
267.227463673792
  20
114.138604402537
 10
267.226701163948
  20
114.15330288969
 10
267.226319909025
  20
114.168326216408
 10
267.226319909025
  20
114.183476570463
 10
267.226701163948
  20
114.198556139627
 10
267.227463673792
  20
114.21336711167
 10
267.228607438559
  20
114.227711674364
 10
267.230132458247
  20
114.241392015479
 10
267.232053303799
  20
114.254276414961
 10
267.23444282992
  20
114.266497521451
 10
267.237388462256
  20
114.278254075764
 10
267.240977626453
  20
114.289744818714
 10
267.245297748158
  20
114.301168491117
 10
267.250436253017
  20
114.312723833786
 10
267.256480566676
  20
114.324609587537
 10
267.263518114782
  20
114.337024493186
 10
267.271636322982
  20
114.350167291545
 10
267.280879353611
  20
114.36416706592
 10
267.291118315766
  20
114.378874269572
 10
267.30218105523
  20
114.394069698249
 10
267.313895417791
  20
114.409534147704
 10
267.326089249233
  20
114.425048413685
 10
267.338590395342
  20
114.440393291943
 10
267.351226701903
  20
114.455349578227
 10
267.363826014701
  20
114.469698068288
 10
267.376216179523
  20
114.483219557876
 10
267.388289061508
  20
114.495761074
 10
267.400192603217
  20
114.507434568703
 10
267.412138766567
  20
114.518418225289
 10
267.424339513473
  20
114.52889022706
 10
267.437006805852
  20
114.539028757318
 10
267.45035260562
  20
114.549011999368
 10
267.464588874693
  20
114.559018136511
 10
267.479927574987
  20
114.56922535205
 10
267.496580668418
  20
114.579811829287
 10
267.514678225506
  20
114.590900426508
 10
267.534022751186
  20
114.602392701922
 10
267.554334858995
  20
114.61413488872
 10
267.575335162471
  20
114.625973220093
 10
267.596744275153
  20
114.637753929232
 10
267.618282810579
  20
114.649323249329
 10
267.639671382287
  20
114.660527413575
 10
267.660630603816
  20
114.671212655162
 10
267.680881088702
  20
114.681225207279
 10
267.700245966628
  20
114.690456316337
 10
267.718958431844
  20
114.698977281618
 10
267.737354194742
  20
114.706904415622
 10
267.755768965717
  20
114.714354030848
 10
267.774538455161
  20
114.721442439798
 10
267.793998373468
  20
114.728285954972
 10
267.814484431031
  20
114.735000888868
 10
267.836332338243
  20
114.741703553989
 10
267.859877805497
  20
114.748510262834
 10
267.885350169302
  20
114.755503708403
 10
267.912553270623
  20
114.762632105702
 10
267.94118457654
  20
114.769810050237
 10
267.970941554135
  20
114.776952137512
 10
268.001521670488
  20
114.783972963033
 10
268.032622392678
  20
114.790787122306
 10
268.063941187788
  20
114.797309210837
 10
268.095175522897
  20
114.80345382413
 10
268.126022865087
  20
114.809135557692
 10
268.156342779084
  20
114.814281235894
 10
268.186643220208
  20
114.818866598574
 10
268.217594241425
  20
114.822879614435
 10
268.249865895701
  20
114.826308252182
 10
268.284128236004
  20
114.829140480517
 10
268.321051315298
  20
114.831364268146
 10
268.361305186551
  20
114.832967583771
 10
268.405559902729
  20
114.833938396097
 10
268.454485516798
  20
114.834264673827
  0
LWPOLYLINE
  5
422
100
AcDbEntity
  8
VISIBLE__ISO_
100
AcDbPolyline
  6
BYLAYER
 90
     136
 10
268.45448551679
  20
140.727603378019
 10
268.503411130859
  20
140.72736085206
 10
268.547665847036
  20
140.726637572662
 10
268.587919718289
  20
140.725439987544
 10
268.624842797584
  20
140.723774544425
 10
268.659105137886
  20
140.721647691025
 10
268.691376792163
  20
140.719065875062
 10
268.72232781338
  20
140.716035544256
 10
268.752628254504
  20
140.712563146327
 10
268.782948168501
  20
140.708655128992
 10
268.81379551069
  20
140.704327793463
 10
268.845029845799
  20
140.699636854918
 10
268.876348640909
  20
140.694647882027
 10
268.9074493631
  20
140.68942644346
 10
268.938029479453
  20
140.684038107886
 10
268.967786457048
  20
140.678548443975
 10
268.996417762965
  20
140.673023020396
 10
269.023620864286
  20
140.667527405821
 10
269.049093228091
  20
140.662127168918
 10
269.072638695345
  20
140.656861008639
 10
269.094486602557
  20
140.651660145067
 10
269.11497266012
  20
140.646428928567
 10
269.134432578427
  20
140.641071709503
 10
269.153202067871
  20
140.63549283824
 10
269.171616838846
  20
140.629596665143
 10
269.190012601744
  20
140.623287540577
 10
269.20872506696
  20
140.616469814906
 10
269.228089944885
  20
140.609047838494
 10
269.248340429772
  20
140.600962839935
 10
269.2692996513
  20
140.59230356073
 10
269.290688223009
  20
140.583195620608
 10
269.312226758435
  20
140.5737646393
 10
269.333635871117
  20
140.564136236533
 10
269.354636174593
  20
140.554436032039
 10
269.374948282402
  20
140.544789645546
 10
269.394292808081
  20
140.535322696784
 10
269.412390365169
  20
140.526160805482
 10
269.4290434586
  20
140.517382400212
 10
269.444382158894
  20
140.508877144907
 10
269.458618427967
  20
140.500487512345
 10
269.471964227735
  20
140.492055975303
 10
269.484631520114
  20
140.483425006557
 10
269.496832267021
  20
140.474437078884
 10
269.508778430371
  20
140.464934665061
 10
269.52068197208
  20
140.454760237863
 10
269.532754854065
  20
140.443756270069
 10
269.545145018886
  20
140.431824204431
 10
269.557744331685
  20
140.419101363614
 10
269.570380638246
  20
140.40578404026
 10
269.582881784355
  20
140.392068527009
 10
269.595075615797
  20
140.378151116505
 10
269.606789978358
  20
140.364228101388
 10
269.617852717822
  20
140.3504957743
 10
269.628091679977
  20
140.337150427882
 10
269.637334710606
  20
140.324388354776
 10
269.645452918805
  20
140.312341690662
 10
269.652490466912
  20
140.300885943367
 10
269.658534780571
  20
140.289832463759
 10
269.66367328543
  20
140.278992602701
 10
269.667993407135
  20
140.268177711062
 10
269.671582571332
  20
140.257199139706
 10
269.674528203668
  20
140.2458682395
 10
269.676917729788
  20
140.23399636131
 10
269.67883857534
  20
140.221394856001
 10
269.680363595029
  20
140.207939484667
 10
269.681507359796
  20
140.193763649309
 10
269.68226986964
  20
140.179065162157
 10
269.682651124562
  20
140.164041835438
 10
269.682651124562
  20
140.148891481383
 10
269.68226986964
  20
140.13381191222
 10
269.681507359796
  20
140.119000940176
 10
269.680363595029
  20
140.104656377483
 10
269.67883857534
  20
140.090976036367
 10
269.676917729788
  20
140.078091636885
 10
269.674528203668
  20
140.065870530395
 10
269.671582571332
  20
140.054113976082
 10
269.667993407135
  20
140.042623233132
 10
269.66367328543
  20
140.03119956073
 10
269.658534780571
  20
140.01964421806
 10
269.652490466912
  20
140.007758464309
 10
269.645452918806
  20
139.995343558661
 10
269.637334710606
  20
139.982200760301
 10
269.628091679977
  20
139.968200985926
 10
269.617852717822
  20
139.953493782275
 10
269.606789978358
  20
139.938298353597
 10
269.595075615797
  20
139.922833904142
 10
269.582881784355
  20
139.907319638161
 10
269.570380638246
  20
139.891974759904
 10
269.557744331685
  20
139.877018473619
 10
269.545145018887
  20
139.862669983558
 10
269.532754854065
  20
139.84914849397
 10
269.52068197208
  20
139.836606977846
 10
269.508778430371
  20
139.824933483143
 10
269.496832267021
  20
139.813949826557
 10
269.484631520115
  20
139.803477824786
 10
269.471964227735
  20
139.793339294528
 10
269.458618427967
  20
139.783356052478
 10
269.444382158894
  20
139.773349915335
 10
269.4290434586
  20
139.763142699797
 10
269.412390365169
  20
139.752556222559
 10
269.394292808081
  20
139.741467625338
 10
269.374948282402
  20
139.729975349924
 10
269.354636174593
  20
139.718233163126
 10
269.333635871117
  20
139.706394831753
 10
269.312226758435
  20
139.694614122614
 10
269.290688223009
  20
139.683044802517
 10
269.269299651301
  20
139.671840638271
 10
269.248340429772
  20
139.661155396685
 10
269.228089944885
  20
139.651142844567
 10
269.20872506696
  20
139.641911735509
 10
269.190012601744
  20
139.633390770228
 10
269.171616838846
  20
139.625463636224
 10
269.153202067871
  20
139.618014020998
 10
269.134432578427
  20
139.610925612048
 10
269.11497266012
  20
139.604082096874
 10
269.094486602557
  20
139.597367162977
 10
269.072638695345
  20
139.590664497857
 10
269.049093228091
  20
139.583857789012
 10
269.023620864286
  20
139.576864343443
 10
268.996417762965
  20
139.569735946144
 10
268.967786457048
  20
139.562558001609
 10
268.938029479453
  20
139.555415914334
 10
268.9074493631
  20
139.548395088813
 10
268.87634864091
  20
139.54158092954
 10
268.8450298458
  20
139.535058841009
 10
268.81379551069
  20
139.528914227716
 10
268.782948168501
  20
139.523232494154
 10
268.752628254504
  20
139.518086815952
 10
268.72232781338
  20
139.513501453272
 10
268.691376792163
  20
139.509488437411
 10
268.659105137887
  20
139.506059799664
 10
268.624842797584
  20
139.503227571328
 10
268.58791971829
  20
139.5010037837
 10
268.547665847037
  20
139.499400468075
 10
268.503411130859
  20
139.498429655749
 10
268.45448551679
  20
139.498103378019
  0
LWPOLYLINE
  5
423
100
AcDbEntity
  8
VISIBLE__ISO_
100
AcDbPolyline
  6
BYLAYER
 90
     136
 10
268.45448551679
  20
139.498103378019
 10
268.405559902722
  20
139.498429655749
 10
268.361305186544
  20
139.499400468074
 10
268.321051315291
  20
139.5010037837
 10
268.284128235996
  20
139.503227571328
 10
268.249865895694
  20
139.506059799664
 10
268.217594241418
  20
139.509488437411
 10
268.1866432202
  20
139.513501453272
 10
268.156342779076
  20
139.518086815952
 10
268.126022865079
  20
139.523232494154
 10
268.09517552289
  20
139.528914227716
 10
268.063941187781
  20
139.535058841009
 10
268.032622392671
  20
139.541580929539
 10
268.00152167048
  20
139.548395088812
 10
267.970941554128
  20
139.555415914334
 10
267.941184576533
  20
139.562558001609
 10
267.912553270615
  20
139.569735946143
 10
267.885350169294
  20
139.576864343442
 10
267.85987780549
  20
139.583857789012
 10
267.836332338235
  20
139.590664497856
 10
267.814484431023
  20
139.597367162977
 10
267.793998373461
  20
139.604082096874
 10
267.774538455154
  20
139.610925612047
 10
267.75576896571
  20
139.618014020997
 10
267.737354194735
  20
139.625463636224
 10
267.718958431836
  20
139.633390770228
 10
267.700245966621
  20
139.641911735508
 10
267.680881088695
  20
139.651142844567
 10
267.660630603808
  20
139.661155396684
 10
267.63967138228
  20
139.67184063827
 10
267.618282810572
  20
139.683044802516
 10
267.596744275146
  20
139.694614122613
 10
267.575335162463
  20
139.706394831753
 10
267.554334858987
  20
139.718233163126
 10
267.534022751178
  20
139.729975349924
 10
267.514678225499
  20
139.741467625337
 10
267.496580668411
  20
139.752556222558
 10
267.47992757498
  20
139.763142699796
 10
267.464588874686
  20
139.773349915335
 10
267.450352605613
  20
139.783356052478
 10
267.437006805845
  20
139.793339294527
 10
267.424339513466
  20
139.803477824786
 10
267.412138766559
  20
139.813949826557
 10
267.400192603209
  20
139.824933483142
 10
267.3882890615
  20
139.836606977846
 10
267.376216179515
  20
139.849148493969
 10
267.363826014694
  20
139.862669983557
 10
267.351226701895
  20
139.877018473619
 10
267.338590395334
  20
139.891974759903
 10
267.326089249226
  20
139.907319638161
 10
267.313895417783
  20
139.922833904142
 10
267.302181055223
  20
139.938298353596
 10
267.291118315758
  20
139.953493782274
 10
267.280879353604
  20
139.968200985925
 10
267.271636322974
  20
139.982200760301
 10
267.263518114775
  20
139.99534355866
 10
267.256480566668
  20
140.007758464308
 10
267.250436253009
  20
140.019644218059
 10
267.24529774815
  20
140.031199560729
 10
267.240977626445
  20
140.042623233131
 10
267.237388462248
  20
140.054113976082
 10
267.234442829913
  20
140.065870530394
 10
267.232053303792
  20
140.078091636884
 10
267.23013245824
  20
140.090976036367
 10
267.228607438551
  20
140.104656377482
 10
267.227463673784
  20
140.119000940176
 10
267.22670116394
  20
140.133811912219
 10
267.226319909018
  20
140.148891481382
 10
267.226319909018
  20
140.164041835438
 10
267.22670116394
  20
140.179065162156
 10
267.227463673784
  20
140.193763649308
 10
267.228607438551
  20
140.207939484666
 10
267.23013245824
  20
140.221394856
 10
267.232053303792
  20
140.233996361309
 10
267.234442829912
  20
140.245868239499
 10
267.237388462248
  20
140.257199139706
 10
267.240977626445
  20
140.268177711061
 10
267.24529774815
  20
140.278992602701
 10
267.250436253009
  20
140.289832463758
 10
267.256480566668
  20
140.300885943367
 10
267.263518114775
  20
140.312341690661
 10
267.271636322974
  20
140.324388354776
 10
267.280879353603
  20
140.337150427881
 10
267.291118315758
  20
140.350495774299
 10
267.302181055223
  20
140.364228101387
 10
267.313895417783
  20
140.378151116504
 10
267.326089249225
  20
140.392068527009
 10
267.338590395334
  20
140.405784040259
 10
267.351226701895
  20
140.419101363613
 10
267.363826014694
  20
140.43182420443
 10
267.376216179515
  20
140.443756270068
 10
267.3882890615
  20
140.454760237863
 10
267.400192603209
  20
140.46493466506
 10
267.412138766559
  20
140.474437078884
 10
267.424339513466
  20
140.483425006557
 10
267.437006805845
  20
140.492055975303
 10
267.450352605613
  20
140.500487512345
 10
267.464588874686
  20
140.508877144906
 10
267.47992757498
  20
140.517382400211
 10
267.496580668411
  20
140.526160805482
 10
267.514678225499
  20
140.535322696784
 10
267.534022751178
  20
140.544789645546
 10
267.554334858987
  20
140.554436032039
 10
267.575335162463
  20
140.564136236533
 10
267.596744275145
  20
140.573764639299
 10
267.618282810572
  20
140.583195620608
 10
267.63967138228
  20
140.592303560729
 10
267.660630603808
  20
140.600962839934
 10
267.680881088695
  20
140.609047838494
 10
267.700245966621
  20
140.616469814905
 10
267.718958431836
  20
140.623287540576
 10
267.737354194734
  20
140.629596665143
 10
267.755768965709
  20
140.63549283824
 10
267.774538455153
  20
140.641071709503
 10
267.79399837346
  20
140.646428928567
 10
267.814484431023
  20
140.651660145067
 10
267.836332338235
  20
140.656861008639
 10
267.859877805489
  20
140.662127168917
 10
267.885350169294
  20
140.667527405821
 10
267.912553270615
  20
140.673023020396
 10
267.941184576533
  20
140.678548443974
 10
267.970941554127
  20
140.684038107885
 10
268.00152167048
  20
140.68942644346
 10
268.032622392671
  20
140.694647882027
 10
268.063941187781
  20
140.699636854918
 10
268.09517552289
  20
140.704327793463
 10
268.126022865079
  20
140.708655128992
 10
268.156342779076
  20
140.712563146326
 10
268.1866432202
  20
140.716035544256
 10
268.217594241417
  20
140.719065875062
 10
268.249865895694
  20
140.721647691025
 10
268.284128235996
  20
140.723774544425
 10
268.321051315291
  20
140.725439987544
 10
268.361305186543
  20
140.726637572662
 10
268.405559902721
  20
140.72736085206
 10
268.45448551679
  20
140.727603378019
  0
LINE
  5
424
100
AcDbEntity
  8
DIMENSION__ISO_
100
AcDbLine
  6
BYLAYER
 10
378.8347042248
 20
187.1040530036
 11
392.8347042248
 21
187.1040530036
  0
LINE
  5
425
100
AcDbEntity
  8
DIMENSION__ISO_
100
AcDbLine
  6
BYLAYER
 10
378.8347042248
 20
232.1040530036
 11
392.8347042248
 21
232.1040530036
  0
LINE
  5
426
100
AcDbEntity
  8
DIMENSION__ISO_
100
AcDbLine
  6
BYLAYER
 10
391.8347042248
 20
189.1040530036
 11
391.8347042248
 21
230.1040530036
  0
LINE
  5
427
100
AcDbEntity
  8
DIMENSION__ISO_
100
AcDbLine
  6
BYLAYER
 10
391.8347042248
 20
189.1040530036
 11
391.8347042248
 21
187.1040530036
  0
LINE
  5
428
100
AcDbEntity
  8
DIMENSION__ISO_
100
AcDbLine
  6
BYLAYER
 10
391.3347042248
 20
189.1040530036
 11
391.8347042248
 21
187.1040530036
  0
LINE
  5
429
100
AcDbEntity
  8
DIMENSION__ISO_
100
AcDbLine
  6
BYLAYER
 10
391.8347042248
 20
187.1040530036
 11
392.3347042248
 21
189.1040530036
  0
LINE
  5
42A
100
AcDbEntity
  8
DIMENSION__ISO_
100
AcDbLine
  6
BYLAYER
 10
391.8347042248
 20
230.1040530036
 11
391.8347042248
 21
232.1040530036
  0
LINE
  5
42B
100
AcDbEntity
  8
DIMENSION__ISO_
100
AcDbLine
  6
BYLAYER
 10
392.3347042248
 20
230.1040530036
 11
391.8347042248
 21
232.1040530036
  0
LINE
  5
42C
100
AcDbEntity
  8
DIMENSION__ISO_
100
AcDbLine
  6
BYLAYER
 10
391.8347042248
 20
232.1040530036
 11
391.3347042248
 21
230.1040530036
  0
TEXT
  5
42D
100
AcDbEntity
  8
DIMENSION__ISO_
100
AcDbText
  6
BYLAYER
 10
391.534704283
 20
207.8299413285
 40
3
  1
45
  7
Font_0
 50
90
 11
388.534704283
 21
207.8299413285
100
AcDbText
 73
3
  0
LINE
  5
42E
100
AcDbEntity
  8
DIMENSION__ISO_
100
AcDbLine
  6
BYLAYER
 10
378.8347042248
 20
187.1040530036
 11
392.6477477031
 21
187.1040530036
  0
LINE
  5
42F
100
AcDbEntity
  8
DIMENSION__ISO_
100
AcDbLine
  6
BYLAYER
 10
378.3347042248
 20
232.6040530036
 11
378.3347042248
 21
253.1710541627
  0
LINE
  5
430
100
AcDbEntity
  8
DIMENSION__ISO_
100
AcDbLine
  6
BYLAYER
 10
333.3347042248
 20
232.6040530036
 11
333.3347042248
 21
253.1710541627
  0
LINE
  5
431
100
AcDbEntity
  8
DIMENSION__ISO_
100
AcDbLine
  6
BYLAYER
 10
376.3347042248
 20
252.1710541627
 11
335.3347042248
 21
252.1710541627
  0
LINE
  5
432
100
AcDbEntity
  8
DIMENSION__ISO_
100
AcDbLine
  6
BYLAYER
 10
376.3347042248
 20
252.1710541627
 11
378.3347042248
 21
252.1710541627
  0
LINE
  5
433
100
AcDbEntity
  8
DIMENSION__ISO_
100
AcDbLine
  6
BYLAYER
 10
376.3347042248
 20
251.6710541627
 11
378.3347042248
 21
252.1710541627
  0
LINE
  5
434
100
AcDbEntity
  8
DIMENSION__ISO_
100
AcDbLine
  6
BYLAYER
 10
378.3347042248
 20
252.1710541627
 11
376.3347042248
 21
252.6710541627
  0
LINE
  5
435
100
AcDbEntity
  8
DIMENSION__ISO_
100
AcDbLine
  6
BYLAYER
 10
335.3347042248
 20
252.1710541627
 11
333.3347042248
 21
252.1710541627
  0
LINE
  5
436
100
AcDbEntity
  8
DIMENSION__ISO_
100
AcDbLine
  6
BYLAYER
 10
335.3347042248
 20
252.6710541627
 11
333.3347042248
 21
252.1710541627
  0
LINE
  5
437
100
AcDbEntity
  8
DIMENSION__ISO_
100
AcDbLine
  6
BYLAYER
 10
333.3347042248
 20
252.1710541627
 11
335.3347042248
 21
251.6710541627
  0
TEXT
  5
438
100
AcDbEntity
  8
DIMENSION__ISO_
100
AcDbText
  6
BYLAYER
 10
354.0605925497
 20
252.4710541045
 40
3
  1
45
  7
Font_0
 11
354.0605925497
 21
255.4710541045
100
AcDbText
 73
3
  0
LINE
  5
439
100
AcDbEntity
  8
DIMENSION__ISO_
100
AcDbLine
  6
BYLAYER
 10
280.7544855168
 20
225.4040530036
 11
280.7544855168
 21
242.2376243556
  0
LINE
  5
43A
100
AcDbEntity
  8
DIMENSION__ISO_
100
AcDbLine
  6
BYLAYER
 10
284.7544855168
 20
222.9040530036
 11
284.7544855168
 21
242.2376243556
  0
LINE
  5
43B
100
AcDbEntity
  8
DIMENSION__ISO_
100
AcDbLine
  6
BYLAYER
 10
278.7544855168
 20
241.2376243556
 11
276.7544855168
 21
241.2376243556
  0
LINE
  5
43C
100
AcDbEntity
  8
DIMENSION__ISO_
100
AcDbLine
  6
BYLAYER
 10
286.7544855168
 20
241.2376243556
 11
291.0448408468
 21
241.2376243556
  0
LINE
  5
43D
100
AcDbEntity
  8
DIMENSION__ISO_
100
AcDbLine
  6
BYLAYER
 10
280.7544855168
 20
241.2376243556
 11
284.7544855168
 21
241.2376243556
  0
LINE
  5
43E
100
AcDbEntity
  8
DIMENSION__ISO_
100
AcDbLine
  6
BYLAYER
 10
278.7544855168
 20
241.2376243556
 11
280.7544855168
 21
241.2376243556
  0
LINE
  5
43F
100
AcDbEntity
  8
DIMENSION__ISO_
100
AcDbLine
  6
BYLAYER
 10
278.7544855168
 20
240.7376243556
 11
280.7544855168
 21
241.2376243556
  0
LINE
  5
440
100
AcDbEntity
  8
DIMENSION__ISO_
100
AcDbLine
  6
BYLAYER
 10
280.7544855168
 20
241.2376243556
 11
278.7544855168
 21
241.7376243556
  0
LINE
  5
441
100
AcDbEntity
  8
DIMENSION__ISO_
100
AcDbLine
  6
BYLAYER
 10
286.7544855168
 20
241.2376243556
 11
284.7544855168
 21
241.2376243556
  0
LINE
  5
442
100
AcDbEntity
  8
DIMENSION__ISO_
100
AcDbLine
  6
BYLAYER
 10
286.7544855168
 20
241.7376243556
 11
284.7544855168
 21
241.2376243556
  0
LINE
  5
443
100
AcDbEntity
  8
DIMENSION__ISO_
100
AcDbLine
  6
BYLAYER
 10
284.7544855168
 20
241.2376243556
 11
286.7544855168
 21
240.7376243556
  0
TEXT
  5
444
100
AcDbEntity
  8
DIMENSION__ISO_
100
AcDbText
  6
BYLAYER
 10
289.0544855168
 20
241.5376242974
 40
3
  1
4
  7
Font_0
 11
289.0544855168
 21
244.5376242974
100
AcDbText
 73
3
  0
LINE
  5
445
100
AcDbEntity
  8
DIMENSION__ISO_
100
AcDbLine
  6
BYLAYER
 10
280.7544855168
 20
225.4040530036
 11
280.7544855168
 21
247.0613590191
  0
LINE
  5
446
100
AcDbEntity
  8
DIMENSION__ISO_
100
AcDbLine
  6
BYLAYER
 10
298.2803855168
 20
220.6040530036
 11
298.2803855168
 21
247.0613590191
  0
LINE
  5
447
100
AcDbEntity
  8
DIMENSION__ISO_
100
AcDbLine
  6
BYLAYER
 10
282.7544855168
 20
246.0613590191
 11
296.2803855168
 21
246.0613590191
  0
LINE
  5
448
100
AcDbEntity
  8
DIMENSION__ISO_
100
AcDbLine
  6
BYLAYER
 10
282.7544855168
 20
246.0613590191
 11
280.7544855168
 21
246.0613590191
  0
LINE
  5
449
100
AcDbEntity
  8
DIMENSION__ISO_
100
AcDbLine
  6
BYLAYER
 10
282.7544855168
 20
246.5613590191
 11
280.7544855168
 21
246.0613590191
  0
LINE
  5
44A
100
AcDbEntity
  8
DIMENSION__ISO_
100
AcDbLine
  6
BYLAYER
 10
280.7544855168
 20
246.0613590191
 11
282.7544855168
 21
245.5613590191
  0
LINE
  5
44B
100
AcDbEntity
  8
DIMENSION__ISO_
100
AcDbLine
  6
BYLAYER
 10
296.2803855168
 20
246.0613590191
 11
298.2803855168
 21
246.0613590191
  0
LINE
  5
44C
100
AcDbEntity
  8
DIMENSION__ISO_
100
AcDbLine
  6
BYLAYER
 10
296.2803855168
 20
245.5613590191
 11
298.2803855168
 21
246.0613590191
  0
LINE
  5
44D
100
AcDbEntity
  8
DIMENSION__ISO_
100
AcDbLine
  6
BYLAYER
 10
298.2803855168
 20
246.0613590191
 11
296.2803855168
 21
246.5613590191
  0
TEXT
  5
44E
100
AcDbEntity
  8
DIMENSION__ISO_
100
AcDbText
  6
BYLAYER
 10
283.9666740955
 20
246.3613589609
 40
3
  1
17.526
  7
Font_0
 11
283.9666740955
 21
249.3613589609
100
AcDbText
 73
3
  0
LINE
  5
44F
100
AcDbEntity
  8
DIMENSION__ISO_
100
AcDbLine
  6
BYLAYER
 10
280.7544855168
 20
225.4040530036
 11
280.7544855168
 21
247.0613590191
  0
LINE
  5
450
100
AcDbEntity
  8
DIMENSION__ISO_
100
AcDbLine
  6
BYLAYER
 10
226.2804855168
 20
232.6040530036
 11
226.2804855168
 21
247.0613590191
  0
LINE
  5
451
100
AcDbEntity
  8
DIMENSION__ISO_
100
AcDbLine
  6
BYLAYER
 10
278.7544855168
 20
246.0613590191
 11
228.2804855168
 21
246.0613590191
  0
LINE
  5
452
100
AcDbEntity
  8
DIMENSION__ISO_
100
AcDbLine
  6
BYLAYER
 10
278.7544855168
 20
246.0613590191
 11
280.7544855168
 21
246.0613590191
  0
LINE
  5
453
100
AcDbEntity
  8
DIMENSION__ISO_
100
AcDbLine
  6
BYLAYER
 10
278.7544855168
 20
245.5613590191
 11
280.7544855168
 21
246.0613590191
  0
LINE
  5
454
100
AcDbEntity
  8
DIMENSION__ISO_
100
AcDbLine
  6
BYLAYER
 10
280.7544855168
 20
246.0613590191
 11
278.7544855168
 21
246.5613590191
  0
LINE
  5
455
100
AcDbEntity
  8
DIMENSION__ISO_
100
AcDbLine
  6
BYLAYER
 10
228.2804855168
 20
246.0613590191
 11
226.2804855168
 21
246.0613590191
  0
LINE
  5
456
100
AcDbEntity
  8
DIMENSION__ISO_
100
AcDbLine
  6
BYLAYER
 10
228.2804855168
 20
246.5613590191
 11
226.2804855168
 21
246.0613590191
  0
LINE
  5
457
100
AcDbEntity
  8
DIMENSION__ISO_
100
AcDbLine
  6
BYLAYER
 10
226.2804855168
 20
246.0613590191
 11
228.2804855168
 21
245.5613590191
  0
TEXT
  5
458
100
AcDbEntity
  8
DIMENSION__ISO_
100
AcDbText
  6
BYLAYER
 10
247.8220540447
 20
246.3613589609
 40
3
  1
54.474
  7
Font_0
 11
247.8220540447
 21
249.3613589609
100
AcDbText
 73
3
  0
LINE
  5
459
100
AcDbEntity
  8
DIMENSION__ISO_
100
AcDbLine
  6
BYLAYER
 10
186.2804855168
 20
232.6040530036
 11
186.2804855168
 21
247.0613590191
  0
LINE
  5
45A
100
AcDbEntity
  8
DIMENSION__ISO_
100
AcDbLine
  6
BYLAYER
 10
94.1804855168
 20
231.9040530036
 11
94.1804855168
 21
247.0613590191
  0
LINE
  5
45B
100
AcDbEntity
  8
DIMENSION__ISO_
100
AcDbLine
  6
BYLAYER
 10
184.2804855168
 20
246.0613590191
 11
96.1804855168
 21
246.0613590191
  0
LINE
  5
45C
100
AcDbEntity
  8
DIMENSION__ISO_
100
AcDbLine
  6
BYLAYER
 10
184.2804855168
 20
246.0613590191
 11
186.2804855168
 21
246.0613590191
  0
LINE
  5
45D
100
AcDbEntity
  8
DIMENSION__ISO_
100
AcDbLine
  6
BYLAYER
 10
184.2804855168
 20
245.5613590191
 11
186.2804855168
 21
246.0613590191
  0
LINE
  5
45E
100
AcDbEntity
  8
DIMENSION__ISO_
100
AcDbLine
  6
BYLAYER
 10
186.2804855168
 20
246.0613590191
 11
184.2804855168
 21
246.5613590191
  0
LINE
  5
45F
100
AcDbEntity
  8
DIMENSION__ISO_
100
AcDbLine
  6
BYLAYER
 10
96.1804855168
 20
246.0613590191
 11
94.1804855168
 21
246.0613590191
  0
LINE
  5
460
100
AcDbEntity
  8
DIMENSION__ISO_
100
AcDbLine
  6
BYLAYER
 10
96.1804855168
 20
246.5613590191
 11
94.1804855168
 21
246.0613590191
  0
LINE
  5
461
100
AcDbEntity
  8
DIMENSION__ISO_
100
AcDbLine
  6
BYLAYER
 10
94.1804855168
 20
246.0613590191
 11
96.1804855168
 21
245.5613590191
  0
TEXT
  5
462
100
AcDbEntity
  8
DIMENSION__ISO_
100
AcDbText
  6
BYLAYER
 10
136.8117037909
 20
246.3613589609
 40
3
  1
92.1
  7
Font_0
 11
136.8117037909
 21
249.3613589609
100
AcDbText
 73
3
  0
LINE
  5
463
100
AcDbEntity
  8
DIMENSION__ISO_
100
AcDbLine
  6
BYLAYER
 10
186.2804855168
 20
232.6040530036
 11
186.2804855168
 21
247.0613590191
  0
LINE
  5
464
100
AcDbEntity
  8
DIMENSION__ISO_
100
AcDbLine
  6
BYLAYER
 10
226.2804855168
 20
232.6040530036
 11
226.2804855168
 21
247.0613590191
  0
LINE
  5
465
100
AcDbEntity
  8
DIMENSION__ISO_
100
AcDbLine
  6
BYLAYER
 10
188.2804855168
 20
246.0613590191
 11
224.2804855168
 21
246.0613590191
  0
LINE
  5
466
100
AcDbEntity
  8
DIMENSION__ISO_
100
AcDbLine
  6
BYLAYER
 10
188.2804855168
 20
246.0613590191
 11
186.2804855168
 21
246.0613590191
  0
LINE
  5
467
100
AcDbEntity
  8
DIMENSION__ISO_
100
AcDbLine
  6
BYLAYER
 10
188.2804855168
 20
246.5613590191
 11
186.2804855168
 21
246.0613590191
  0
LINE
  5
468
100
AcDbEntity
  8
DIMENSION__ISO_
100
AcDbLine
  6
BYLAYER
 10
186.2804855168
 20
246.0613590191
 11
188.2804855168
 21
245.5613590191
  0
LINE
  5
469
100
AcDbEntity
  8
DIMENSION__ISO_
100
AcDbLine
  6
BYLAYER
 10
224.2804855168
 20
246.0613590191
 11
226.2804855168
 21
246.0613590191
  0
LINE
  5
46A
100
AcDbEntity
  8
DIMENSION__ISO_
100
AcDbLine
  6
BYLAYER
 10
224.2804855168
 20
245.5613590191
 11
226.2804855168
 21
246.0613590191
  0
LINE
  5
46B
100
AcDbEntity
  8
DIMENSION__ISO_
100
AcDbLine
  6
BYLAYER
 10
226.2804855168
 20
246.0613590191
 11
224.2804855168
 21
246.5613590191
  0
TEXT
  5
46C
100
AcDbEntity
  8
DIMENSION__ISO_
100
AcDbText
  6
BYLAYER
 10
204.4683027757
 20
246.3613589609
 40
3
  1
40
  7
Font_0
 11
204.4683027757
 21
249.3613589609
100
AcDbText
 73
3
  0
LINE
  5
46D
100
AcDbEntity
  8
DIMENSION__ISO_
100
AcDbLine
  6
BYLAYER
 10
191.2804855168
 20
229.3335530036
 11
191.2804855168
 21
241.3025798669
  0
LINE
  5
46E
100
AcDbEntity
  8
DIMENSION__ISO_
100
AcDbLine
  6
BYLAYER
 10
221.2804855168
 20
229.6040530036
 11
221.2804855168
 21
241.3025798669
  0
LINE
  5
46F
100
AcDbEntity
  8
DIMENSION__ISO_
100
AcDbLine
  6
BYLAYER
 10
193.2804855168
 20
240.3025798669
 11
219.2804855168
 21
240.3025798669
  0
LINE
  5
470
100
AcDbEntity
  8
DIMENSION__ISO_
100
AcDbLine
  6
BYLAYER
 10
193.2804855168
 20
240.3025798669
 11
191.2804855168
 21
240.3025798669
  0
LINE
  5
471
100
AcDbEntity
  8
DIMENSION__ISO_
100
AcDbLine
  6
BYLAYER
 10
193.2804855168
 20
240.8025798669
 11
191.2804855168
 21
240.3025798669
  0
LINE
  5
472
100
AcDbEntity
  8
DIMENSION__ISO_
100
AcDbLine
  6
BYLAYER
 10
191.2804855168
 20
240.3025798669
 11
193.2804855168
 21
239.8025798669
  0
LINE
  5
473
100
AcDbEntity
  8
DIMENSION__ISO_
100
AcDbLine
  6
BYLAYER
 10
219.2804855168
 20
240.3025798669
 11
221.2804855168
 21
240.3025798669
  0
LINE
  5
474
100
AcDbEntity
  8
DIMENSION__ISO_
100
AcDbLine
  6
BYLAYER
 10
219.2804855168
 20
239.8025798669
 11
221.2804855168
 21
240.3025798669
  0
LINE
  5
475
100
AcDbEntity
  8
DIMENSION__ISO_
100
AcDbLine
  6
BYLAYER
 10
221.2804855168
 20
240.3025798669
 11
219.2804855168
 21
240.8025798669
  0
TEXT
  5
476
100
AcDbEntity
  8
DIMENSION__ISO_
100
AcDbText
  6
BYLAYER
 10
204.4911454153
 20
240.6025798087
 40
3
  1
30
  7
Font_0
 11
204.4911454153
 21
243.6025798087
100
AcDbText
 73
3
  0
LINE
  5
477
100
AcDbEntity
  8
DIMENSION__ISO_
100
AcDbLine
  6
BYLAYER
 10
186.5509855168
 20
224.6040530036
 11
172.2381460025
 21
224.6040530036
  0
LINE
  5
478
100
AcDbEntity
  8
DIMENSION__ISO_
100
AcDbLine
  6
BYLAYER
 10
186.5509855168
 20
194.6040530036
 11
172.2381460025
 21
194.6040530036
  0
LINE
  5
479
100
AcDbEntity
  8
DIMENSION__ISO_
100
AcDbLine
  6
BYLAYER
 10
173.2381460025
 20
222.6040530036
 11
173.2381460025
 21
196.6040530036
  0
LINE
  5
47A
100
AcDbEntity
  8
DIMENSION__ISO_
100
AcDbLine
  6
BYLAYER
 10
173.2381460025
 20
222.6040530036
 11
173.2381460025
 21
224.6040530036
  0
LINE
  5
47B
100
AcDbEntity
  8
DIMENSION__ISO_
100
AcDbLine
  6
BYLAYER
 10
173.7381460025
 20
222.6040530036
 11
173.2381460025
 21
224.6040530036
  0
LINE
  5
47C
100
AcDbEntity
  8
DIMENSION__ISO_
100
AcDbLine
  6
BYLAYER
 10
173.2381460025
 20
224.6040530036
 11
172.7381460025
 21
222.6040530036
  0
LINE
  5
47D
100
AcDbEntity
  8
DIMENSION__ISO_
100
AcDbLine
  6
BYLAYER
 10
173.2381460025
 20
196.6040530036
 11
173.2381460025
 21
194.6040530036
  0
LINE
  5
47E
100
AcDbEntity
  8
DIMENSION__ISO_
100
AcDbLine
  6
BYLAYER
 10
172.7381460025
 20
196.6040530036
 11
173.2381460025
 21
194.6040530036
  0
LINE
  5
47F
100
AcDbEntity
  8
DIMENSION__ISO_
100
AcDbLine
  6
BYLAYER
 10
173.2381460025
 20
194.6040530036
 11
173.7381460025
 21
196.6040530036
  0
TEXT
  5
480
100
AcDbEntity
  8
DIMENSION__ISO_
100
AcDbText
  6
BYLAYER
 10
172.9381460608
 20
207.8147129021
 40
3
  1
30
  7
Font_0
 50
90
 11
169.9381460608
 21
207.8147129021
100
AcDbText
 73
3
  0
LINE
  5
481
100
AcDbEntity
  8
DIMENSION__ISO_
100
AcDbLine
  6
BYLAYER
 10
298.2804855168
 20
198.6040530036
 11
298.2804855168
 21
175.672846994489
  0
LINE
  5
482
100
AcDbEntity
  8
DIMENSION__ISO_
100
AcDbLine
  6
BYLAYER
 10
208.2804855168
 20
176.170361278266
 11
296.2804855168
 21
176.170361278266
  0
LINE
  5
483
100
AcDbEntity
  8
DIMENSION__ISO_
100
AcDbLine
  6
BYLAYER
 10
208.2804855168
 20
176.170361278266
 11
206.2804855168
 21
176.170361278266
  0
LINE
  5
484
100
AcDbEntity
  8
DIMENSION__ISO_
100
AcDbLine
  6
BYLAYER
 10
208.2804855168
 20
176.670361278266
 11
206.2804855168
 21
176.170361278266
  0
LINE
  5
485
100
AcDbEntity
  8
DIMENSION__ISO_
100
AcDbLine
  6
BYLAYER
 10
206.2804855168
 20
176.170361278266
 11
208.2804855168
 21
175.670361278266
  0
LINE
  5
486
100
AcDbEntity
  8
DIMENSION__ISO_
100
AcDbLine
  6
BYLAYER
 10
296.2804855168
 20
176.170361278266
 11
298.2804855168
 21
176.170361278266
  0
LINE
  5
487
100
AcDbEntity
  8
DIMENSION__ISO_
100
AcDbLine
  6
BYLAYER
 10
296.2804855168
 20
175.670361278266
 11
298.2804855168
 21
176.170361278266
  0
LINE
  5
488
100
AcDbEntity
  8
DIMENSION__ISO_
100
AcDbLine
  6
BYLAYER
 10
298.2804855168
 20
176.170361278266
 11
296.2804855168
 21
176.670361278266
  0
TEXT
  5
489
100
AcDbEntity
  8
DIMENSION__ISO_
100
AcDbText
  6
BYLAYER
 10
250.5368306945
 20
176.470361220066
 40
3
  1
92
  7
Font_0
 11
250.5368306945
 21
179.470361220066
100
AcDbText
 73
3
  0
LINE
  5
48A
100
AcDbEntity
  8
DIMENSION__ISO_
100
AcDbLine
  6
BYLAYER
 10
94.1804855168
 20
231.9040530036
 11
94.1804855168
 21
247.0613590191
  0
LINE
  5
48B
100
AcDbEntity
  8
DIMENSION__ISO_
100
AcDbLine
  6
BYLAYER
 10
30.2304855168
 20
220.6040530036
 11
30.2304855168
 21
247.0613590191
  0
LINE
  5
48C
100
AcDbEntity
  8
DIMENSION__ISO_
100
AcDbLine
  6
BYLAYER
 10
92.1804855168
 20
246.0613590191
 11
32.2304855168
 21
246.0613590191
  0
LINE
  5
48D
100
AcDbEntity
  8
DIMENSION__ISO_
100
AcDbLine
  6
BYLAYER
 10
92.1804855168
 20
246.0613590191
 11
94.1804855168
 21
246.0613590191
  0
LINE
  5
48E
100
AcDbEntity
  8
DIMENSION__ISO_
100
AcDbLine
  6
BYLAYER
 10
92.1804855168
 20
245.5613590191
 11
94.1804855168
 21
246.0613590191
  0
LINE
  5
48F
100
AcDbEntity
  8
DIMENSION__ISO_
100
AcDbLine
  6
BYLAYER
 10
94.1804855168
 20
246.0613590191
 11
92.1804855168
 21
246.5613590191
  0
LINE
  5
490
100
AcDbEntity
  8
DIMENSION__ISO_
100
AcDbLine
  6
BYLAYER
 10
32.2304855168
 20
246.0613590191
 11
30.2304855168
 21
246.0613590191
  0
LINE
  5
491
100
AcDbEntity
  8
DIMENSION__ISO_
100
AcDbLine
  6
BYLAYER
 10
32.2304855168
 20
246.5613590191
 11
30.2304855168
 21
246.0613590191
  0
LINE
  5
492
100
AcDbEntity
  8
DIMENSION__ISO_
100
AcDbLine
  6
BYLAYER
 10
30.2304855168
 20
246.0613590191
 11
32.2304855168
 21
245.5613590191
  0
TEXT
  5
493
100
AcDbEntity
  8
DIMENSION__ISO_
100
AcDbText
  6
BYLAYER
 10
57.5532012529
 20
246.3613589609
 40
3
  1
63.95
  7
Font_0
 11
57.5532012529
 21
249.3613589609
100
AcDbText
 73
3
  0
LINE
  5
494
100
AcDbEntity
  8
DIMENSION__ISO_
100
AcDbLine
  6
BYLAYER
 10
298.2803855168
 20
220.6040530036
 11
298.2803855168
 21
255.247562979
  0
LINE
  5
495
100
AcDbEntity
  8
DIMENSION__ISO_
100
AcDbLine
  6
BYLAYER
 10
30.2303855168
 20
220.6040530036
 11
30.2303855168
 21
255.247562979
  0
LINE
  5
496
100
AcDbEntity
  8
DIMENSION__ISO_
100
AcDbLine
  6
BYLAYER
 10
298.2803855168
 20
254.247562979
 11
30.2303855168
 21
254.247562979
  0
TEXT
  5
497
100
AcDbEntity
  8
DIMENSION__ISO_
100
AcDbText
  6
BYLAYER
 10
158.8153085343
 20
254.7384720117
 40
3
  1
268.05
  7
Font_0
 11
158.8153085343
 21
257.7384720117
100
AcDbText
 73
3
  0
LINE
  5
498
100
AcDbEntity
  8
0
100
AcDbLine
  6
BYBLOCK
 62
0
370
  -2
 10
295.7803855168
 20
254.917435479
 11
298.2803855168
 21
254.247562979
  0
LINE
  5
499
100
AcDbEntity
  8
0
100
AcDbLine
  6
BYBLOCK
 62
0
370
  -2
 10
298.2803855168
 20
254.247562979
 11
295.7803855168
 21
253.577690479
  0
LINE
  5
49A
100
AcDbEntity
  8
0
100
AcDbLine
  6
BYBLOCK
 62
0
370
  -2
 10
298.2803855168
 20
254.247562979
 11
295.7803855168
 21
254.247562979
  0
LINE
  5
49B
100
AcDbEntity
  8
0
100
AcDbLine
  6
BYBLOCK
 62
0
370
  -2
 10
32.7303855168
 20
253.577690479
 11
30.2303855168
 21
254.247562979
  0
LINE
  5
49C
100
AcDbEntity
  8
0
100
AcDbLine
  6
BYBLOCK
 62
0
370
  -2
 10
30.2303855168
 20
254.247562979
 11
32.7303855168
 21
254.917435479
  0
LINE
  5
49D
100
AcDbEntity
  8
0
100
AcDbLine
  6
BYBLOCK
 62
0
370
  -2
 10
30.2303855168
 20
254.247562979
 11
32.7303855168
 21
254.247562979
  0
LINE
  5
49E
100
AcDbEntity
  8
DIMENSION__ISO_
100
AcDbLine
  6
BYLAYER
 10
281.5544855168
 20
194.6040530036
 11
308.4925624237
 21
194.6040530036
  0
LINE
  5
49F
100
AcDbEntity
  8
DIMENSION__ISO_
100
AcDbLine
  6
BYLAYER
 10
281.5544855168
 20
224.6040530036
 11
308.4925624237
 21
224.6040530036
  0
LINE
  5
4A0
100
AcDbEntity
  8
DIMENSION__ISO_
100
AcDbLine
  6
BYLAYER
 10
307.4925624237
 20
194.6040530036
 11
307.4925624237
 21
224.6040530036
  0
TEXT
  5
4A1
100
AcDbEntity
  8
DIMENSION__ISO_
100
AcDbText
  6
BYLAYER
 10
307.001653391
 20
206.2005069914
 40
3
  1
Φ
  7
Font_0
 50
90
 11
304.001653391
 21
206.2005069914
100
AcDbText
 73
3
  0
TEXT
  5
4A2
100
AcDbEntity
  8
DIMENSION__ISO_
100
AcDbText
  6
BYLAYER
 10
307.001653391
 20
209.5164456417
 40
3
  1
30
  7
Font_0
 50
90
 11
304.001653391
 21
209.5164456417
100
AcDbText
 73
3
  0
LINE
  5
4A3
100
AcDbEntity
  8
0
100
AcDbLine
  6
BYBLOCK
 62
0
370
  -2
 10
308.1624349237
 20
197.1040530036
 11
307.4925624237
 21
194.6040530036
  0
LINE
  5
4A4
100
AcDbEntity
  8
0
100
AcDbLine
  6
BYBLOCK
 62
0
370
  -2
 10
307.4925624237
 20
194.6040530036
 11
306.8226899237
 21
197.1040530036
  0
LINE
  5
4A5
100
AcDbEntity
  8
0
100
AcDbLine
  6
BYBLOCK
 62
0
370
  -2
 10
307.4925624237
 20
194.6040530036
 11
307.4925624237
 21
197.1040530036
  0
LINE
  5
4A6
100
AcDbEntity
  8
0
100
AcDbLine
  6
BYBLOCK
 62
0
370
  -2
 10
306.8226899237
 20
222.1040530036
 11
307.4925624237
 21
224.6040530036
  0
LINE
  5
4A7
100
AcDbEntity
  8
0
100
AcDbLine
  6
BYBLOCK
 62
0
370
  -2
 10
307.4925624237
 20
224.6040530036
 11
308.1624349237
 21
222.1040530036
  0
LINE
  5
4A8
100
AcDbEntity
  8
0
100
AcDbLine
  6
BYBLOCK
 62
0
370
  -2
 10
307.4925624237
 20
224.6040530036
 11
307.4925624237
 21
222.1040530036
  0
LINE
  5
4A9
100
AcDbEntity
  8
DIMENSION__ISO_
100
AcDbLine
  6
BYLAYER
 10
93.3804855168
 20
231.1040530036
 11
82.5395154589
 21
231.1040530036
  0
LINE
  5
4AA
100
AcDbEntity
  8
DIMENSION__ISO_
100
AcDbLine
  6
BYLAYER
 10
93.3804855168
 20
188.1040530036
 11
82.5395154589
 21
188.1040530036
  0
LINE
  5
4AB
100
AcDbEntity
  8
DIMENSION__ISO_
100
AcDbLine
  6
BYLAYER
 10
83.5395154589
 20
231.1040530036
 11
83.5395154589
 21
188.1040530036
  0
TEXT
  5
4AC
100
AcDbEntity
  8
DIMENSION__ISO_
100
AcDbText
  6
BYLAYER
 10
83.0486064262
 20
206.2005069914
 40
3
  1
Φ
  7
Font_0
 50
90.0000000000004
 11
80.0486064262
 21
206.2005069914
100
AcDbText
 73
3
  0
TEXT
  5
4AD
100
AcDbEntity
  8
DIMENSION__ISO_
100
AcDbText
  6
BYLAYER
 10
83.0486064262
 20
209.5164456417
 40
3
  1
43
  7
Font_0
 50
90.0000000000004
 11
80.0486064262
 21
209.5164456417
100
AcDbText
 73
3
  0
LINE
  5
4AE
100
AcDbEntity
  8
0
100
AcDbLine
  6
BYBLOCK
 62
0
370
  -2
 10
82.8696429589
 20
228.6040530036
 11
83.5395154589
 21
231.1040530036
  0
LINE
  5
4AF
100
AcDbEntity
  8
0
100
AcDbLine
  6
BYBLOCK
 62
0
370
  -2
 10
83.5395154589
 20
231.1040530036
 11
84.2093879589
 21
228.6040530036
  0
LINE
  5
4B0
100
AcDbEntity
  8
0
100
AcDbLine
  6
BYBLOCK
 62
0
370
  -2
 10
83.5395154589
 20
231.1040530036
 11
83.5395154589
 21
228.6040530036
  0
LINE
  5
4B1
100
AcDbEntity
  8
0
100
AcDbLine
  6
BYBLOCK
 62
0
370
  -2
 10
84.2093879589
 20
190.6040530036
 11
83.5395154589
 21
188.1040530036
  0
LINE
  5
4B2
100
AcDbEntity
  8
0
100
AcDbLine
  6
BYBLOCK
 62
0
370
  -2
 10
83.5395154589
 20
188.1040530036
 11
82.8696429589
 21
190.6040530036
  0
LINE
  5
4B3
100
AcDbEntity
  8
0
100
AcDbLine
  6
BYBLOCK
 62
0
370
  -2
 10
83.5395154589
 20
188.1040530036
 11
83.5395154589
 21
190.6040530036
  0
TEXT
  5
4B4
100
AcDbEntity
  8
DIMENSION__ISO_
 62
7
100
AcDbText
  6
BYLAYER
 62
7
 10
55.901619609
 20
73.7429824968
 40
2.38125
  1
WD
  7
Font_0
 11
55.901619609
 21
76.1242324968
100
AcDbText
 73
3
  0
TEXT
  5
4B5
100
AcDbEntity
  8
DIMENSION__ISO_
 62
7
100
AcDbText
  6
BYLAYER
 62
7
 10
56.0463768589
 20
68.9348539697
 40
2.38125
  1
N.A.
  7
Font_0
 11
56.0463768589
 21
71.3161039697
100
AcDbText
 73
3
  0
INSERT
  5
4B6
100
AcDbEntity
  8
0
100
AcDbBlockReference
  6
CONTINUOUS
 62
7
  2
穴注記1
 10
-4.0331624482
 20
51.5468419933
 30
0.0
  0
INSERT
  5
4B7
100
AcDbEntity
  8
0
100
AcDbBlockReference
  6
CONTINUOUS
 62
7
  2
穴注記2
 10
-4.0331624482
 20
51.5468419933
 30
0.0
  0
LINE
  5
4B8
100
AcDbEntity
  8
0
100
AcDbLine
  6
CONTINUOUS
 62
7
370
13
 10
191.2804855168
 20
194.6040530036
 11
171.6635385613
 21
180.3504073175
  0
LINE
  5
4B9
100
AcDbEntity
  8
0
100
AcDbLine
  6
CONTINUOUS
 62
7
370
13
 10
191.2804855168
 20
194.6040530036
 11
189.392609865953
 21
192.272545867231
  0
LINE
  5
4BA
100
AcDbEntity
  8
0
100
AcDbLine
  6
CONTINUOUS
 62
7
370
13
 10
191.2804855168
 20
194.6040530036
 11
188.479783675796
 21
193.528846419823
  0
LINE
  5
4BB
100
AcDbEntity
  8
0
100
AcDbLine
  6
CONTINUOUS
 62
7
370
13
 10
206.2804855168
 20
209.6040530036
 11
176.6422393337
 21
171.2548948241
  0
LINE
  5
4BC
100
AcDbEntity
  8
0
100
AcDbLine
  6
CONTINUOUS
 62
7
370
13
 10
206.2804855168
 20
209.6040530036
 11
205.122828452218
 21
206.836413193071
  0
LINE
  5
4BD
100
AcDbEntity
  8
0
100
AcDbLine
  6
CONTINUOUS
 62
7
370
13
 10
206.2804855168
 20
209.6040530036
 11
203.894105184737
 21
207.786035151448
  0
LINE
  5
4BE
100
AcDbEntity
  8
0
100
AcDbLine
  6
CONTINUOUS
 62
7
370
30
 10
226.2804855168
 20
149.1661840259
 11
225.7804855168
 21
149.6661840259
  0
LINE
  5
4BF
100
AcDbEntity
  8
CENTERLINE__ISO_
100
AcDbLine
  6
CONTINUOUS
 10
197.76102776426
 20
127.1661840259
 11
199.26102776426
 21
127.1661840259
  0
LINE
  5
4C0
100
AcDbEntity
  8
CENTERLINE__ISO_
100
AcDbLine
  6
CONTINUOUS
 10
200.76102776426
 20
127.1661840259
 11
204.87348230976
 21
127.1661840259
  0
LINE
  5
4C1
100
AcDbEntity
  8
CENTERLINE__ISO_
100
AcDbLine
  6
CONTINUOUS
 10
206.37348230976
 20
127.1661840259
 11
207.87348230976
 21
127.1661840259
  0
LINE
  5
4C2
100
AcDbEntity
  8
CENTERLINE__ISO_
100
AcDbLine
  6
CONTINUOUS
 10
209.37348230976
 20
127.1661840259
 11
213.48593685516
 21
127.1661840259
  0
LINE
  5
4C3
100
AcDbEntity
  8
CENTERLINE__ISO_
100
AcDbLine
  6
CONTINUOUS
 10
215.35799600073
 20
127.1661840259
 11
216.85799600073
 21
127.1661840259
  0
LINE
  5
4C4
100
AcDbEntity
  8
CENTERLINE__ISO_
100
AcDbLine
  6
CONTINUOUS
 10
218.35799600073
 20
127.1661840259
 11
222.47045054623
 21
127.1661840259
  0
LINE
  5
4C5
100
AcDbEntity
  8
CENTERLINE__ISO_
100
AcDbLine
  6
CONTINUOUS
 10
223.97045054623
 20
127.1661840259
 11
225.47045054623
 21
127.1661840259
  0
LINE
  5
4C6
100
AcDbEntity
  8
CENTERLINE__ISO_
100
AcDbLine
  6
CONTINUOUS
 10
226.97045054623
 20
127.1661840259
 11
231.08290509163
 21
127.1661840259
  0
LINE
  5
4C7
100
AcDbEntity
  8
CENTERLINE__ISO_
100
AcDbLine
  6
CONTINUOUS
 10
233.08065686746
 20
127.1661840259
 11
234.58065686746
 21
127.1661840259
  0
LINE
  5
4C8
100
AcDbEntity
  8
CENTERLINE__ISO_
100
AcDbLine
  6
CONTINUOUS
 10
236.08065686746
 20
127.1661840259
 11
240.19311141296
 21
127.1661840259
  0
LINE
  5
4C9
100
AcDbEntity
  8
CENTERLINE__ISO_
100
AcDbLine
  6
CONTINUOUS
 10
241.69311141296
 20
127.1661840259
 11
243.19311141296
 21
127.1661840259
  0
LINE
  5
4CA
100
AcDbEntity
  8
CENTERLINE__ISO_
100
AcDbLine
  6
CONTINUOUS
 10
244.69311141296
 20
127.1661840259
 11
248.80556595836
 21
127.1661840259
  0
ENDSEC
  0
SECTION
  2
OBJECTS
  0
DICTIONARY
  5
4CB
100
AcDbDictionary
  3
ACAD_GROUP
350
4CC
  3
ACAD_MLINESTYLE
350
4CD
  0
DICTIONARY
  5
4CC
102
{ACAD_REACTORS
330
4CB
102
}
100
AcDbDictionary
  0
DICTIONARY
  5
4CD
102
{ACAD_REACTORS
330
4CB
102
}
100
AcDbDictionary
  3
STANDARD
350
4CE
  0
MLINESTYLE
  5
4CE
102
{ACAD_REACTORS
330
4CD
102
}
100
AcDbMlineStyle
  2
Standard
 70
     0
  3

 62
     0
 51
90.0
 52
90.0
 71
     2
 49
0.5
 62
   256
  6
ByLayer
 49
-0.5
 62
   256
  6
ByLayer
  0
ENDSEC
  0
EOF
